  0
SECTION
  2
HEADER
  9
$ACADVER
  1
AC1012
  9
$DWGCODEPAGE
  3
ansi_1252
  9
$INSBASE
 10
0.0
 20
0.0
 30
0.0
  9
$EXTMIN
 10
0.0
 20
0.0
 30
0.0
  9
$EXTMAX
 10
210.0
 20
297.0
 30
0.0
  9
$LIMMIN
 10
0.0
 20
0.0
  9
$LIMMAX
 10
210.0
 20
297.0
  9
$ORTHOMODE
 70
     0
  9
$REGENMODE
 70
     1
  9
$FILLMODE
 70
     1
  9
$QTEXTMODE
 70
     0
  9
$MIRRTEXT
 70
     1
  9
$DRAGMODE
 70
     2
  9
$LTSCALE
 40
1.0
  9
$OSMODE
 70
    37
  9
$ATTMODE
 70
     1
  9
$TEXTSIZE
 40
0.2
  9
$TRACEWID
 40
0.05
  9
$TEXTSTYLE
  7
STANDARD
  9
$CLAYER
  8
0
  9
$CELTYPE
  6
BYLAYER
  9
$CECOLOR
 62
   256
  9
$CELTSCALE
 40
25.4
  9
$DELOBJ
 70
     1
  9
$DISPSILH
 70
     0
  9
$DIMSCALE
 40
1.0
  9
$DIMASZ
 40
0.18
  9
$DIMEXO
 40
0.0625
  9
$DIMDLI
 40
0.38
  9
$DIMRND
 40
0.0
  9
$DIMDLE
 40
0.0
  9
$DIMEXE
 40
0.18
  9
$DIMTP
 40
0.0
  9
$DIMTM
 40
0.0
  9
$DIMTXT
 40
0.18
  9
$DIMCEN
 40
0.09
  9
$DIMTSZ
 40
0.0
  9
$DIMTOL
 70
     0
  9
$DIMLIM
 70
     0
  9
$DIMTIH
 70
     1
  9
$DIMTOH
 70
     1
  9
$DIMSE1
 70
     0
  9
$DIMSE2
 70
     0
  9
$DIMTAD
 70
     0
  9
$DIMZIN
 70
     0
  9
$DIMBLK
  1

  9
$DIMASO
 70
     1
  9
$DIMSHO
 70
     1
  9
$DIMPOST
  1

  9
$DIMAPOST
  1

  9
$DIMALT
 70
     0
  9
$DIMALTD
 70
     2
  9
$DIMALTF
 40
25.4
  9
$DIMLFAC
 40
1.0
  9
$DIMTOFL
 70
     0
  9
$DIMTVP
 40
0.0
  9
$DIMTIX
 70
     0
  9
$DIMSOXD
 70
     0
  9
$DIMSAH
 70
     0
  9
$DIMBLK1
  1

  9
$DIMBLK2
  1

  9
$DIMSTYLE
  2
STANDARD
  9
$DIMCLRD
 70
     0
  9
$DIMCLRE
 70
     0
  9
$DIMCLRT
 70
     0
  9
$DIMTFAC
 40
1.0
  9
$DIMGAP
 40
0.09
  9
$DIMJUST
 70
     0
  9
$DIMSD1
 70
     0
  9
$DIMSD2
 70
     0
  9
$DIMTOLJ
 70
     1
  9
$DIMTZIN
 70
     0
  9
$DIMALTZ
 70
     0
  9
$DIMALTTZ
 70
     0
  9
$DIMFIT
 70
     3
  9
$DIMUPT
 70
     0
  9
$DIMUNIT
 70
     2
  9
$DIMDEC
 70
     4
  9
$DIMTDEC
 70
     4
  9
$DIMALTU
 70
     2
  9
$DIMALTTD
 70
     2
  9
$DIMTXSTY
  7
STANDARD
  9
$DIMAUNIT
 70
     0
  9
$LUNITS
 70
     2
  9
$LUPREC
 70
     4
  9
$SKETCHINC
 40
0.1
  9
$FILLETRAD
 40
0.5
  9
$AUNITS
 70
     0
  9
$AUPREC
 70
     0
  9
$MENU
  1
.
  9
$ELEVATION
 40
0.0
  9
$PELEVATION
 40
0.0
  9
$THICKNESS
 40
0.0
  9
$LIMCHECK
 70
     0
  9
$CHAMFERA
 40
0.5
  9
$CHAMFERB
 40
0.5
  9
$CHAMFERC
 40
1.0
  9
$CHAMFERD
 40
0.0
  9
$SKPOLY
 70
     0
  9
$TDCREATE
 40
2453762.545188912
  9
$TDUPDATE
 40
2453762.545188924
  9
$TDINDWG
 40
0.0000000116
  9
$TDUSRTIMER
 40
0.0000000116
  9
$USRTIMER
 70
     1
  9
$ANGBASE
 50
0.0
  9
$ANGDIR
 70
     0
  9
$PDMODE
 70
     0
  9
$PDSIZE
 40
0.0
  9
$PLINEWID
 40
0.0
  9
$COORDS
 70
     1
  9
$SPLFRAME
 70
     0
  9
$SPLINETYPE
 70
     6
  9
$SPLINESEGS
 70
     8
  9
$ATTDIA
 70
     0
  9
$ATTREQ
 70
     1
  9
$HANDLING
 70
     1
  9
$HANDSEED
  5
D7
  9
$SURFTAB1
 70
     6
  9
$SURFTAB2
 70
     6
  9
$SURFTYPE
 70
     6
  9
$SURFU
 70
     6
  9
$SURFV
 70
     6
  9
$UCSNAME
  2

  9
$UCSORG
 10
0.0
 20
0.0
 30
0.0
  9
$UCSXDIR
 10
1.0
 20
0.0
 30
0.0
  9
$UCSYDIR
 10
0.0
 20
1.0
 30
0.0
  9
$PUCSNAME
  2

  9
$PUCSORG
 10
0.0
 20
0.0
 30
0.0
  9
$PUCSXDIR
 10
1.0
 20
0.0
 30
0.0
  9
$PUCSYDIR
 10
0.0
 20
1.0
 30
0.0
  9
$USERI1
 70
     0
  9
$USERI2
 70
     0
  9
$USERI3
 70
     0
  9
$USERI4
 70
     0
  9
$USERI5
 70
     0
  9
$USERR1
 40
0.0
  9
$USERR2
 40
0.0
  9
$USERR3
 40
0.0
  9
$USERR4
 40
0.0
  9
$USERR5
 40
0.0
  9
$WORLDVIEW
 70
     1
  9
$SHADEDGE
 70
     3
  9
$SHADEDIF
 70
    70
  9
$TILEMODE
 70
     1
  9
$MAXACTVP
 70
    64
  9
$PINSBASE
 10
0.0
 20
0.0
 30
0.0
  9
$PLIMCHECK
 70
     0
  9
$PEXTMIN
 10
0.0
 20
0.0
 30
0.0
  9
$PEXTMAX
 10
210.0
 20
297.0
 30
0.0
  9
$PLIMMIN
 10
0.0
 20
0.0
  9
$PLIMMAX
 10
12.0
 20
9.0
  9
$UNITMODE
 70
     0
  9
$VISRETAIN
 70
     1
  9
$PLINEGEN
 70
     0
  9
$PSLTSCALE
 70
     1
  9
$TREEDEPTH
 70
  3020
  9
$PICKSTYLE
 70
     1
  9
$CMLSTYLE
  2
STANDARD
  9
$CMLJUST
 70
     0
  9
$CMLSCALE
 40
1.0
  9
$SAVEIMAGES
 70
     1
  0
ENDSEC
  0
SECTION
  2
CLASSES
  0
CLASS
  1
ACDBDICTIONARYWDFLT
  2
AcDbDictionaryWithDefault
  3
ObjectDBX Classes
 90
        0
280
     0
281
     0
  0
CLASS
  1
TABLESTYLE
  2
AcDbTableStyle
  3
ObjectDBX Classes
 90
     2047
280
     0
281
     0
  0
CLASS
  1
DICTIONARYVAR
  2
AcDbDictionaryVar
  3
ObjectDBX Classes
 90
        0
280
     0
281
     0
  0
CLASS
  1
XRECORD
  2
AcDbXrecord
  3
AutoCAD 2000
 90
    32768
280
     0
281
     0
  0
CLASS
  1
LWPOLYLINE
  2
AcDbPolyline
  3
AutoCAD 2000
 90
    32768
280
     0
281
     1
  0
CLASS
  1
HATCH
  2
AcDbHatch
  3
AutoCAD 2000
 90
    32768
280
     0
281
     1
  0
CLASS
  1
ACDBPLACEHOLDER
  2
AcDbPlaceHolder
  3
ObjectDBX Classes
 90
        0
280
     0
281
     0
  0
CLASS
  1
LAYOUT
  2
AcDbLayout
  3
ObjectDBX Classes
 90
        0
280
     0
281
     0
  0
ENDSEC
  0
SECTION
  2
TABLES
  0
TABLE
  2
VPORT
  5
8
330
0
100
AcDbSymbolTable
 70
     2
  0
VPORT
  5
29
102
{ACAD_XDICTIONARY
360
D5
102
}
330
8
100
AcDbSymbolTableRecord
100
AcDbViewportTableRecord
  2
*ACTIVE
 70
     0
 10
0.0
 20
0.0
 11
1.0
 21
1.0
 12
10.4299065421
 22
4.5
 13
0.0
 23
0.0
 14
0.5
 24
0.5
 15
0.5
 25
0.5
 16
0.0
 26
0.0
 36
1.0
 17
0.0
 27
0.0
 37
0.0
 40
9.0
 41
1.9729729729
 42
50.0
 43
0.0
 44
0.0
 50
0.0
 51
0.0
 71
     0
 72
   100
 73
     1
 74
     3
 75
     0
 76
     0
 77
     0
 78
     0
  0
ENDTAB
  0
TABLE
  2
LTYPE
  5
5
330
0
100
AcDbSymbolTable
 70
     2
  0
LTYPE
  5
14
330
5
100
AcDbSymbolTableRecord
100
AcDbLinetypeTableRecord
  2
BYBLOCK
 70
     0
  3

 72
    65
 73
     0
 40
0.0
  0
LTYPE
  5
15
330
5
100
AcDbSymbolTableRecord
100
AcDbLinetypeTableRecord
  2
BYLAYER
 70
     0
  3

 72
    65
 73
     0
 40
0.0
  0
LTYPE
  5
16
330
5
100
AcDbSymbolTableRecord
100
AcDbLinetypeTableRecord
  2
CONTINUOUS
 70
     0
  3
Solid line
 72
    65
 73
     0
 40
0.0
  0
LTYPE
  5
57
330
5
100
AcDbSymbolTableRecord
100
AcDbLinetypeTableRecord
  2
CENTER2
 70
     0
  3
___ _ ___ _ ___ _ ___ _ ___ _ ___ _ ___ _ ___ _
 72
    65
 73
     4
 40
1.125
 49
0.75
 74
     4
 75
     0
340
0
 46
0.0
 50
0.0
 44
0.0
 45
0.0
 49
-0.125
 74
     4
 75
     0
340
0
 46
0.0
 50
0.0
 44
0.0
 45
0.0
 49
0.125
 74
     4
 75
     0
340
0
 46
0.0
 50
0.0
 44
0.0
 45
0.0
 49
-0.125
 74
     4
 75
     0
340
0
 46
0.0
 50
0.0
 44
0.0
 45
0.0
  0
ENDTAB
  0
TABLE
  2
LAYER
  5
2
330
0
100
AcDbSymbolTable
 70
     5
  0
LAYER
  5
10
330
2
100
AcDbSymbolTableRecord
100
AcDbLayerTableRecord
  2
0
 70
     0
 62
     7
  6
CONTINUOUS
  0
LAYER
  5
30
330
2
100
AcDbSymbolTableRecord
100
AcDbLayerTableRecord
  2
MEGA_002168
 70
     0
 62
     7
  6
CONTINUOUS
  0
LAYER
  5
3D
330
2
100
AcDbSymbolTableRecord
100
AcDbLayerTableRecord
  2
SCHRAUBE_DIN_EN_
 70
     0
 62
     7
  6
CONTINUOUS
  0
LAYER
  5
56
330
2
100
AcDbSymbolTableRecord
100
AcDbLayerTableRecord
  2
STANDARD
 70
     0
 62
     7
  6
CONTINUOUS
  0
LAYER
  5
5F
330
2
100
AcDbSymbolTableRecord
100
AcDbLayerTableRecord
  2
DEFAULT
 70
     0
 62
     7
  6
CONTINUOUS
  0
ENDTAB
  0
TABLE
  2
STYLE
  5
3
330
0
100
AcDbSymbolTable
 70
     3
  0
STYLE
  5
11
330
3
100
AcDbSymbolTableRecord
100
AcDbTextStyleTableRecord
  2
STANDARD
 70
     0
 40
0.0
 41
1.0
 50
0.0
 71
     0
 42
0.2
  3
txt
  4

  0
STYLE
  5
64
330
3
100
AcDbSymbolTableRecord
100
AcDbTextStyleTableRecord
  2
SEACAD_SEISO_TTF
 70
     0
 40
0.2
 41
1.0
 50
0.0
 71
     0
 42
0.2
  3
seiso.ttf
  4

  0
STYLE
  5
71
330
3
100
AcDbSymbolTableRecord
100
AcDbTextStyleTableRecord
  2
SEACAD_SEMECI1_TTF
 70
     0
 40
0.2
 41
1.0
 50
0.0
 71
     0
 42
0.2
  3
semeci1.ttf
  4

  0
ENDTAB
  0
TABLE
  2
VIEW
  5
6
330
0
100
AcDbSymbolTable
 70
     0
  0
ENDTAB
  0
TABLE
  2
UCS
  5
7
330
0
100
AcDbSymbolTable
 70
     0
  0
ENDTAB
  0
TABLE
  2
APPID
  5
9
330
0
100
AcDbSymbolTable
 70
     1
  0
APPID
  5
12
330
9
100
AcDbSymbolTableRecord
100
AcDbRegAppTableRecord
  2
ACAD
 70
     0
  0
ENDTAB
  0
TABLE
  2
DIMSTYLE
  5
A
330
0
100
AcDbSymbolTable
 70
     1
  0
DIMSTYLE
105
27
330
A
100
AcDbSymbolTableRecord
100
AcDbDimStyleTableRecord
  2
STANDARD
 70
     0
  3

  4

  5

  6

  7

 40
1.0
 41
0.18
 42
0.0625
 43
0.38
 44
0.18
 45
0.0
 46
0.0
 47
0.0
 48
0.0
140
0.18
141
0.09
142
0.0
143
25.4
144
1.0
145
0.0
146
1.0
147
0.09
 71
     0
 72
     0
 73
     1
 74
     1
 75
     0
 76
     0
 77
     0
 78
     0
170
     0
171
     2
172
     0
173
     0
174
     0
175
     0
176
     0
177
     0
178
     0
270
     2
271
     4
272
     4
273
     2
274
     2
340
11
275
     0
280
     0
281
     0
282
     0
283
     1
284
     0
285
     0
286
     0
287
     3
288
     0
  0
ENDTAB
  0
TABLE
  2
BLOCK_RECORD
  5
1
330
0
100
AcDbSymbolTable
 70
     8
  0
BLOCK_RECORD
  5
1F
330
1
100
AcDbSymbolTableRecord
100
AcDbBlockTableRecord
  2
*MODEL_SPACE
  0
BLOCK_RECORD
  5
1B
330
1
100
AcDbSymbolTableRecord
100
AcDbBlockTableRecord
  2
*PAPER_SPACE
  0
BLOCK_RECORD
  5
2E
330
1
100
AcDbSymbolTableRecord
100
AcDbBlockTableRecord
  2
SE
  0
BLOCK_RECORD
  5
5D
330
1
100
AcDbSymbolTableRecord
100
AcDbBlockTableRecord
  2
SE1
  0
BLOCK_RECORD
  5
69
330
1
100
AcDbSymbolTableRecord
100
AcDbBlockTableRecord
  2
SE2
  0
BLOCK_RECORD
  5
75
330
1
100
AcDbSymbolTableRecord
100
AcDbBlockTableRecord
  2
SE3
  0
BLOCK_RECORD
  5
7F
330
1
100
AcDbSymbolTableRecord
100
AcDbBlockTableRecord
  2
SE4
  0
BLOCK_RECORD
  5
89
330
1
100
AcDbSymbolTableRecord
100
AcDbBlockTableRecord
  2
SE5
  0
BLOCK_RECORD
  5
94
330
1
100
AcDbSymbolTableRecord
100
AcDbBlockTableRecord
  2
SE6
  0
ENDTAB
  0
ENDSEC
  0
SECTION
  2
BLOCKS
  0
BLOCK
  5
20
330
1F
100
AcDbEntity
  8
0
100
AcDbBlockBegin
  2
*MODEL_SPACE
 70
     0
 71
     0
 10
0.0
 20
0.0
 30
0.0
  3
*MODEL_SPACE
  1

  0
ENDBLK
  5
21
330
1F
100
AcDbEntity
  8
0
100
AcDbBlockEnd
  0
BLOCK
  5
1C
330
1B
100
AcDbEntity
 67
     1
  8
0
100
AcDbBlockBegin
  2
*PAPER_SPACE
 70
     0
 71
     0
 10
0.0
 20
0.0
 30
0.0
  3
*PAPER_SPACE
  1

  0
ENDBLK
  5
1D
330
1B
100
AcDbEntity
 67
     1
  8
0
100
AcDbBlockEnd
  0
BLOCK
  5
5B
330
2E
100
AcDbEntity
  8
0
100
AcDbBlockBegin
  2
SE
 70
     0
 71
     0
 10
0.0
 20
0.0
 30
0.0
  3
SE
  1

  0
LINE
  5
31
330
2E
100
AcDbEntity
  8
MEGA_002168
  6
CONTINUOUS
 62
     7
 48
25.4
100
AcDbLine
 10
127.4603838469
 20
166.5469609773
 30
0.0
 11
112.4603838469
 21
166.5469609773
 31
0.0
  0
ARC
  5
32
330
2E
100
AcDbEntity
  8
MEGA_002168
  6
CONTINUOUS
 62
     7
 48
25.4
100
AcDbCircle
 10
104.2341405751
 20
181.6130971435
 30
0.0
 40
2.0
100
AcDbArc
 50
93.0
 51
171.9046438437
  0
LINE
  5
33
330
2E
100
AcDbEntity
  8
MEGA_002168
  6
CONTINUOUS
 62
     7
 48
25.4
100
AcDbLine
 10
112.4603838469
 20
131.1545212278
 30
0.0
 11
112.4603838469
 21
181.9394007267
 31
0.0
  0
LINE
  5
34
330
2E
100
AcDbEntity
  8
MEGA_002168
  6
CONTINUOUS
 62
     7
 48
25.4
100
AcDbLine
 10
104.1294686626
 20
129.4835657415
 30
0.0
 11
104.1294686626
 21
183.610356213
 31
0.0
  0
LINE
  5
35
330
2E
100
AcDbEntity
  8
MEGA_002168
  6
CONTINUOUS
 62
     7
 48
25.4
100
AcDbLine
 10
127.4603838469
 20
146.5469609773
 30
0.0
 11
127.4603838469
 21
166.5469609773
 31
0.0
  0
ARC
  5
36
330
2E
100
AcDbEntity
  8
MEGA_002168
  6
CONTINUOUS
 62
     7
 48
25.4
100
AcDbCircle
 10
110.4603838469
 20
131.1545212278
 30
0.0
 40
2.0
100
AcDbArc
 50
267.0
 51
360.0
  0
LINE
  5
37
330
2E
100
AcDbEntity
  8
MEGA_002168
  6
CONTINUOUS
 62
     7
 48
25.4
100
AcDbLine
 10
110.3557119344
 20
183.9366597962
 30
0.0
 11
104.1294686626
 21
183.610356213
 31
0.0
  0
ARC
  5
38
330
2E
100
AcDbEntity
  8
MEGA_002168
  6
CONTINUOUS
 62
     7
 48
25.4
100
AcDbCircle
 10
110.4603838469
 20
181.9394007267
 30
0.0
 40
2.0
100
AcDbArc
 50
0.0
 51
93.0
  0
LINE
  5
39
330
2E
100
AcDbEntity
  8
MEGA_002168
  6
CONTINUOUS
 62
     7
 48
25.4
100
AcDbLine
 10
104.1294686626
 20
129.4835657415
 30
0.0
 11
110.3557119344
 21
129.1572621583
 31
0.0
  0
LINE
  5
3A
330
2E
100
AcDbEntity
  8
MEGA_002168
  6
CONTINUOUS
 62
     7
 48
25.4
100
AcDbLine
 10
112.4603838469
 20
146.5469609773
 30
0.0
 11
127.4603838469
 21
146.5469609773
 31
0.0
  0
ARC
  5
3B
330
2E
100
AcDbEntity
  8
MEGA_002168
  6
CONTINUOUS
 62
     7
 48
25.4
100
AcDbCircle
 10
280.4603838469
 20
156.5469609773
 30
0.0
 40
180.0
100
AcDbArc
 50
171.9046438437
 51
188.0953561563
  0
ARC
  5
3C
330
2E
100
AcDbEntity
  8
MEGA_002168
  6
CONTINUOUS
 62
     7
 48
25.4
100
AcDbCircle
 10
104.2341405751
 20
131.480824811
 30
0.0
 40
2.0
100
AcDbArc
 50
188.0953561563
 51
267.0
  0
LINE
  5
3E
330
2E
100
AcDbEntity
  8
SCHRAUBE_DIN_EN_
  6
CONTINUOUS
 62
     7
 48
25.4
100
AcDbLine
 10
134.268123936
 20
154.6460176303
 30
0.0
 11
134.2742751232
 21
154.6397233922
 31
0.0
  0
LINE
  5
3F
330
2E
100
AcDbEntity
  8
SCHRAUBE_DIN_EN_
  6
CONTINUOUS
 62
     7
 48
25.4
100
AcDbLine
 10
134.3565298269
 20
156.2814402854
 30
0.0
 11
134.2703300994
 21
156.2932008684
 31
0.0
  0
ELLIPSE
  5
40
330
2E
100
AcDbEntity
  8
SCHRAUBE_DIN_EN_
  6
CONTINUOUS
 62
     7
 48
25.4
100
AcDbEllipse
 10
128.0603838425
 20
156.5469609785
 30
0.0
 11
6.500000004457106
 21
-4.408715000000000E-8
 31
0.0
210
0.0
220
0.0
230
1.0
 40
0.9863939235
 41
5.982173324951894
 42
6.032077875963977
  0
ELLIPSE
  5
41
330
2E
100
AcDbEntity
  8
SCHRAUBE_DIN_EN_
  6
CONTINUOUS
 62
     7
 48
25.4
100
AcDbEllipse
 10
128.787149457
 20
157.186184366
 30
0.0
 11
4.129099157344652
 21
-4.694583021395453
 31
0.0
210
0.0
220
0.0
230
1.0
 40
0.8388564142
 41
0.5424897927893049
 42
0.7022996294503446
  0
ELLIPSE
  5
42
330
2E
100
AcDbEntity
  8
SCHRAUBE_DIN_EN_
  6
CONTINUOUS
 62
     7
 48
25.4
100
AcDbEllipse
 10
128.7871494569
 20
158.0384822177
 30
0.0
 11
5.620372749219345
 21
-2.73860909153743
 31
0.0
210
0.0
220
0.0
230
0.9999999999999999
 40
0.3595098918
 41
0.2328414257102826
 42
0.3926512623706794
  0
ELLIPSE
  5
43
330
2E
100
AcDbEntity
  8
SCHRAUBE_DIN_EN_
  6
CONTINUOUS
 62
     7
 48
25.4
100
AcDbEllipse
 10
128.0603838421
 20
156.5469609775
 30
0.0
 11
6.500000004795666
 21
-2.222147000000000E-10
 31
0.0
210
0.0
220
0.0
230
1.0
 40
0.1643989873
 41
5.982173318275428
 42
6.032077869285835
  0
LINE
  5
44
330
2E
100
AcDbEntity
  8
SCHRAUBE_DIN_EN_
  6
CONTINUOUS
 62
     7
 48
25.4
100
AcDbLine
 10
134.3565298269
 20
156.8124816691
 30
0.0
 11
134.2703300994
 21
156.8007210861
 31
0.0
  0
ARC
  5
45
330
2E
100
AcDbEntity
  8
SCHRAUBE_DIN_EN_
  6
CONTINUOUS
 62
     7
 48
25.4
100
AcDbCircle
 10
126.1152325151
 20
156.5469609773
 30
0.0
 40
8.159045035900007
100
AcDbArc
 50
357.7745879894
 51
2.2254120106
  0
ELLIPSE
  5
46
330
2E
100
AcDbEntity
  8
SCHRAUBE_DIN_EN_
  6
CONTINUOUS
 62
     7
 48
25.4
100
AcDbEllipse
 10
128.0603838416
 20
156.546960977
 30
0.0
 11
6.500000005285297
 21
2.423082000000000E-10
 31
0.0
210
0.0
220
0.0
230
1.0
 40
0.1643989872
 41
0.2511074378839177
 42
0.3010119888923791
  0
ELLIPSE
  5
47
330
2E
100
AcDbEntity
  8
SCHRAUBE_DIN_EN_
  6
CONTINUOUS
 62
     7
 48
25.4
100
AcDbEllipse
 10
128.060383846
 20
156.546960977
 30
0.0
 11
6.500000000905582
 21
9.182533800000002E-9
 31
0.0
210
0.0
220
0.0
230
1.0
 40
0.9863939238
 41
0.2511074365796355
 42
0.3010119876054822
  0
ELLIPSE
  5
48
330
2E
100
AcDbEntity
  8
SCHRAUBE_DIN_EN_
  6
CONTINUOUS
 62
     7
 48
25.4
100
AcDbEllipse
 10
128.7871494568
 20
155.0554397367
 30
0.0
 11
5.620372749300736
 21
2.738609091564809
 31
0.0
210
0.0
220
0.0
230
1.0
 40
0.3595098918
 41
5.890534044812217
 42
6.05034388147147
  0
ELLIPSE
  5
49
330
2E
100
AcDbEntity
  8
SCHRAUBE_DIN_EN_
  6
CONTINUOUS
 62
     7
 48
25.4
100
AcDbEllipse
 10
128.787149457
 20
155.9077375885
 30
0.0
 11
4.129099157347659
 21
4.694583021394788
 31
0.0
210
0.0
220
0.0
230
1.0
 40
0.8388564142
 41
5.580885677729715
 42
5.740695514390701
  0
LINE
  5
4A
330
2E
100
AcDbEntity
  8
SCHRAUBE_DIN_EN_
  6
CONTINUOUS
 62
     7
 48
25.4
100
AcDbLine
 10
131.4603838469
 20
152.5469609773
 30
0.0
 11
131.4603838469
 21
160.5469609773
 31
0.0
  0
LINE
  5
4B
330
2E
100
AcDbEntity
  8
SCHRAUBE_DIN_EN_
  6
CONTINUOUS
 62
     7
 48
25.4
100
AcDbLine
 10
131.0603838469
 20
154.5469609773
 30
0.0
 11
131.0603838469
 21
158.5469609773
 31
0.0
  0
LINE
  5
4C
330
2E
100
AcDbEntity
  8
SCHRAUBE_DIN_EN_
  6
CONTINUOUS
 62
     7
 48
25.4
100
AcDbLine
 10
133.1838592299
 20
152.5469609773
 30
0.0
 11
133.1838592299
 21
160.5469609773
 31
0.0
  0
ARC
  5
4D
330
2E
100
AcDbEntity
  8
SCHRAUBE_DIN_EN_
  6
CONTINUOUS
 62
     7
 48
25.4
100
AcDbCircle
 10
131.2603838469
 20
154.5469609773
 30
0.0
 40
0.1999999999999886
100
AcDbArc
 50
0.0
 51
180.0
  0
ARC
  5
4E
330
2E
100
AcDbEntity
  8
SCHRAUBE_DIN_EN_
  6
CONTINUOUS
 62
     7
 48
25.4
100
AcDbCircle
 10
128.0603838469
 20
156.5469609773
 30
0.0
 40
6.500000000000001
100
AcDbArc
 50
17.0628877539
 51
37.9798724449
  0
LINE
  5
4F
330
2E
100
AcDbEntity
  8
SCHRAUBE_DIN_EN_
  6
CONTINUOUS
 62
     7
 48
25.4
100
AcDbLine
 10
127.4603838469
 20
154.5469609773
 30
0.0
 11
131.0603838469
 21
154.5469609773
 31
0.0
  0
LINE
  5
50
330
2E
100
AcDbEntity
  8
SCHRAUBE_DIN_EN_
  6
CONTINUOUS
 62
     7
 48
25.4
100
AcDbLine
 10
133.1838592299
 20
160.5469609773
 30
0.0
 11
131.4603838469
 21
160.5469609773
 31
0.0
  0
ARC
  5
51
330
2E
100
AcDbEntity
  8
SCHRAUBE_DIN_EN_
  6
CONTINUOUS
 62
     7
 48
25.4
100
AcDbCircle
 10
131.2603838469
 20
158.5469609773
 30
0.0
 40
0.1999999999999886
100
AcDbArc
 50
180.0
 51
360.0
  0
ARC
  5
52
330
2E
100
AcDbEntity
  8
SCHRAUBE_DIN_EN_
  6
CONTINUOUS
 62
     7
 48
25.4
100
AcDbCircle
 10
128.0603838469
 20
156.5469609773
 30
0.0
 40
6.500000000000001
100
AcDbArc
 50
322.0201275551
 51
342.9371122461
  0
LINE
  5
53
330
2E
100
AcDbEntity
  8
SCHRAUBE_DIN_EN_
  6
CONTINUOUS
 62
     7
 48
25.4
100
AcDbLine
 10
131.0603838469
 20
158.5469609773
 30
0.0
 11
127.4603838469
 21
158.5469609773
 31
0.0
  0
LINE
  5
54
330
2E
100
AcDbEntity
  8
SCHRAUBE_DIN_EN_
  6
CONTINUOUS
 62
     7
 48
25.4
100
AcDbLine
 10
134.268123936
 20
158.4479043242
 30
0.0
 11
134.2742751232
 21
158.4541985623
 31
0.0
  0
LINE
  5
55
330
2E
100
AcDbEntity
  8
SCHRAUBE_DIN_EN_
  6
CONTINUOUS
 62
     7
 48
25.4
100
AcDbLine
 10
131.4603838469
 20
152.5469609773
 30
0.0
 11
133.1838592299
 21
152.5469609773
 31
0.0
  0
LINE
  5
58
330
2E
100
AcDbEntity
  8
STANDARD
  6
CENTER2
 62
     7
 48
25.4
100
AcDbLine
 10
100.4603838469
 20
156.5469609773
 30
0.0
 11
133.1838592299
 21
156.5469609773
 31
0.0
  0
LINE
  5
59
330
2E
100
AcDbEntity
  8
STANDARD
  6
CENTER2
 62
     7
 48
25.4
100
AcDbLine
 10
100.4603838469
 20
156.5469609773
 30
0.0
 11
96.9727008105
 21
156.5469609773
 31
0.0
  0
LINE
  5
5A
330
2E
100
AcDbEntity
  8
STANDARD
  6
CENTER2
 62
     7
 48
25.4
100
AcDbLine
 10
133.1838592299
 20
156.5469609773
 30
0.0
 11
138.5197981365
 21
156.5469609773
 31
0.0
  0
ENDBLK
  5
5C
330
2E
100
AcDbEntity
  8
0
100
AcDbBlockEnd
  0
BLOCK
  5
67
330
5D
100
AcDbEntity
  8
0
100
AcDbBlockBegin
  2
SE1
 70
     0
 71
     0
 10
0.0
 20
0.0
 30
0.0
  3
SE1
  1

  0
POLYLINE
  5
60
330
5D
100
AcDbEntity
  8
DEFAULT
  6
CONTINUOUS
 62
     7
 48
25.4
100
AcDb2dPolyline
 66
     1
 10
0.0
 20
0.0
 30
0.0
 70
     1
  0
VERTEX
  5
9F
330
60
100
AcDbEntity
  8
DEFAULT
  6
CONTINUOUS
 62
     7
100
AcDbVertex
100
AcDb2dVertex
 10
144.1021668935
 20
161.5469610033
 30
0.0
  0
VERTEX
  5
A0
330
60
100
AcDbEntity
  8
DEFAULT
  6
CONTINUOUS
 62
     7
100
AcDbVertex
100
AcDb2dVertex
 10
143.6021668892
 20
158.5469609773
 30
0.0
  0
VERTEX
  5
A1
330
60
100
AcDbEntity
  8
DEFAULT
  6
CONTINUOUS
 62
     7
100
AcDbVertex
100
AcDb2dVertex
 10
143.1021668848
 20
161.5469610033
 30
0.0
  0
VERTEX
  5
A2
330
60
100
AcDbEntity
  8
DEFAULT
  6
CONTINUOUS
 62
     7
100
AcDbVertex
100
AcDb2dVertex
 10
144.1021668935
 20
161.5469610033
 30
0.0
  0
SEQEND
  5
9E
330
60
100
AcDbEntity
  8
DEFAULT
  6
CONTINUOUS
 62
     7
 48
25.4
  0
LINE
  5
61
330
5D
100
AcDbEntity
  8
DEFAULT
  6
CONTINUOUS
 62
     7
 48
25.4
100
AcDbLine
 10
131.0603838469
 20
154.5469609773
 30
0.0
 11
145.1021669022
 21
154.5469609773
 31
0.0
  0
LINE
  5
62
330
5D
100
AcDbEntity
  8
DEFAULT
  6
CONTINUOUS
 62
     7
 48
25.4
100
AcDbLine
 10
131.0603838469
 20
158.5469609773
 30
0.0
 11
145.1021669022
 21
158.5469609773
 31
0.0
  0
LINE
  5
63
330
5D
100
AcDbEntity
  8
DEFAULT
  6
CONTINUOUS
 62
     7
 48
25.4
100
AcDbLine
 10
143.6021668892
 20
148.5469609251
 30
0.0
 11
143.6021668892
 21
166.4515377706
 31
0.0
  0
TEXT
  5
65
330
5D
100
AcDbEntity
  8
DEFAULT
  6
CONTINUOUS
 62
     7
 48
25.4
100
AcDbText
 10
142.8521668892
 20
163.6288106128
 30
0.0
 40
3.0
  1
4
 50
90.0
  7
SEACAD_SEISO_TTF
 11
139.8521668892
 21
163.6288106128
 31
0.0
100
AcDbText
 73
     3
  0
TEXT
  5
66
330
5D
100
AcDbEntity
  8
DEFAULT
  6
CONTINUOUS
 62
     7
 48
25.4
100
AcDbText
 10
142.8521668892
 20
159.7833560673
 30
0.0
 40
3.0
  1
M 
 50
90.0
  7
SEACAD_SEISO_TTF
 11
139.8521668892
 21
159.7833560673
 31
0.0
100
AcDbText
 73
     3
  0
ENDBLK
  5
68
330
5D
100
AcDbEntity
  8
0
100
AcDbBlockEnd
  0
BLOCK
  5
73
330
69
100
AcDbEntity
  8
0
100
AcDbBlockBegin
  2
SE2
 70
     0
 71
     0
 10
0.0
 20
0.0
 30
0.0
  3
SE2
  1

  0
POLYLINE
  5
6B
330
69
100
AcDbEntity
  8
DEFAULT
  6
CONTINUOUS
 62
     7
 48
25.4
100
AcDb2dPolyline
 66
     1
 10
0.0
 20
0.0
 30
0.0
 70
     1
  0
VERTEX
  5
A4
330
6B
100
AcDbEntity
  8
DEFAULT
  6
CONTINUOUS
 62
     7
100
AcDbVertex
100
AcDb2dVertex
 10
155.699528713
 20
149.5469610033
 30
0.0
  0
VERTEX
  5
A5
330
6B
100
AcDbEntity
  8
DEFAULT
  6
CONTINUOUS
 62
     7
100
AcDbVertex
100
AcDb2dVertex
 10
155.1995287086
 20
146.5469609773
 30
0.0
  0
VERTEX
  5
A6
330
6B
100
AcDbEntity
  8
DEFAULT
  6
CONTINUOUS
 62
     7
100
AcDbVertex
100
AcDb2dVertex
 10
154.6995287043
 20
149.5469610033
 30
0.0
  0
VERTEX
  5
A7
330
6B
100
AcDbEntity
  8
DEFAULT
  6
CONTINUOUS
 62
     7
100
AcDbVertex
100
AcDb2dVertex
 10
155.699528713
 20
149.5469610033
 30
0.0
  0
SEQEND
  5
A3
330
6B
100
AcDbEntity
  8
DEFAULT
  6
CONTINUOUS
 62
     7
 48
25.4
  0
POLYLINE
  5
6C
330
69
100
AcDbEntity
  8
DEFAULT
  6
CONTINUOUS
 62
     7
 48
25.4
100
AcDb2dPolyline
 66
     1
 10
0.0
 20
0.0
 30
0.0
 70
     1
  0
VERTEX
  5
A9
330
6C
100
AcDbEntity
  8
DEFAULT
  6
CONTINUOUS
 62
     7
100
AcDbVertex
100
AcDb2dVertex
 10
155.699528713
 20
163.5469609512
 30
0.0
  0
VERTEX
  5
AA
330
6C
100
AcDbEntity
  8
DEFAULT
  6
CONTINUOUS
 62
     7
100
AcDbVertex
100
AcDb2dVertex
 10
155.1995287086
 20
166.5469609773
 30
0.0
  0
VERTEX
  5
AB
330
6C
100
AcDbEntity
  8
DEFAULT
  6
CONTINUOUS
 62
     7
100
AcDbVertex
100
AcDb2dVertex
 10
154.6995287043
 20
163.5469609512
 30
0.0
  0
VERTEX
  5
AC
330
6C
100
AcDbEntity
  8
DEFAULT
  6
CONTINUOUS
 62
     7
100
AcDbVertex
100
AcDb2dVertex
 10
155.699528713
 20
163.5469609512
 30
0.0
  0
SEQEND
  5
A8
330
6C
100
AcDbEntity
  8
DEFAULT
  6
CONTINUOUS
 62
     7
 48
25.4
  0
LINE
  5
6D
330
69
100
AcDbEntity
  8
DEFAULT
  6
CONTINUOUS
 62
     7
 48
25.4
100
AcDbLine
 10
127.4603838469
 20
146.5469609773
 30
0.0
 11
156.6995287217
 21
146.5469609773
 31
0.0
  0
LINE
  5
6E
330
69
100
AcDbEntity
  8
DEFAULT
  6
CONTINUOUS
 62
     7
 48
25.4
100
AcDbLine
 10
127.4603838469
 20
166.5469609773
 30
0.0
 11
156.6995287217
 21
166.5469609773
 31
0.0
  0
LINE
  5
6F
330
69
100
AcDbEntity
  8
DEFAULT
  6
CONTINUOUS
 62
     7
 48
25.4
100
AcDbLine
 10
155.1995287086
 20
146.5469609773
 30
0.0
 11
155.1995287086
 21
166.5469605302
 31
0.0
  0
TEXT
  5
70
330
69
100
AcDbEntity
  8
DEFAULT
  6
CONTINUOUS
 62
     7
 48
25.4
100
AcDbText
 10
154.4495287086
 20
156.5604482488
 30
0.0
 40
3.0
  1
20
 50
90.0
  7
SEACAD_SEISO_TTF
 11
151.4495287086
 21
156.5604482488
 31
0.0
100
AcDbText
 73
     3
  0
TEXT
  5
72
330
69
100
AcDbEntity
  8
DEFAULT
  6
CONTINUOUS
 62
     7
 48
25.4
100
AcDbText
 10
154.4495287086
 20
152.9198368951
 30
0.0
 40
3.0
  1
O
 50
90.0
  7
SEACAD_SEMECI1_TTF
 11
151.4495287086
 21
152.9198368951
 31
0.0
100
AcDbText
 73
     3
  0
ENDBLK
  5
74
330
69
100
AcDbEntity
  8
0
100
AcDbBlockEnd
  0
BLOCK
  5
7D
330
75
100
AcDbEntity
  8
0
100
AcDbBlockBegin
  2
SE3
 70
     0
 71
     0
 10
0.0
 20
0.0
 30
0.0
  3
SE3
  1

  0
POLYLINE
  5
77
330
75
100
AcDbEntity
  8
DEFAULT
  6
CONTINUOUS
 62
     7
 48
25.4
100
AcDb2dPolyline
 66
     1
 10
0.0
 20
0.0
 30
0.0
 70
     1
  0
VERTEX
  5
AE
330
77
100
AcDbEntity
  8
DEFAULT
  6
CONTINUOUS
 62
     7
100
AcDbVertex
100
AcDb2dVertex
 10
109.4603838208
 20
193.5520776644
 30
0.0
  0
VERTEX
  5
AF
330
77
100
AcDbEntity
  8
DEFAULT
  6
CONTINUOUS
 62
     7
100
AcDbVertex
100
AcDb2dVertex
 10
112.4603838469
 20
193.0520776601
 30
0.0
  0
VERTEX
  5
B0
330
77
100
AcDbEntity
  8
DEFAULT
  6
CONTINUOUS
 62
     7
100
AcDbVertex
100
AcDb2dVertex
 10
109.4603838208
 20
192.5520776557
 30
0.0
  0
VERTEX
  5
B1
330
77
100
AcDbEntity
  8
DEFAULT
  6
CONTINUOUS
 62
     7
100
AcDbVertex
100
AcDb2dVertex
 10
109.4603838208
 20
193.5520776644
 30
0.0
  0
SEQEND
  5
AD
330
77
100
AcDbEntity
  8
DEFAULT
  6
CONTINUOUS
 62
     7
 48
25.4
  0
POLYLINE
  5
78
330
75
100
AcDbEntity
  8
DEFAULT
  6
CONTINUOUS
 62
     7
 48
25.4
100
AcDb2dPolyline
 66
     1
 10
0.0
 20
0.0
 30
0.0
 70
     1
  0
VERTEX
  5
B3
330
78
100
AcDbEntity
  8
DEFAULT
  6
CONTINUOUS
 62
     7
100
AcDbVertex
100
AcDb2dVertex
 10
103.460383873
 20
193.5520776644
 30
0.0
  0
VERTEX
  5
B4
330
78
100
AcDbEntity
  8
DEFAULT
  6
CONTINUOUS
 62
     7
100
AcDbVertex
100
AcDb2dVertex
 10
100.4603838469
 20
193.0520776601
 30
0.0
  0
VERTEX
  5
B5
330
78
100
AcDbEntity
  8
DEFAULT
  6
CONTINUOUS
 62
     7
100
AcDbVertex
100
AcDb2dVertex
 10
103.460383873
 20
192.5520776557
 30
0.0
  0
VERTEX
  5
B6
330
78
100
AcDbEntity
  8
DEFAULT
  6
CONTINUOUS
 62
     7
100
AcDbVertex
100
AcDb2dVertex
 10
103.460383873
 20
193.5520776644
 30
0.0
  0
SEQEND
  5
B2
330
78
100
AcDbEntity
  8
DEFAULT
  6
CONTINUOUS
 62
     7
 48
25.4
  0
LINE
  5
79
330
75
100
AcDbEntity
  8
DEFAULT
  6
CONTINUOUS
 62
     7
 48
25.4
100
AcDbLine
 10
112.4603838469
 20
181.9394007267
 30
0.0
 11
112.4603838469
 21
194.5520776731
 31
0.0
  0
LINE
  5
7A
330
75
100
AcDbEntity
  8
DEFAULT
  6
CONTINUOUS
 62
     7
 48
25.4
100
AcDbLine
 10
100.4603838469
 20
156.5469609773
 30
0.0
 11
100.4603838469
 21
194.5520776731
 31
0.0
  0
LINE
  5
7B
330
75
100
AcDbEntity
  8
DEFAULT
  6
CONTINUOUS
 62
     7
 48
25.4
100
AcDbLine
 10
112.4603838469
 20
193.0520776601
 30
0.0
 11
100.4603837426
 21
193.0520776601
 31
0.0
  0
TEXT
  5
7C
330
75
100
AcDbEntity
  8
DEFAULT
  6
CONTINUOUS
 62
     7
 48
25.4
100
AcDbText
 10
104.9262928857
 20
193.8020776601
 30
0.0
 40
3.0
  1
12
  7
SEACAD_SEISO_TTF
 11
104.9262928857
 21
196.8020776601
 31
0.0
100
AcDbText
 73
     3
  0
ENDBLK
  5
7E
330
75
100
AcDbEntity
  8
0
100
AcDbBlockEnd
  0
BLOCK
  5
87
330
7F
100
AcDbEntity
  8
0
100
AcDbBlockBegin
  2
SE4
 70
     0
 71
     0
 10
0.0
 20
0.0
 30
0.0
  3
SE4
  1

  0
POLYLINE
  5
81
330
7F
100
AcDbEntity
  8
DEFAULT
  6
CONTINUOUS
 62
     7
 48
25.4
100
AcDb2dPolyline
 66
     1
 10
0.0
 20
0.0
 30
0.0
 70
     1
  0
VERTEX
  5
B8
330
81
100
AcDbEntity
  8
DEFAULT
  6
CONTINUOUS
 62
     7
100
AcDbVertex
100
AcDb2dVertex
 10
115.460383873
 20
193.5520776644
 30
0.0
  0
VERTEX
  5
B9
330
81
100
AcDbEntity
  8
DEFAULT
  6
CONTINUOUS
 62
     7
100
AcDbVertex
100
AcDb2dVertex
 10
112.4603838469
 20
193.0520776601
 30
0.0
  0
VERTEX
  5
BA
330
81
100
AcDbEntity
  8
DEFAULT
  6
CONTINUOUS
 62
     7
100
AcDbVertex
100
AcDb2dVertex
 10
115.460383873
 20
192.5520776557
 30
0.0
  0
VERTEX
  5
BB
330
81
100
AcDbEntity
  8
DEFAULT
  6
CONTINUOUS
 62
     7
100
AcDbVertex
100
AcDb2dVertex
 10
115.460383873
 20
193.5520776644
 30
0.0
  0
SEQEND
  5
B7
330
81
100
AcDbEntity
  8
DEFAULT
  6
CONTINUOUS
 62
     7
 48
25.4
  0
POLYLINE
  5
82
330
7F
100
AcDbEntity
  8
DEFAULT
  6
CONTINUOUS
 62
     7
 48
25.4
100
AcDb2dPolyline
 66
     1
 10
0.0
 20
0.0
 30
0.0
 70
     1
  0
VERTEX
  5
BD
330
82
100
AcDbEntity
  8
DEFAULT
  6
CONTINUOUS
 62
     7
100
AcDbVertex
100
AcDb2dVertex
 10
124.4603838208
 20
193.5520776644
 30
0.0
  0
VERTEX
  5
BE
330
82
100
AcDbEntity
  8
DEFAULT
  6
CONTINUOUS
 62
     7
100
AcDbVertex
100
AcDb2dVertex
 10
127.4603838469
 20
193.0520776601
 30
0.0
  0
VERTEX
  5
BF
330
82
100
AcDbEntity
  8
DEFAULT
  6
CONTINUOUS
 62
     7
100
AcDbVertex
100
AcDb2dVertex
 10
124.4603838208
 20
192.5520776557
 30
0.0
  0
VERTEX
  5
C0
330
82
100
AcDbEntity
  8
DEFAULT
  6
CONTINUOUS
 62
     7
100
AcDbVertex
100
AcDb2dVertex
 10
124.4603838208
 20
193.5520776644
 30
0.0
  0
SEQEND
  5
BC
330
82
100
AcDbEntity
  8
DEFAULT
  6
CONTINUOUS
 62
     7
 48
25.4
  0
LINE
  5
83
330
7F
100
AcDbEntity
  8
DEFAULT
  6
CONTINUOUS
 62
     7
 48
25.4
100
AcDbLine
 10
112.4603838469
 20
181.9394007267
 30
0.0
 11
112.4603838469
 21
194.5520776731
 31
0.0
  0
LINE
  5
84
330
7F
100
AcDbEntity
  8
DEFAULT
  6
CONTINUOUS
 62
     7
 48
25.4
100
AcDbLine
 10
127.4603838469
 20
166.5469609773
 30
0.0
 11
127.4603838469
 21
194.5520776731
 31
0.0
  0
LINE
  5
85
330
7F
100
AcDbEntity
  8
DEFAULT
  6
CONTINUOUS
 62
     7
 48
25.4
100
AcDbLine
 10
112.4603838469
 20
193.0520776601
 30
0.0
 11
127.4603835116
 21
193.0520776601
 31
0.0
  0
TEXT
  5
86
330
7F
100
AcDbEntity
  8
DEFAULT
  6
CONTINUOUS
 62
     7
 48
25.4
100
AcDbText
 10
118.4944745884
 20
193.8020776601
 30
0.0
 40
3.0
  1
15
  7
SEACAD_SEISO_TTF
 11
118.4944745884
 21
196.8020776601
 31
0.0
100
AcDbText
 73
     3
  0
ENDBLK
  5
88
330
7F
100
AcDbEntity
  8
0
100
AcDbBlockEnd
  0
BLOCK
  5
92
330
89
100
AcDbEntity
  8
0
100
AcDbBlockBegin
  2
SE5
 70
     0
 71
     0
 10
0.0
 20
0.0
 30
0.0
  3
SE5
  1

  0
POLYLINE
  5
8B
330
89
100
AcDbEntity
  8
DEFAULT
  6
CONTINUOUS
 62
     7
 48
25.4
100
AcDb2dPolyline
 66
     1
 10
0.0
 20
0.0
 30
0.0
 70
     1
  0
VERTEX
  5
C2
330
8B
100
AcDbEntity
  8
DEFAULT
  6
CONTINUOUS
 62
     7
100
AcDbVertex
100
AcDb2dVertex
 10
82.5118725231
 20
180.9366597701
 30
0.0
  0
VERTEX
  5
C3
330
8B
100
AcDbEntity
  8
DEFAULT
  6
CONTINUOUS
 62
     7
100
AcDbVertex
100
AcDb2dVertex
 10
83.0118725275
 20
183.9366597962
 30
0.0
  0
VERTEX
  5
C4
330
8B
100
AcDbEntity
  8
DEFAULT
  6
CONTINUOUS
 62
     7
100
AcDbVertex
100
AcDb2dVertex
 10
83.5118725318
 20
180.9366597701
 30
0.0
  0
VERTEX
  5
C5
330
8B
100
AcDbEntity
  8
DEFAULT
  6
CONTINUOUS
 62
     7
100
AcDbVertex
100
AcDb2dVertex
 10
82.5118725231
 20
180.9366597701
 30
0.0
  0
SEQEND
  5
C1
330
8B
100
AcDbEntity
  8
DEFAULT
  6
CONTINUOUS
 62
     7
 48
25.4
  0
POLYLINE
  5
8C
330
89
100
AcDbEntity
  8
DEFAULT
  6
CONTINUOUS
 62
     7
 48
25.4
100
AcDb2dPolyline
 66
     1
 10
0.0
 20
0.0
 30
0.0
 70
     1
  0
VERTEX
  5
C7
330
8C
100
AcDbEntity
  8
DEFAULT
  6
CONTINUOUS
 62
     7
100
AcDbVertex
100
AcDb2dVertex
 10
82.5118725231
 20
132.1572621844
 30
0.0
  0
VERTEX
  5
C8
330
8C
100
AcDbEntity
  8
DEFAULT
  6
CONTINUOUS
 62
     7
100
AcDbVertex
100
AcDb2dVertex
 10
83.0118725275
 20
129.1572621583
 30
0.0
  0
VERTEX
  5
C9
330
8C
100
AcDbEntity
  8
DEFAULT
  6
CONTINUOUS
 62
     7
100
AcDbVertex
100
AcDb2dVertex
 10
83.5118725318
 20
132.1572621844
 30
0.0
  0
VERTEX
  5
CA
330
8C
100
AcDbEntity
  8
DEFAULT
  6
CONTINUOUS
 62
     7
100
AcDbVertex
100
AcDb2dVertex
 10
82.5118725231
 20
132.1572621844
 30
0.0
  0
SEQEND
  5
C6
330
8C
100
AcDbEntity
  8
DEFAULT
  6
CONTINUOUS
 62
     7
 48
25.4
  0
LINE
  5
8D
330
89
100
AcDbEntity
  8
DEFAULT
  6
CONTINUOUS
 62
     7
 48
25.4
100
AcDbLine
 10
110.3557119344
 20
183.9366597962
 30
0.0
 11
81.5118725144
 21
183.9366597962
 31
0.0
  0
LINE
  5
8E
330
89
100
AcDbEntity
  8
DEFAULT
  6
CONTINUOUS
 62
     7
 48
25.4
100
AcDbLine
 10
110.3557119344
 20
129.1572621583
 30
0.0
 11
81.5118725144
 21
129.1572621583
 31
0.0
  0
LINE
  5
8F
330
89
100
AcDbEntity
  8
DEFAULT
  6
CONTINUOUS
 62
     7
 48
25.4
100
AcDbLine
 10
83.0118725275
 20
183.9366597962
 30
0.0
 11
83.0118725275
 21
129.1572606098
 31
0.0
  0
TEXT
  5
90
330
89
100
AcDbEntity
  8
DEFAULT
  6
CONTINUOUS
 62
     7
 48
25.4
100
AcDbText
 10
82.2618725275
 20
156.6627204253
 30
0.0
 40
3.0
  1
55
 50
90.0
  7
SEACAD_SEISO_TTF
 11
79.2618725275
 21
156.6627204253
 31
0.0
100
AcDbText
 73
     3
  0
TEXT
  5
91
330
89
100
AcDbEntity
  8
DEFAULT
  6
CONTINUOUS
 62
     7
 48
25.4
100
AcDbText
 10
82.2618725275
 20
153.0221090716
 30
0.0
 40
3.0
  1
O
 50
90.0
  7
SEACAD_SEMECI1_TTF
 11
79.2618725275
 21
153.0221090716
 31
0.0
100
AcDbText
 73
     3
  0
ENDBLK
  5
93
330
89
100
AcDbEntity
  8
0
100
AcDbBlockEnd
  0
BLOCK
  5
9C
330
94
100
AcDbEntity
  8
0
100
AcDbBlockBegin
  2
SE6
 70
     0
 71
     0
 10
0.0
 20
0.0
 30
0.0
  3
SE6
  1

  0
POLYLINE
  5
96
330
94
100
AcDbEntity
  8
DEFAULT
  6
CONTINUOUS
 62
     7
 48
25.4
100
AcDb2dPolyline
 66
     1
 10
0.0
 20
0.0
 30
0.0
 70
     1
  0
VERTEX
  5
CC
330
96
100
AcDbEntity
  8
DEFAULT
  6
CONTINUOUS
 62
     7
100
AcDbVertex
100
AcDb2dVertex
 10
103.460383873
 20
202.0725890417
 30
0.0
  0
VERTEX
  5
CD
330
96
100
AcDbEntity
  8
DEFAULT
  6
CONTINUOUS
 62
     7
100
AcDbVertex
100
AcDb2dVertex
 10
100.4603838469
 20
201.5725890374
 30
0.0
  0
VERTEX
  5
CE
330
96
100
AcDbEntity
  8
DEFAULT
  6
CONTINUOUS
 62
     7
100
AcDbVertex
100
AcDb2dVertex
 10
103.460383873
 20
201.072589033
 30
0.0
  0
VERTEX
  5
CF
330
96
100
AcDbEntity
  8
DEFAULT
  6
CONTINUOUS
 62
     7
100
AcDbVertex
100
AcDb2dVertex
 10
103.460383873
 20
202.0725890417
 30
0.0
  0
SEQEND
  5
CB
330
96
100
AcDbEntity
  8
DEFAULT
  6
CONTINUOUS
 62
     7
 48
25.4
  0
POLYLINE
  5
97
330
94
100
AcDbEntity
  8
DEFAULT
  6
CONTINUOUS
 62
     7
 48
25.4
100
AcDb2dPolyline
 66
     1
 10
0.0
 20
0.0
 30
0.0
 70
     1
  0
VERTEX
  5
D1
330
97
100
AcDbEntity
  8
DEFAULT
  6
CONTINUOUS
 62
     7
100
AcDbVertex
100
AcDb2dVertex
 10
124.4603838208
 20
202.0725890417
 30
0.0
  0
VERTEX
  5
D2
330
97
100
AcDbEntity
  8
DEFAULT
  6
CONTINUOUS
 62
     7
100
AcDbVertex
100
AcDb2dVertex
 10
127.4603838469
 20
201.5725890374
 30
0.0
  0
VERTEX
  5
D3
330
97
100
AcDbEntity
  8
DEFAULT
  6
CONTINUOUS
 62
     7
100
AcDbVertex
100
AcDb2dVertex
 10
124.4603838208
 20
201.072589033
 30
0.0
  0
VERTEX
  5
D4
330
97
100
AcDbEntity
  8
DEFAULT
  6
CONTINUOUS
 62
     7
100
AcDbVertex
100
AcDb2dVertex
 10
124.4603838208
 20
202.0725890417
 30
0.0
  0
SEQEND
  5
D0
330
97
100
AcDbEntity
  8
DEFAULT
  6
CONTINUOUS
 62
     7
 48
25.4
  0
LINE
  5
98
330
94
100
AcDbEntity
  8
DEFAULT
  6
CONTINUOUS
 62
     7
 48
25.4
100
AcDbLine
 10
100.4603838469
 20
156.5469609773
 30
0.0
 11
100.4603838469
 21
203.0725890504
 31
0.0
  0
LINE
  5
99
330
94
100
AcDbEntity
  8
DEFAULT
  6
CONTINUOUS
 62
     7
 48
25.4
100
AcDbLine
 10
127.4603838469
 20
166.5469605302
 30
0.0
 11
127.4603838469
 21
203.0725890504
 31
0.0
  0
LINE
  5
9A
330
94
100
AcDbEntity
  8
DEFAULT
  6
CONTINUOUS
 62
     7
 48
25.4
100
AcDbLine
 10
100.4603838469
 20
201.5725890374
 30
0.0
 11
127.4603845473
 21
201.5725890374
 31
0.0
  0
TEXT
  5
9B
330
94
100
AcDbEntity
  8
DEFAULT
  6
CONTINUOUS
 62
     7
 48
25.4
100
AcDbText
 10
112.0853841971
 20
202.3225890374
 30
0.0
 40
3.0
  1
27
  7
SEACAD_SEISO_TTF
 11
112.0853841971
 21
205.3225890374
 31
0.0
100
AcDbText
 73
     3
  0
ENDBLK
  5
9D
330
94
100
AcDbEntity
  8
0
100
AcDbBlockEnd
  0
ENDSEC
  0
SECTION
  2
ENTITIES
  0
INSERT
  5
2F
330
1F
100
AcDbEntity
  8
0
100
AcDbBlockReference
  2
SE
 10
0.0
 20
0.0
 30
0.0
  0
INSERT
  5
5E
330
1F
100
AcDbEntity
  8
0
100
AcDbBlockReference
  2
SE1
 10
0.0
 20
0.0
 30
0.0
  0
INSERT
  5
6A
330
1F
100
AcDbEntity
  8
0
100
AcDbBlockReference
  2
SE2
 10
0.0
 20
0.0
 30
0.0
  0
INSERT
  5
76
330
1F
100
AcDbEntity
  8
0
100
AcDbBlockReference
  2
SE3
 10
0.0
 20
0.0
 30
0.0
  0
INSERT
  5
80
330
1F
100
AcDbEntity
  8
0
100
AcDbBlockReference
  2
SE4
 10
0.0
 20
0.0
 30
0.0
  0
INSERT
  5
8A
330
1F
100
AcDbEntity
  8
0
100
AcDbBlockReference
  2
SE5
 10
0.0
 20
0.0
 30
0.0
  0
INSERT
  5
95
330
1F
100
AcDbEntity
  8
0
100
AcDbBlockReference
  2
SE6
 10
0.0
 20
0.0
 30
0.0
  0
ENDSEC
  0
SECTION
  2
OBJECTS
  0
DICTIONARY
  5
C
330
0
100
AcDbDictionary
  3
ACAD_GROUP
350
D
  3
ACAD_LAYOUT
350
1A
  3
ACAD_MLINESTYLE
350
17
  3
ACAD_PLOTSETTINGS
350
19
  3
ACAD_TABLESTYLE
350
2A
  3
ACDBVARIABLEDICTIONARY
350
2C
1001
ACAD
1000
TREAT_AS_HARD
1070
     0
  0
DICTIONARY
  5
D5
330
29
100
AcDbDictionary
  3
ACAD_XREC_ROUNDTRIP
360
D6
  0
DICTIONARY
  5
D
102
{ACAD_REACTORS
330
C
102
}
330
C
100
AcDbDictionary
1001
ACAD
1000
TREAT_AS_HARD
1070
     0
  0
DICTIONARY
  5
1A
102
{ACAD_REACTORS
330
C
102
}
330
C
100
AcDbDictionary
1001
ACAD
1000
TREAT_AS_HARD
1070
     0
  0
DICTIONARY
  5
17
102
{ACAD_REACTORS
330
C
102
}
330
C
100
AcDbDictionary
  3
STANDARD
350
18
1001
ACAD
1000
TREAT_AS_HARD
1070
     0
  0
DICTIONARY
  5
19
102
{ACAD_REACTORS
330
C
102
}
330
C
100
AcDbDictionary
1001
ACAD
1000
TREAT_AS_HARD
1070
     0
  0
DICTIONARY
  5
2A
102
{ACAD_REACTORS
330
C
102
}
330
C
100
AcDbDictionary
  3
STANDARD
350
2B
1001
ACAD
1000
TREAT_AS_HARD
1070
     0
  0
DICTIONARY
  5
2C
102
{ACAD_REACTORS
330
C
102
}
330
C
100
AcDbDictionary
  3
CTABLESTYLE
350
2D
1001
ACAD
1000
TREAT_AS_HARD
1070
     0
  0
XRECORD
  5
D6
102
{ACAD_REACTORS
330
D5
102
}
330
D5
100
AcDbXrecord
102
UCS
 74
     0
 71
     1
 10
0.0
 20
0.0
 30
0.0
 10
1.0
 20
0.0
 30
0.0
 10
0.0
 20
1.0
 30
0.0
146
0.0
 79
     0
102
VIEW
281
     0
  0
MLINESTYLE
  5
18
102
{ACAD_REACTORS
330
17
102
}
330
17
100
AcDbMlineStyle
  2
Standard
 70
     0
  3

 62
   256
 51
90.0
 52
90.0
 71
     2
 49
0.5
 62
   256
  6
BYLAYER
 49
-0.5
 62
   256
  6
BYLAYER
  0
TABLESTYLE
  5
2B
102
{ACAD_REACTORS
330
2A
102
}
330
2A
100
AcDbTableStyle
  3
Standard
 70
     0
 71
     0
 40
0.06
 41
0.06
280
     0
281
     0
  7
STANDARD
140
0.18
170
     2
 62
     0
 63
     7
283
     0
274
    -2
284
     1
 64
     0
275
    -2
285
     1
 65
     0
276
    -2
286
     1
 66
     0
277
    -2
287
     1
 67
     0
278
    -2
288
     1
 68
     0
279
    -2
289
     1
 69
     0
  7
STANDARD
140
0.25
170
     5
 62
     0
 63
     7
283
     0
274
    -2
284
     1
 64
     0
275
    -2
285
     1
 65
     0
276
    -2
286
     1
 66
     0
277
    -2
287
     1
 67
     0
278
    -2
288
     1
 68
     0
279
    -2
289
     1
 69
     0
  7
STANDARD
140
0.18
170
     5
 62
     0
 63
     7
283
     0
274
    -2
284
     1
 64
     0
275
    -2
285
     1
 65
     0
276
    -2
286
     1
 66
     0
277
    -2
287
     1
 67
     0
278
    -2
288
     1
 68
     0
279
    -2
289
     1
 69
     0
  0
DICTIONARYVAR
  5
2D
102
{ACAD_REACTORS
330
2C
102
}
330
2C
100
DictionaryVariables
280
     0
  1
Standard
  0
ENDSEC
  0
EOF
