  0
SECTION
  2
HEADER
  9
$ACADVER
  1
AC1014
  9
$ACADMAINTVER
 70
           0
  9
$DWGCODEPAGE
  3
ANSI_1252
  9
$INSBASE
 10
0.0
 20
0.0
 30
0.0
  9
$EXTMIN
 10
1.000000000000E+20
 20
1.000000000000E+20
 30
1.000000000000E+20
  9
$EXTMAX
 10
-1.000000000000E+20
 20
-1.000000000000E+20
 30
-1.000000000000E+20
  9
$LIMMIN
 10
0.0
 20
0.0
  9
$LIMMAX
 10
0.0
 20
0.0
  9
$ORTHOMODE
 70
           0
  9
$REGENMODE
 70
           1
  9
$FILLMODE
 70
           1
  9
$QTEXTMODE
 70
           0
  9
$MIRRTEXT
 70
           1
  9
$DRAGMODE
 70
           2
  9
$LTSCALE
 40
1.0
  9
$OSMODE
 70
           0
  9
$ATTMODE
 70
           1
  9
$TEXTSIZE
 40
0.2
  9
$TRACEWID
 40
0.05
  9
$TEXTSTYLE
  7
STANDARD
  9
$CLAYER
  8
0
  9
$CELTYPE
  6
CONTINUOUS
  9
$CECOLOR
 62
         256
  9
$CELTSCALE
 40
1.0
  9
$DELOBJ
 70
           1
  9
$DISPSILH
 70
           0
  9
$DIMSCALE
 40
1.0
  9
$DIMASZ
 40
0.18
  9
$DIMEXO
 40
0.0625
  9
$DIMDLI
 40
0.38
  9
$DIMRND
 40
0.0
  9
$DIMDLE
 40
0.0
  9
$DIMEXE
 40
0.18
  9
$DIMTP
 40
0.0
  9
$DIMTM
 40
0.0
  9
$DIMTXT
 40
0.18
  9
$DIMCEN
 40
0.09
  9
$DIMTSZ
 40
0.0
  9
$DIMTOL
 70
           0
  9
$DIMLIM
 70
           0
  9
$DIMTIH
 70
           1
  9
$DIMTOH
 70
           1
  9
$DIMSE1
 70
           0
  9
$DIMSE2
 70
           0
  9
$DIMTAD
 70
           0
  9
$DIMZIN
 70
           0
  9
$DIMBLK
  1

  9
$DIMASO
 70
           1
  9
$DIMSHO
 70
           1
  9
$DIMPOST
  1

  9
$DIMAPOST
  1

  9
$DIMALT
 70
           0
  9
$DIMALTD
 70
           2
  9
$DIMALTF
 40
25.4
  9
$DIMLFAC
 40
1.0
  9
$DIMTOFL
 70
           0
  9
$DIMTVP
 40
0.0
  9
$DIMTIX
 70
           0
  9
$DIMSOXD
 70
           0
  9
$DIMSAH
 70
           0
  9
$DIMBLK1
  1

  9
$DIMBLK2
  1

  9
$DIMSTYLE
  2
STANDARD
  9
$DIMCLRD
 70
           0
  9
$DIMCLRE
 70
           0
  9
$DIMCLRT
 70
           0
  9
$DIMTFAC
 40
1.0
  9
$DIMGAP
 40
0.09
  9
$DIMJUST
 70
           0
  9
$DIMSD1
 70
           0
  9
$DIMSD2
 70
           0
  9
$DIMTOLJ
 70
           1
  9
$DIMTZIN
 70
           0
  9
$DIMALTZ
 70
           0
  9
$DIMALTTZ
 70
           0
  9
$DIMFIT
 70
           3
  9
$DIMUPT
 70
           0
  9
$DIMUNIT
 70
           2
  9
$DIMDEC
 70
           4
  9
$DIMTDEC
 70
           4
  9
$DIMALTU
 70
           2
  9
$DIMALTTD
 70
           2
  9
$DIMTXSTY
  7
STANDARD
  9
$DIMAUNIT
 70
           0
  9
$LUNITS
 70
           2
  9
$LUPREC
 70
           4
  9
$SKETCHINC
 40
0.1
  9
$FILLETRAD
 40
0.0
  9
$AUNITS
 70
           0
  9
$AUPREC
 70
           0
  9
$MENU
  1
acad
  9
$ELEVATION
 40
0.0
  9
$PELEVATION
 40
0.0
  9
$THICKNESS
 40
0.0
  9
$LIMCHECK
 70
           0
  9
$BLIPMODE
 70
           1
  9
$CHAMFERA
 40
0.0
  9
$CHAMFERB
 40
0.0
  9
$CHAMFERC
 40
0.0
  9
$CHAMFERD
 40
0.0
  9
$SKPOLY
 70
           0
  9
$TDCREATE
 40
0.000000000
  9
$TDUPDATE
 40
0.000000000
  9
$TDINDWG
 40
0.0000000000
  9
$TDUSRTIMER
 40
0.0000000000
  9
$USRTIMER
 70
           1
  9
$ANGBASE
 50
0.0
  9
$ANGDIR
 70
           0
  9
$PDMODE
 70
           0
  9
$PDSIZE
 40
0.0
  9
$PLINEWID
 40
0.0
  9
$COORDS
 70
           0
  9
$SPLFRAME
 70
           0
  9
$SPLINETYPE
 70
           6
  9
$SPLINESEGS
 70
           8
  9
$ATTDIA
 70
           0
  9
$ATTREQ
 70
           1
  9
$HANDLING
 70
           1
  9
$HANDSEED
  5
64
  9
$SURFTAB1
 70
           6
  9
$SURFTAB2
 70
           6
  9
$SURFTYPE
 70
           6
  9
$SURFU
 70
           6
  9
$SURFV
 70
           6
  9
$UCSNAME
  2

  9
$UCSORG
 10
0.0
 20
0.0
 30
0.0
  9
$UCSXDIR
 10
1.0
 20
0.0
 30
0.0
  9
$UCSYDIR
 10
0.0
 20
1.0
 30
0.0
  9
$PUCSNAME
  2

  9
$PUCSORG
 10
0.0
 20
0.0
 30
0.0
  9
$PUCSXDIR
 10
1.0
 20
0.0
 30
0.0
  9
$PUCSYDIR
 10
0.0
 20
1.0
 30
0.0
  9
$USERI1
 70
           0
  9
$USERI2
 70
           0
  9
$USERI3
 70
           0
  9
$USERI4
 70
           0
  9
$USERI5
 70
           0
  9
$USERR1
 40
0.0
  9
$USERR2
 40
0.0
  9
$USERR3
 40
0.0
  9
$USERR4
 40
0.0
  9
$USERR5
 40
0.0
  9
$WORLDVIEW
 70
           1
  9
$SHADEDGE
 70
           3
  9
$SHADEDIF
 70
          70
  9
$TILEMODE
 70
           1
  9
$MAXACTVP
 70
          16
  9
$PINSBASE
 10
0.0
 20
0.0
 30
0.0
  9
$PLIMCHECK
 70
           0
  9
$PEXTMIN
 10
1.000000000000E+20
 20
1.000000000000E+20
 30
1.000000000000E+20
  9
$PEXTMAX
 10
-1.000000000000E+20
 20
-1.000000000000E+20
 30
-1.000000000000E+20
  9
$PLIMMIN
 10
0.0
 20
0.0
  9
$PLIMMAX
 10
12.0
 20
9.0
  9
$UNITMODE
 70
           0
  9
$VISRETAIN
 70
           0
  9
$PLINEGEN
 70
           1
  9
$PSLTSCALE
 70
           0
  9
$TREEDEPTH
 70
        3020
  9
$PICKSTYLE
 70
           1
  9
$CMLSTYLE
  2
STANDARD
  9
$CMLJUST
 70
           0
  9
$CMLSCALE
 40
1.0
  9
$PROXYGRAPHICS
 70
           0
  9
$MEASUREMENT
 70
           1
  0
ENDSEC
  0
SECTION
  2
CLASSES
  0
CLASS
  1
LWPOLYLINE
  2
AcDbPolyline
  3
"AutoCAD"
 90
        0
280
           0
281
           1
  0
CLASS
  1
IMAGE
  2
AcDbRasterImage
  3
ISM
 90
      127
280
           0
281
           1
  0
CLASS
  1
OLE2FRAME
  2
AcDbOle2Frame
  3
""
 90
        0
280
           0
281
           1
  0
CLASS
  1
HATCH
  2
AcDbHatch
  3
"ACAD_SEDONA"
 90
        0
280
           0
281
           1
  0
CLASS
  1
DICTIONARYVAR
  2
AcDbDictionaryVar
  3
"AutoCAD"
 90
        0
280
           0
281
           0
  0
CLASS
  1
RASTERVARIABLES
  2
AcDbRasterVariables
  3
ISM
 90
        0
280
           0
281
           0
  0
CLASS
  1
IMAGEDEF
  2
AcDbRasterImageDef
  3
ISM
 90
        0
280
           0
281
           0
  0
CLASS
  1
IMAGEDEF_REACTOR
  2
AcDbRasterImageDefReactor
  3
ISM
 90
        1
280
           0
281
           0
  0
CLASS
  1
IDBUFFER
  2
AcDbIdBuffer
  3
"Acad"
 90
        0
280
           0
281
           0
  0
CLASS
  1
SPATIAL_FILTER
  2
AcDbSpatialFilter
  3
"Acad"
 90
        0
280
           0
281
           0
  0
CLASS
  1
XRECORD
  2
AcDbXrecord
  3
"<Built In>"
 90
        0
280
           0
281
           0
  0
CLASS
  1
SORTENTSTABLE
  2
AcDbSortentsTable
  3
"AutoCAD"
 90
        0
280
           0
281
           0
  0
CLASS
  1
LAYER_INDEX
  2
AcDbLayerIndex
  3
"Acad"
 90
        0
280
           0
281
           0
  0
CLASS
  1
SPATIAL_INDEX
  2
AcDbSpatialIndex
  3
"Acad"
 90
        0
280
           0
281
           0
  0
CLASS
  1
OBJECT_PTR
  2
CAseDLPNTableRecord
  3
"ASE-LPNTableRecord"
 90
        1
280
           0
281
           0
  0
CLASS
  1
LAYOUT
  2
AcDbLayout
  3
"AutoCAD 2000"
 90
        1
280
           0
281
           0
  0
CLASS
  1
PLOTSETTINGS
  2
AcDbPlotSettings
  3
"AutoCAD 2000"
 90
        1
280
           0
281
           0
  0
CLASS
  1
ACDBDICTIONARYWDFLT
  2
AcDbDictionaryWithDefault
  3
"AutoCAD 2000"
 90
        1
280
           0
281
           0
  0
CLASS
  1
ACDBPLACEHOLDER
  2
AcDbPlaceHolder
  3
"AutoCAD 2000"
 90
        1
280
           0
281
           0
  0
CLASS
  1
VBA_PROJECT
  2
AcDbVbaProject
  3
"acadvba"
 90
        1
280
           0
281
           0
  0
CLASS
  1
WIPEOUT
  2
AcDbWipeout
  3
WipeOut|AutoCAD Express Tool|expresstools@autodesk.com
 90
      127
280
           0
281
           1
  0
CLASS
  1
WIPEOUTVARIABLES
  2
AcDbWipeoutVariables
  3
WipeOut|AutoCAD Express Tool|expresstools@autodesk.com
 90
        0
280
           0
281
           0
  0
CLASS
  1
RTEXT
  2
RText
  3
RText|AutoCAD Express Tool|expresstools@autodesk.com
 90
        0
280
           0
281
           1
  0
CLASS
  1
ARCALIGNEDTEXT
  2
AcDbArcAlignedText
  3
ATEXT|AutoCAD Express Tool|expresstools@autodesk.com
 90
        0
280
           0
281
           1
  0
ENDSEC
  0
SECTION
  2
TABLES
  0
TABLE
  2
VPORT
  5
7
100
AcDbSymbolTable
 70
           1
  0
VPORT
  5
15
100
AcDbSymbolTableRecord
100
AcDbViewportTableRecord
  2
*ACTIVE
 70
           0
 10
0.0
 20
0.0
 11
1.0
 21
1.0
 12
6.591288
 22
4.579184
 13
0.0
 23
0.0
 14
1.0
 24
1.0
 15
0.0
 25
0.0
 16
0.0
 26
0.0
 36
1.0
 17
0.0
 27
0.0
 37
0.0
 40
9.158369
 41
0.688564
 42
50.0
 43
0.0
 44
0.0
 50
0.0
 51
0.0
 71
           0
 72
         100
 73
           1
 74
           1
 75
           0
 76
           0
 77
           0
 78
           0
  0
ENDTAB
  0
TABLE
  2
LTYPE
  5
4
100
AcDbSymbolTable
 70
          10
  0
LTYPE
  5
11
100
AcDbSymbolTableRecord
100
AcDbLinetypeTableRecord
  2
BYBLOCK
 70
          64
  3

 72
          65
 73
           0
 40
0.0
  0
LTYPE
  5
12
100
AcDbSymbolTableRecord
100
AcDbLinetypeTableRecord
  2
BYLAYER
 70
          64
  3

 72
          65
 73
           0
 40
0.0
  0
LTYPE
  5
13
100
AcDbSymbolTableRecord
100
AcDbLinetypeTableRecord
  2
CONTINUOUS
 70
          64
  3
Solid line
 72
          65
 73
           0
 40
0.0
  0
LTYPE
  5
1D
100
AcDbSymbolTableRecord
100
AcDbLinetypeTableRecord
  2
DASHED
 70
          64
  3
Dashed
 72
          65
 73
           2
 40
15.0
 49
12.0
 74
           0
 49
-3.0
 74
           0
  0
LTYPE
  5
1E
100
AcDbSymbolTableRecord
100
AcDbLinetypeTableRecord
  2
DOTTED
 70
          64
  3
Dotted
 72
          65
 73
           2
 40
3.5
 49
0.5
 74
           0
 49
-3.0
 74
           0
  0
LTYPE
  5
1F
100
AcDbSymbolTableRecord
100
AcDbLinetypeTableRecord
  2
DOT_CENTER
 70
          64
  3
Dot_Center
 72
          65
 73
           4
 40
2.0
 49
1.25
 74
           0
 49
-0.25
 74
           0
 49
0.25
 74
           0
 49
-0.25
 74
           0
  0
LTYPE
  5
20
100
AcDbSymbolTableRecord
100
AcDbLinetypeTableRecord
  2
LONG_DASHED
 70
          64
  3
Long_Dashed
 72
          65
 73
           2
 40
2.0
 49
1.5
 74
           0
 49
-0.5
 74
           0
  0
LTYPE
  5
21
100
AcDbSymbolTableRecord
100
AcDbLinetypeTableRecord
  2
DASH_CENTER
 70
          64
  3
Dash_Center
 72
          65
 73
           4
 40
36.0
 49
24.0
 74
           0
 49
-3.0
 74
           0
 49
6.0
 74
           0
 49
-3.0
 74
           0
  0
LTYPE
  5
22
100
AcDbSymbolTableRecord
100
AcDbLinetypeTableRecord
  2
PHANTOM
 70
          64
  3
Phantom
 72
          65
 73
           6
 40
2.5
 49
1.25
 74
           0
 49
-0.25
 74
           0
 49
0.25
 74
           0
 49
-0.25
 74
           0
 49
0.25
 74
           0
 49
-0.25
 74
           0
  0
LTYPE
  5
23
100
AcDbSymbolTableRecord
100
AcDbLinetypeTableRecord
  2
CENTER_DASH_DASH
 70
          64
  3
Center_Dash_Dash
 72
          65
 73
           6
 40
22.0
 49
12.0
 74
           0
 49
-3.0
 74
           0
 49
0.5
 74
           0
 49
-3.0
 74
           0
 49
0.5
 74
           0
 49
-3.0
 74
           0
  0
ENDTAB
  0
TABLE
  2
LAYER
  5
2
100
AcDbSymbolTable
 70
           2
  0
LAYER
  5
14
100
AcDbSymbolTableRecord
100
AcDbLayerTableRecord
  2
0
 70
           0
 62
           7
  6
CONTINUOUS
  0
LAYER
  5
24
100
AcDbSymbolTableRecord
100
AcDbLayerTableRecord
  2
1
 70
           0
 62
           7
  6
CONTINUOUS
  0
ENDTAB
  0
TABLE
  2
STYLE
  5
3
100
AcDbSymbolTable
 70
           2
  0
STYLE
  5
17
100
AcDbSymbolTableRecord
100
AcDbTextStyleTableRecord
  2
STANDARD
 70
           0
 40
0.0
 41
1.0
 50
0.0
 71
           0
 42
0.0
  3
txt
  4

  0
STYLE
  5
5E
100
AcDbSymbolTableRecord
100
AcDbTextStyleTableRecord
  2
CONVERTER_1
 70
           0
 40
0.0
 41
0.95
 50
0.0
 71
           0
 42
0.0
  3
simplex.shx
  4

  0
ENDTAB
  0
TABLE
  2
VIEW
  5
5
100
AcDbSymbolTable
 70
           0
  0
ENDTAB
  0
TABLE
  2
UCS
  5
6
100
AcDbSymbolTable
 70
           0
  0
ENDTAB
  0
TABLE
  2
APPID
  5
8
100
AcDbSymbolTable
 70
           1
  0
APPID
  5
16
100
AcDbSymbolTableRecord
100
AcDbRegAppTableRecord
  2
ACAD
 70
           0
  0
ENDTAB
  0
TABLE
  2
DIMSTYLE
  5
9
100
AcDbSymbolTable
 70
           1
  0
DIMSTYLE
105
18
100
AcDbSymbolTableRecord
100
AcDbDimStyleTableRecord
  2
STANDARD
 70
           0
  3

  4

  5

  6

  7

 40
1.0
 41
0.18
 42
0.0625
 43
0.38
 44
0.18
 45
0.0
 46
0.0
 47
0.0
 48
0.0
 71
           0
 72
           0
 73
           1
 74
           1
 75
           0
 76
           0
 77
           0
 78
           0
140
0.18
141
0.09
142
0.0
143
25.4
144
1.0
145
0.0
146
1.0
147
0.09
170
           0
171
           2
172
           0
173
           0
174
           0
175
           0
176
           0
177
           0
178
           0
270
           2
271
           4
272
           4
273
           2
274
           2
275
           0
280
           0
281
           0
282
           0
283
           1
284
           0
285
           0
286
           0
287
           0
288
           0
340
17
  0
ENDTAB
  0
TABLE
  2
BLOCK_RECORD
  5
1
100
AcDbSymbolTable
 70
           0
  0
BLOCK_RECORD
  5
A
100
AcDbSymbolTableRecord
100
AcDbBlockTableRecord
  2
*MODEL_SPACE
  0
BLOCK_RECORD
  5
B
100
AcDbSymbolTableRecord
100
AcDbBlockTableRecord
  2
*PAPER_SPACE
  0
ENDTAB
  0
ENDSEC
  0
SECTION
  2
BLOCKS
  0
BLOCK
  5
D
100
AcDbEntity
  8
0
100
AcDbBlockBegin
  2
*MODEL_SPACE
 70
           0
 10
0.0
 20
0.0
 30
0.0
  3
*MODEL_SPACE
  1

  0
ENDBLK
  5
E
100
AcDbEntity
  8
0
100
AcDbBlockEnd
  0
BLOCK
  5
F
100
AcDbEntity
 67
           1
  8
0
100
AcDbBlockBegin
  2
*PAPER_SPACE
 70
           0
 10
0.0
 20
0.0
 30
0.0
  3
*PAPER_SPACE
  1

  0
ENDBLK
  5
10
100
AcDbEntity
 67
           1
  8
0
100
AcDbBlockEnd
  0
ENDSEC
  0
SECTION
  2
ENTITIES
  0
MTEXT
  5
62
100
AcDbEntity
  8
1
 62
           3
100
AcDbMText
 10
-1.563393124203
 20
1305.235992329404
 30
0.0
 40
3.5
 41
0.0
 71
           7
 72
           1
  1
*140
  7
CONVERTER_1
 11
0.866025403784
 21
-0.5
 31
0.0
  0
MTEXT
  5
61
100
AcDbEntity
  8
1
 62
           3
100
AcDbMText
 10
18.46080935637
 20
1330.39403499808
 30
0.0
 40
3.5
 41
0.0
 71
           7
 72
           1
  1
ø98
  7
CONVERTER_1
 11
0.866025403784
 21
-0.5
 31
0.0
  0
MTEXT
  5
60
100
AcDbEntity
  8
1
 62
           3
100
AcDbMText
 10
20.476493181445
 20
1298.728517801995
 30
0.0
 40
3.5
 41
0.0
 71
           7
 72
           1
  1
28
  7
CONVERTER_1
 11
0.866025403784
 21
0.5
 31
0.0
  0
MTEXT
  5
5F
100
AcDbEntity
  8
1
 62
           3
100
AcDbMText
 10
5.452721295545
 20
1290.054539059425
 30
0.0
 40
3.5
 41
0.0
 71
           7
 72
           1
  1
15
  7
CONVERTER_1
 11
0.866025403784
 21
0.5
 31
0.0
  0
LEADER
  5
5D
100
AcDbEntity
  8
1
  6
CONTINUOUS
 62
           4
100
AcDbLeader
  3
Standard
 71
           0
 73
           3
 74
           0
 75
           0
 40
0.0
 76
           2
 10
11.824239091406
 20
1296.351938727531
 30
0.0
 10
3.042905576401
 20
1301.421843996263
 30
0.0
 77
           4
  0
LEADER
  5
5B
100
AcDbEntity
  8
1
  6
CONTINUOUS
 62
           4
100
AcDbLeader
  3
Standard
 71
           0
 73
           3
 74
           0
 75
           0
 40
0.0
 76
           2
 10
-5.675760908594
 20
1306.455568438349
 30
0.0
 10
3.042905576401
 20
1301.421843996263
 30
0.0
 77
           4
  0
LEADER
  5
59
100
AcDbEntity
  8
1
  6
CONTINUOUS
 62
           4
100
AcDbLeader
  3
Standard
 71
           0
 73
           3
 74
           0
 75
           0
 40
0.0
 76
           2
 10
11.824239091407
 20
1292.578436035634
 30
0.0
 10
5.114973486192
 20
1288.704839732402
 30
0.0
 77
           4
  0
LEADER
  5
57
100
AcDbEntity
  8
1
  6
CONTINUOUS
 62
           4
100
AcDbLeader
  3
Standard
 71
           0
 73
           3
 74
           0
 75
           0
 40
0.0
 76
           2
 10
16.848363083666
 20
1295.479115375007
 30
0.0
 10
23.182878912874
 20
1299.136349794187
 30
0.0
 77
           4
  0
LEADER
  5
55
100
AcDbEntity
  8
1
  6
CONTINUOUS
 62
           4
100
AcDbLeader
  3
Standard
 71
           0
 73
           3
 74
           0
 75
           0
 40
0.0
 76
           2
 10
13.775440613427
 20
1331.944433364691
 30
0.0
 10
21.555092597642
 20
1327.452849197403
 30
0.0
 77
           4
  0
LEADER
  5
53
100
AcDbEntity
  8
1
  6
CONTINUOUS
 62
           4
100
AcDbLeader
  3
Standard
 71
           0
 73
           3
 74
           0
 75
           0
 40
0.0
 76
           2
 10
29.084752165275
 20
1323.105598219124
 30
0.0
 10
21.555092597642
 20
1327.452849197403
 30
0.0
 77
           4
  0
SPLINE
  5
51
100
AcDbEntity
  8
1
  6
CONTINUOUS
 62
           3
100
AcDbSpline
210
0.0
220
0.0
230
1.0
 70
           0
 71
           4
 72
          27
 73
          23
 74
          41
 42
0.00000000001
 43
0.00000000001
 44
0.00000000001
 40
5.6252162901518572
 40
5.6252162901518572
 40
5.6252162901518572
 40
5.6252162901518572
 40
6.0894174118700706
 40
6.9614505947576282
 40
7.6633723931873678
 40
8.8359932800385828
 40
9.2506515748740661
 40
9.6861940943830653
 40
10.1217366138970668
 40
10.5817347093203313
 40
12.0229475777877877
 40
13.0599278306962816
 40
15.1877795106344635
 40
16.271231997389197
 40
18.368203909851708
 40
19.375391224995489
 40
21.215923558992142
 40
22.054081452673376
 40
23.526065068953255
 40
24.192791690696385
 40
24.891260459175772
 40
25.045511374519613
 40
25.045511374519613
 40
25.045511374519613
 40
25.045511374519613
 10
15.2630381355533498
 20
1315.1256279034019
 30
0.0
 10
15.4630258356825507
 20
1315.2410908559059
 30
0.0
 10
15.6475409595843402
 20
1315.383819604876
 30
0.0
 10
16.260485667582451
 20
1316.00409426742
 30
0.0
 10
16.572378263133452
 20
1316.6329163566879
 30
0.0
 10
16.808936680732351
 20
1317.7814283763651
 30
0.0
 10
16.84836308366555
 20
1318.194208051528
 30
0.0
 10
16.848363083666051
 20
1318.629750571037
 30
0.0
 10
16.848363083666548
 20
1319.065293090551
 30
0.0
 10
16.80893668073335
 20
1319.5235984544131
 30
0.0
 10
16.572378263133452
 20
1320.9452646062571
 30
0.0
 10
16.26048566758255
 20
1321.9342292435231
 30
0.0
 10
15.3687894631433508
 20
1323.866230964745
 30
0.0
 10
14.7989333352674404
 20
1324.7877152481581
 30
0.0
 10
13.4851345244081404
 20
1326.4221031721961
 30
0.0
 10
12.7558481656974507
 20
1327.1167740977321
 30
0.0
 10
11.2471144983030396
 20
1328.170947704572
 30
0.0
 10
10.4844981455372501
 20
1328.5186903583181
 30
0.0
 10
9.0417033791153525
 20
1328.810373454472
 30
0.0
 10
8.3776203278396419
 20
1328.7510599724519
 30
0.0
 10
7.7436341642811524
 20
1328.457938555702
 30
0.0
 10
7.6750965363625507
 20
1328.422398069649
 30
0.0
 10
7.6083723708932407
 20
1328.3838748547539
 30
0.0
 11
15.2630381355533498
 21
1315.1256279034019
 31
0.0
 11
15.4813682641629224
 21
1315.2616290005597
 31
0.0
 11
15.6174540669852995
 21
1315.3721092026428
 31
0.0
 11
15.9185339973949702
 21
1315.6672821097127
 31
0.0
 11
16.221210755145567
 21
1316.0194435740527
 31
0.0
 11
16.391705257319067
 21
1316.2901075973543
 31
0.0
 11
16.516240919791024
 21
1316.5968418773577
 31
0.0
 11
16.695483464218512
 21
1317.2720125669414
 31
0.0
 11
16.814627396463841
 21
1317.903856672754
 31
0.0
 11
16.834204963253981
 21
1318.0623972970266
 31
0.0
 11
16.84401428648577
 21
1318.2171848565263
 31
0.0
 11
16.847819484018324
 21
1318.4118843860413
 31
0.0
 11
16.848363083666051
 21
1318.6272378095543
 31
0.0
 11
16.847916338253828
 21
1318.8397359504743
 31
0.0
 11
16.844789120366791
 21
1319.0295250707079
 31
0.0
 11
16.835750190193252
 21
1319.195956613858
 31
0.0
 11
16.818409196192398
 21
1319.3631768746284
 31
0.0
 11
16.706534325031225
 21
1320.1059380606937
 31
0.0
 11
16.550559336832489
 21
1320.9152700355944
 31
0.0
 11
16.434334845618601
 21
1321.3616301906468
 31
0.0
 11
16.286042956365673
 21
1321.7815749368558
 31
0.0
 11
15.8121607438351717
 21
1322.8830377839968
 31
0.0
 11
15.29415465000986
 21
1323.944749552672
 31
0.0
 11
15.0773676280273907
 21
1324.3268031902528
 31
0.0
 11
14.8315630295701517
 21
1324.6917557139489
 31
0.0
 11
14.1238396942895754
 21
1325.6130097942694
 31
0.0
 11
13.3787320218606709
 21
1326.4935705073149
 31
0.0
 11
13.0967122366577211
 21
1326.7837271868414
 31
0.0
 11
12.785483656787596
 21
1327.0515349563907
 31
0.0
 11
11.963614422375624
 21
1327.6577026212997
 31
0.0
 11
11.1221092632359131
 21
1328.2018916259522
 31
0.0
 11
10.8279053114406736
 21
1328.3541680524288
 31
0.0
 11
10.5094391400249165
 21
1328.4699077834387
 31
0.0
 11
9.7180112705592254
 21
1328.6595399476867
 31
0.0
 11
8.9053085585291711
 21
1328.7688282005765
 31
0.0
 11
8.6181907070878232
 21
1328.7625414325923
 31
0.0
 11
8.3254032111211025
 21
1328.6957158073556
 31
0.0
 11
7.9696212827428772
 21
1328.5581996528742
 31
0.0
 11
7.7092921992831114
 21
1328.439475986208
 31
0.0
 11
7.6756797117589732
 21
1328.4221282901228
 31
0.0
 11
7.6083723708932407
 21
1328.3838748547539
 31
0.0
  0
CIRCLE
  5
50
100
AcDbEntity
  8
1
  6
CONTINUOUS
 62
           7
100
AcDbCircle
 10
13.699239091406
 20
1293.660967790364
 40
0.2
  0
LINE
  5
4F
100
AcDbEntity
  8
1
  6
CONTINUOUS
 62
           4
100
AcDbLine
 10
16.848363083666
 20
1294.901765105819
 11
16.848363083666
 21
1316.040915688948
  0
LINE
  5
4E
100
AcDbEntity
  8
1
  6
CONTINUOUS
 62
           4
100
AcDbLine
 10
13.699239091406
 20
1293.660967790364
 11
16.848363083666
 21
1295.479115375007
  0
LINE
  5
4D
100
AcDbEntity
  8
1
  6
CONTINUOUS
 62
           3
100
AcDbLine
 10
10.324239091406
 20
1316.151829794293
 11
10.324239091406
 21
1311.326829794293
  0
LINE
  5
4C
100
AcDbEntity
  8
1
  6
CONTINUOUS
 62
           3
100
AcDbLine
 10
-3.300760908594
 20
1324.018227212002
 11
-3.300760908594
 21
1327.85786424092
  0
LINE
  5
4B
100
AcDbEntity
  8
1
  6
CONTINUOUS
 62
           3
100
AcDbLine
 10
-3.300760908594
 20
1324.018227212002
 11
10.324239091406
 21
1316.151829794293
  0
LINE
  5
4A
100
AcDbEntity
  8
1
  6
CONTINUOUS
 62
           3
100
AcDbLine
 10
10.324239091406
 20
1311.326829794293
 11
10.324239091406
 21
1306.501829794293
  0
LINE
  5
49
100
AcDbEntity
  8
1
  6
CONTINUOUS
 62
           3
100
AcDbLine
 10
-3.300760908594
 20
1319.193227212002
 11
-3.300760908594
 21
1324.018227212002
  0
LINE
  5
48
100
AcDbEntity
  8
1
  6
CONTINUOUS
 62
           3
100
AcDbLine
 10
-3.300760908594
 20
1319.193227212002
 11
10.324239091406
 21
1311.326829794293
  0
LINE
  5
47
100
AcDbEntity
  8
1
  6
CONTINUOUS
 62
           3
100
AcDbLine
 10
-3.300760908594
 20
1327.85786424092
 11
-4.175760908594
 21
1328.363045726461
  0
LINE
  5
46
100
AcDbEntity
  8
1
  6
CONTINUOUS
 62
           3
100
AcDbLine
 10
10.324239091406
 20
1316.151829794293
 11
10.324239091406
 21
1319.991466823212
  0
LINE
  5
45
100
AcDbEntity
  8
1
  6
CONTINUOUS
 62
           3
100
AcDbLine
 10
10.324239091406
 20
1306.501829794293
 11
10.324239091406
 21
1305.491466823212
  0
LINE
  5
44
100
AcDbEntity
  8
1
  6
CONTINUOUS
 62
           3
100
AcDbLine
 10
-3.300760908594
 20
1314.368227212002
 11
10.324239091406
 21
1306.501829794293
  0
LINE
  5
43
100
AcDbEntity
  8
1
  6
CONTINUOUS
 62
           3
100
AcDbLine
 10
-3.300760908594
 20
1314.368227212002
 11
-3.300760908594
 21
1319.193227212002
  0
LINE
  5
42
100
AcDbEntity
  8
1
  6
CONTINUOUS
 62
           3
100
AcDbLine
 10
13.699239091406
 20
1314.222768104305
 11
13.699239091406
 21
1321.707973174158
  0
LINE
  5
41
100
AcDbEntity
  8
1
  6
CONTINUOUS
 62
           3
100
AcDbLine
 10
15.263038135553
 20
1315.125627903402
 11
13.699239091406
 21
1314.222768104305
  0
LINE
  5
40
100
AcDbEntity
  8
1
  6
CONTINUOUS
 62
           3
100
AcDbLine
 10
4.872305282587
 20
1326.804205784799
 11
-3.800760908594
 21
1331.811602884976
  0
LINE
  5
3F
100
AcDbEntity
  8
1
  6
CONTINUOUS
 62
           3
100
AcDbLine
 10
7.608372370893
 20
1328.383874854754
 11
4.872305282587
 21
1326.804205784799
  0
LINE
  5
3E
100
AcDbEntity
  8
1
  6
CONTINUOUS
 62
           3
100
AcDbLine
 10
-4.175760908594
 20
1313.863045726461
 11
-3.300760908594
 21
1314.368227212002
  0
LINE
  5
3D
100
AcDbEntity
  8
1
  6
CONTINUOUS
 62
           3
100
AcDbLine
 10
-4.175760908594
 20
1328.363045726461
 11
-4.175760908594
 21
1313.863045726461
  0
LINE
  5
3C
100
AcDbEntity
  8
1
  6
CONTINUOUS
 62
           3
100
AcDbLine
 10
10.324239091406
 20
1319.991466823212
 11
-3.300760908594
 21
1327.85786424092
  0
LINE
  5
3B
100
AcDbEntity
  8
1
  6
CONTINUOUS
 62
           3
100
AcDbLine
 10
10.324239091406
 20
1305.491466823212
 11
-4.175760908594
 21
1313.863045726461
  0
LINE
  5
3A
100
AcDbEntity
  8
1
  6
CONTINUOUS
 62
           3
100
AcDbLine
 10
13.699239091406
 20
1321.707973174158
 11
4.872305282587
 21
1326.804205784799
  0
LINE
  5
39
100
AcDbEntity
  8
1
  6
CONTINUOUS
 62
           3
100
AcDbLine
 10
-3.800760908594
 20
1331.811602884976
 11
-5.675760908594
 21
1330.729071130246
  0
LINE
  5
38
100
AcDbEntity
  8
1
  6
CONTINUOUS
 62
           3
100
AcDbLine
 10
13.699239091406
 20
1321.707973174158
 11
11.824239091406
 21
1320.625441419427
  0
LINE
  5
37
100
AcDbEntity
  8
1
  6
CONTINUOUS
 62
           3
100
AcDbLine
 10
13.699239091406
 20
1304.207973174158
 11
13.699239091406
 21
1314.222768104305
  0
LINE
  5
36
100
AcDbEntity
  8
1
  6
CONTINUOUS
 62
           3
100
AcDbLine
 10
11.824239091406
 20
1303.125441419427
 11
13.699239091406
 21
1304.207973174158
  0
LINE
  5
35
100
AcDbEntity
  8
1
  6
CONTINUOUS
 62
           3
100
AcDbLine
 10
11.824239091406
 20
1320.625441419427
 11
-5.675760908594
 21
1330.729071130246
  0
LINE
  5
34
100
AcDbEntity
  8
1
  6
CONTINUOUS
 62
           3
100
AcDbLine
 10
-5.675760908594
 20
1313.229071130246
 11
-5.675760908594
 21
1330.729071130246
  0
LINE
  5
33
100
AcDbEntity
  8
1
  6
CONTINUOUS
 62
           3
100
AcDbLine
 10
11.824239091406
 20
1303.125441419427
 11
-5.675760908594
 21
1313.229071130246
  0
LINE
  5
32
100
AcDbEntity
  8
1
  6
CONTINUOUS
 62
           3
100
AcDbLine
 10
11.824239091406
 20
1303.125441419427
 11
11.824239091406
 21
1320.625441419427
  0
LINE
  5
31
100
AcDbEntity
  8
1
  6
CONTINUOUS
 62
           4
100
AcDbLine
 10
13.775440613427
 20
1331.944433364691
 11
14.275440613427
 21
1332.233108499286
  0
LINE
  5
30
100
AcDbEntity
  8
1
  6
CONTINUOUS
 62
           4
100
AcDbLine
 10
-5.675760908594
 20
1305.87821816916
 11
-5.675760908594
 21
1312.074370591866
  0
LINE
  5
2F
100
AcDbEntity
  8
1
  6
CONTINUOUS
 62
           4
100
AcDbLine
 10
11.824239091406
 20
1301.970740881048
 11
11.824239091406
 21
1296.351938727531
  0
LINE
  5
2E
100
AcDbEntity
  8
1
  6
CONTINUOUS
 62
           4
100
AcDbLine
 10
29.084752165275
 20
1323.105598219124
 11
29.584752165275
 21
1323.394273353719
  0
LINE
  5
2D
100
AcDbEntity
  8
1
  6
CONTINUOUS
 62
           4
100
AcDbLine
 10
13.699239091406
 20
1303.053272635779
 11
13.699239091406
 21
1293.660967790364
  0
LINE
  5
2C
100
AcDbEntity
  8
1
  6
CONTINUOUS
 62
           4
100
AcDbLine
 10
11.824239091407
 20
1292.578436035634
 11
13.699239091406
 21
1293.660967790364
  0
LINE
  5
2B
100
AcDbEntity
  8
1
  6
CONTINUOUS
 62
           4
100
AcDbLine
 10
11.824239091406
 20
1296.351938727531
 11
11.824239091406
 21
1292.001085766444
  0
LINE
  5
2A
100
AcDbEntity
  8
1
  6
CONTINUOUS
 62
           4
100
AcDbLine
 10
13.699239091406
 20
1293.660967790364
 11
13.699239091406
 21
1293.083617521175
  0
LINE
  5
29
100
AcDbEntity
  8
1
  6
CONTINUOUS
 62
           4
100
AcDbLine
 10
17.897522151503
 20
1316.646647959186
 11
29.084752165275
 21
1323.105598219124
  0
LINE
  5
28
100
AcDbEntity
  8
1
  6
CONTINUOUS
 62
           4
100
AcDbLine
 10
9.880294684049
 20
1329.695569813832
 11
13.775440613427
 21
1331.944433364691
  0
SOLID
  5
52
100
AcDbEntity
  8
0
 62
           4
100
AcDbTrace
 10
25.823271381251
 20
1324.456547793286
 11
26.284055122807
 21
1325.254648644962
 12
29.084752165275
 22
1323.105598219124
 13
29.084752165275
 23
1323.105598219124
  0
SOLID
  5
54
100
AcDbEntity
  8
0
 62
           4
100
AcDbTrace
 10
17.036921397451
 20
1330.593483790529
 11
16.576137655895
 21
1329.795382938853
 12
13.775440613427
 22
1331.944433364691
 13
13.775440613427
 23
1331.944433364691
  0
SOLID
  5
56
100
AcDbEntity
  8
0
 62
           4
100
AcDbTrace
 10
19.649060126134
 20
1297.628165800845
 11
20.10984386769
 21
1296.830064949169
 12
16.848363083666
 22
1295.479115375007
 13
16.848363083666
 23
1295.479115375007
  0
SOLID
  5
58
100
AcDbEntity
  8
0
 62
           4
100
AcDbTrace
 10
9.023542048939
 20
1290.429385609797
 11
8.562758307383
 21
1291.227486461474
 12
11.824239091407
 22
1292.578436035634
 13
11.824239091407
 23
1292.578436035634
  0
SOLID
  5
5A
100
AcDbEntity
  8
0
 62
           4
100
AcDbTrace
 10
-2.41428012457
 20
1305.104618864187
 11
-2.875063866126
 21
1304.306518012511
 12
-5.675760908594
 22
1306.455568438349
 13
-5.675760908594
 23
1306.455568438349
  0
SOLID
  5
5C
100
AcDbEntity
  8
0
 62
           4
100
AcDbTrace
 10
8.562758307383
 20
1297.702888301693
 11
9.023542048939
 21
1298.500989153369
 12
11.824239091406
 22
1296.351938727531
 13
11.824239091406
 23
1296.351938727531
  0
ENDSEC
  0
SECTION
  2
OBJECTS
  0
DICTIONARY
  5
19
100
AcDbDictionary
  3
ACAD_GROUP
350
1A
  3
ACAD_MLINESTYLE
350
1B
  0
DICTIONARY
  5
1A
102
{ACAD_REACTORS
330
19
102
}
100
AcDbDictionary
  0
DICTIONARY
  5
1B
102
{ACAD_REACTORS
330
19
102
}
100
AcDbDictionary
  3
STANDARD
350
1C
  0
MLINESTYLE
  5
1C
102
{ACAD_REACTORS
330
1B
102
}
100
AcDbMlineStyle
  2
STANDARD
 70
           0
  3

 62
           0
 51
90.0
 52
90.0
 71
           2
 49
0.5
 62
         256
  6
BYLAYER
 49
-0.5
 62
         256
  6
BYLAYER
  0
ENDSEC
  0
EOF
