  0
SECTION
  2
HEADER
  9
$ACADVER
  1
AC1009
  9
$INSBASE
 10
0.0
 20
0.0
 30
0.0
  9
$EXTMIN
 10
-32.071067811865483
 20
-2.0710678118654751
 30
0.0
  9
$EXTMAX
 10
32.071067811865483
 20
90.000000000000455
 30
0.0
  9
$LIMMIN
 10
0.0
 20
0.0
  9
$LIMMAX
 10
420.0
 20
297.0
  9
$ORTHOMODE
 70
     1
  9
$REGENMODE
 70
     1
  9
$FILLMODE
 70
     1
  9
$QTEXTMODE
 70
     0
  9
$MIRRTEXT
 70
     1
  9
$DRAGMODE
 70
     2
  9
$LTSCALE
 40
1.0
  9
$OSMODE
 70
    47
  9
$ATTMODE
 70
     1
  9
$TEXTSIZE
 40
3.5
  9
$TRACEWID
 40
0.05
  9
$TEXTSTYLE
  7
SST
  9
$CLAYER
  8
0
  9
$CELTYPE
  6
BYLAYER
  9
$CECOLOR
 62
   256
  9
$DIMSCALE
 40
2.0
  9
$DIMASZ
 40
2.0
  9
$DIMEXO
 40
1.0
  9
$DIMDLI
 40
10.0
  9
$DIMRND
 40
0.0
  9
$DIMDLE
 40
0.0
  9
$DIMEXE
 40
1.0
  9
$DIMTP
 40
0.0
  9
$DIMTM
 40
0.0
  9
$DIMTXT
 40
3.5
  9
$DIMCEN
 40
2.5
  9
$DIMTSZ
 40
0.0
  9
$DIMTOL
 70
     0
  9
$DIMLIM
 70
     0
  9
$DIMTIH
 70
     0
  9
$DIMTOH
 70
     0
  9
$DIMSE1
 70
     0
  9
$DIMSE2
 70
     0
  9
$DIMTAD
 70
     1
  9
$DIMZIN
 70
     8
  9
$DIMBLK
  1

  9
$DIMASO
 70
     1
  9
$DIMSHO
 70
     1
  9
$DIMPOST
  1

  9
$DIMAPOST
  1

  9
$DIMALT
 70
     0
  9
$DIMALTD
 70
     2
  9
$DIMALTF
 40
25.399999999999999
  9
$DIMLFAC
 40
1.0
  9
$DIMTOFL
 70
     1
  9
$DIMTVP
 40
0.0
  9
$DIMTIX
 70
     0
  9
$DIMSOXD
 70
     0
  9
$DIMSAH
 70
     0
  9
$DIMBLK1
  1

  9
$DIMBLK2
  1

  9
$DIMSTYLE
  2
STANDARD
  9
$DIMCLRD
 70
     0
  9
$DIMCLRE
 70
     0
  9
$DIMCLRT
 70
     0
  9
$DIMTFAC
 40
1.0
  9
$DIMGAP
 40
1.0
  9
$LUNITS
 70
     2
  9
$LUPREC
 70
     4
  9
$SKETCHINC
 40
0.1
  9
$FILLETRAD
 40
6.0
  9
$AUNITS
 70
     0
  9
$AUPREC
 70
     2
  9
$MENU
  1
acad
  9
$ELEVATION
 40
0.0
  9
$PELEVATION
 40
0.0
  9
$THICKNESS
 40
0.0
  9
$LIMCHECK
 70
     0
  9
$BLIPMODE
 70
     0
  9
$CHAMFERA
 40
10.0
  9
$CHAMFERB
 40
10.0
  9
$SKPOLY
 70
     0
  9
$TDCREATE
 40
2449450.3780568289
  9
$TDUPDATE
 40
2453443.5689395261
  9
$TDINDWG
 40
2.6788641666999999
  9
$TDUSRTIMER
 40
2.6788641666999999
  9
$USRTIMER
 70
     1
  9
$ANGBASE
 50
0.0
  9
$ANGDIR
 70
     0
  9
$PDMODE
 70
     0
  9
$PDSIZE
 40
0.0
  9
$PLINEWID
 40
0.0
  9
$COORDS
 70
     1
  9
$SPLFRAME
 70
     0
  9
$SPLINETYPE
 70
     6
  9
$SPLINESEGS
 70
     8
  9
$ATTDIA
 70
     0
  9
$ATTREQ
 70
     1
  9
$HANDLING
 70
     1
  9
$HANDSEED
  5
8A7
  9
$SURFTAB1
 70
     6
  9
$SURFTAB2
 70
     6
  9
$SURFTYPE
 70
     6
  9
$SURFU
 70
     6
  9
$SURFV
 70
     6
  9
$UCSNAME
  2

  9
$UCSORG
 10
0.0
 20
0.0
 30
0.0
  9
$UCSXDIR
 10
1.0
 20
0.0
 30
0.0
  9
$UCSYDIR
 10
0.0
 20
1.0
 30
0.0
  9
$PUCSNAME
  2

  9
$PUCSORG
 10
0.0
 20
0.0
 30
0.0
  9
$PUCSXDIR
 10
1.0
 20
0.0
 30
0.0
  9
$PUCSYDIR
 10
0.0
 20
1.0
 30
0.0
  9
$USERI1
 70
     0
  9
$USERI2
 70
     0
  9
$USERI3
 70
     0
  9
$USERI4
 70
     0
  9
$USERI5
 70
     0
  9
$USERR1
 40
0.0
  9
$USERR2
 40
0.0
  9
$USERR3
 40
0.0
  9
$USERR4
 40
0.0
  9
$USERR5
 40
0.0
  9
$WORLDVIEW
 70
     1
  9
$SHADEDGE
 70
     3
  9
$SHADEDIF
 70
    70
  9
$TILEMODE
 70
     1
  9
$MAXACTVP
 70
    16
  9
$PLIMCHECK
 70
     0
  9
$PEXTMIN
 10
1.0000000000000000E+020
 20
1.0000000000000000E+020
 30
1.0000000000000000E+020
  9
$PEXTMAX
 10
-1.0000000000000000E+020
 20
-1.0000000000000000E+020
 30
-1.0000000000000000E+020
  9
$PLIMMIN
 10
0.0
 20
0.0
  9
$PLIMMAX
 10
420.0
 20
297.0
  9
$UNITMODE
 70
     0
  9
$VISRETAIN
 70
     0
  9
$PLINEGEN
 70
     0
  9
$PSLTSCALE
 70
     1
  0
ENDSEC
  0
SECTION
  2
TABLES
  0
TABLE
  2
VPORT
 70
     2
  0
VPORT
  2
*ACTIVE
 70
     0
 10
0.0
 20
0.0
 11
1.0
 21
1.0
 12
182.37854098479571
 22
223.91553576373121
 13
0.0
 23
0.0
 14
0.1
 24
0.1
 15
10.0
 25
10.0
 16
0.0
 26
0.0
 36
1.0
 17
0.0
 27
0.0
 37
0.0
 40
611.42800780831965
 41
1.4993646759847521
 42
50.0
 43
0.0
 44
0.0
 50
0.0
 51
0.0
 71
     0
 72
   100
 73
     1
 74
     1
 75
     0
 76
     0
 77
     0
 78
     0
  0
ENDTAB
  0
TABLE
  2
LTYPE
 70
     2
  0
LTYPE
  2
CONTINUOUS
 70
     0
  3
Solid line
 72
    65
 73
     0
 40
0.0
  0
LTYPE
  2
HIDDEN
 70
     0
  3
__ __ __ __ __ __ __ __ __ __ __ __ __ __ __ __
 72
    65
 73
     2
 40
0.375
 49
0.25
 49
-0.125
  0
ENDTAB
  0
TABLE
  2
LAYER
 70
     1
  0
LAYER
  2
0
 70
     0
 62
     7
  6
CONTINUOUS
  0
ENDTAB
  0
TABLE
  2
STYLE
 70
     2
  0
STYLE
  2
STANDARD
 70
     0
 40
0.0
 41
1.0
 50
0.0
 71
     0
 42
3.0
  3
txt
  4

  0
STYLE
  2
SST
 70
     0
 40
0.0
 41
1.0
 50
0.0
 71
     0
 42
3.5
  3
romans.shx
  4

  0
ENDTAB
  0
TABLE
  2
VIEW
 70
     0
  0
ENDTAB
  0
TABLE
  2
UCS
 70
     0
  0
ENDTAB
  0
TABLE
  2
APPID
 70
     2
  0
APPID
  2
ACAD
 70
     0
  0
APPID
  2
CONTENTBLOCKICON
 70
     0
  0
ENDTAB
  0
TABLE
  2
DIMSTYLE
 70
     2
  0
DIMSTYLE
  2
NORDIC
 70
     0
  3

  4

  5

  6

  7

 40
2.0
 41
2.0
 42
1.0
 43
10.0
 44
1.0
 45
0.0
 46
0.0
 47
0.0
 48
0.0
140
3.5
141
2.5
142
0.0
143
25.399999999999999
144
1.0
145
0.0
146
1.0
147
1.0
 71
     0
 72
     0
 73
     0
 74
     0
 75
     0
 76
     0
 77
     1
 78
     8
170
     0
171
     2
172
     1
173
     0
174
     0
175
     0
176
     0
177
     0
178
     0
  0
DIMSTYLE
  2
STANDARD
 70
     0
  3

  4

  5

  6

  7

 40
2.0
 41
2.0
 42
1.0
 43
10.0
 44
1.0
 45
0.0
 46
0.0
 47
0.0
 48
0.0
140
3.5
141
2.5
142
0.0
143
25.399999999999999
144
1.0
145
0.0
146
1.0
147
1.0
 71
     0
 72
     0
 73
     0
 74
     0
 75
     0
 76
     0
 77
     1
 78
     8
170
     0
171
     2
172
     1
173
     0
174
     0
175
     0
176
     0
177
     0
178
     0
  0
ENDTAB
  0
ENDSEC
  0
SECTION
  2
BLOCKS
  0
BLOCK
  8
0
  2
$MODEL_SPACE
 70
     0
 10
0.0
 20
0.0
 30
0.0
  3
$MODEL_SPACE
  1

  0
ENDBLK
  5
B
  8
0
  0
BLOCK
 67
     1
  8
0
  2
$PAPER_SPACE
 70
     0
 10
0.0
 20
0.0
 30
0.0
  3
$PAPER_SPACE
  1

  0
ENDBLK
  5
10
 67
     1
  8
0
  0
BLOCK
  8
0
  2
34709-P1-F
 70
     0
 10
0.0
 20
0.0
 30
0.0
  3
34709-P1-F
  1

  0
LINE
  5
57
  8
0
 10
-8.6560171224688531
 20
20.59598111928295
 30
0.0
 11
-30.0
 21
22.839324117149658
 31
0.0
  0
LINE
  5
58
  8
0
 10
-30.0
 20
22.839324117149658
 30
0.0
 11
-30.0
 21
10.00000000000011
 31
0.0
  0
CIRCLE
  5
59
  8
0
 10
-24.0
 20
14.5
 30
0.0
 40
2.5
  0
ARC
  5
5A
  8
0
 10
-20.0
 20
10.0
 30
0.0
 40
10.0
 50
180.0
 51
270.0
  0
LINE
  5
5B
  8
0
 10
-20.0
 20
0.0
 30
0.0
 11
20.0
 21
0.0
 31
0.0
  0
CIRCLE
  5
5C
  8
0
 10
-5.0
 20
7.5
 30
0.0
 40
2.5
  0
CIRCLE
  5
5D
  8
0
 10
0.0
 20
22.5
 30
0.0
 40
2.5
  0
CIRCLE
  5
5E
  8
0
 10
5.0
 20
37.5
 30
0.0
 40
2.5
  0
CIRCLE
  5
5F
  8
0
 10
0.0
 20
52.5
 30
0.0
 40
2.5
  0
LINE
  5
60
  8
0
 10
-9.140745356031573
 20
57.499999999999943
 30
0.0
 11
9.1407453560314025
 21
57.499999999999893
 31
0.0
  0
LINE
  5
61
  8
0
 10
8.5300122742476105
 20
20.582737476070861
 30
0.0
 11
30.000000000000231
 21
22.839324117149658
 31
0.0
  0
LINE
  5
62
  8
0
 10
30.00000000000011
 20
10.0
 30
0.0
 11
30.00000000000011
 21
22.839324117149658
 31
0.0
  0
ARC
  5
63
  8
0
 10
20.0
 20
10.0
 30
0.0
 40
10.0
 50
270.0
 51
0.0
  0
CIRCLE
  5
64
  8
0
 10
24.00000000000011
 20
14.5
 30
0.0
 40
2.5
  0
LINE
  5
65
  8
0
 62
     0
 10
-9.1140284993282421
 20
25.66879446479777
 30
0.0
 11
-5.6766437408938941
 21
57.499999999999943
 31
0.0
  0
LINE
  5
66
  8
0
 62
     0
 10
9.1137223738797104
 20
25.671629277527192
 30
0.0
 11
5.6766437408940069
 21
57.499999999999922
 31
0.0
  0
LINE
  5
67
  8
0
 10
-12.539253858981541
 20
26.028800156836809
 30
0.0
 11
-9.140745356031573
 21
57.499999999999943
 31
0.0
  0
LINE
  5
68
  8
0
 10
12.538947733533091
 20
26.031634969566198
 30
0.0
 11
9.1407453560315162
 21
57.499999999999893
 31
0.0
  0
LINE
  5
69
  8
0
 10
-8.1195025612983045
 20
25.564265576629261
 30
0.0
 11
-12.53925385898151
 21
26.028800156836809
 31
0.0
  0
ARC
  5
6A
  8
0
 10
-8.3879129046078731
 20
23.078705941591409
 30
0.0
 40
2.5000101623243469
 50
263.83663334517161
 51
83.836633345169901
  0
ARC
  5
6B
  8
0
 10
-11.81313826426114
 20
23.43871163363039
 30
0.0
 40
2.5000101623243469
 50
263.8366333451699
 51
83.836633345169901
  0
ARC
  5
6C
  8
0
 10
8.3879129046078731
 20
23.078705941591409
 30
0.0
 40
2.5000101623243469
 50
96.163366654830114
 51
276.16336665482839
  0
LINE
  5
6D
  8
0
 10
8.1195025612983045
 20
25.564265576629261
 30
0.0
 11
12.53925385898151
 21
26.028800156836809
 31
0.0
  0
ARC
  5
6E
  8
0
 10
11.81313826426114
 20
23.43871163363039
 30
0.0
 40
2.5000101623243469
 50
96.163366654830114
 51
276.1633666548301
  0
INSERT
  5
6F
  8
0
  2
SIMPSON-STRONG-TIE
 10
8.3848814398182583
 20
10.905971836847179
 30
0.0
  0
ENDBLK
  5
70
  8
0
  0
BLOCK
  8
0
  2
34709-P2-F
 70
     0
 10
0.0
 20
0.0
 30
0.0
  3
34709-P2-F
  1

  0
LINE
  5
2F
  8
0
 10
-10.218313667550429
 20
20.760185102911919
 30
0.0
 11
-30.0
 21
22.839324117149658
 31
0.0
  0
LINE
  5
30
  8
0
 10
-29.99999999999989
 20
90.000000000000455
 30
0.0
 11
-30.00000000000011
 21
22.839324117149548
 31
0.0
  0
POLYLINE
  5
31
  8
0
 10
-15.285954792089676
 20
79.642977396045154
 30
0.0
 66
     1
 70
     8
  0
VERTEX
  8
0
  5
87
 10
-15.2860
 20
79.6430
 30
0.000000
  70
    32
  0
VERTEX
  8
0
  5
88
 10
-15.3189
 20
79.7069
 30
0.000000
  70
    32
  0
VERTEX
  8
0
  5
89
 10
-15.3535
 20
79.7703
 30
0.000000
  70
    32
  0
VERTEX
  8
0
  5
8A
 10
-15.3899
 20
79.8332
 30
0.000000
  70
    32
  0
VERTEX
  8
0
  5
8B
 10
-15.4280
 20
79.8957
 30
0.000000
  70
    32
  0
VERTEX
  8
0
  5
8C
 10
-15.4678
 20
79.9576
 30
0.000000
  70
    32
  0
VERTEX
  8
0
  5
8D
 10
-15.5092
 20
80.0190
 30
0.000000
  70
    32
  0
VERTEX
  8
0
  5
8E
 10
-15.5523
 20
80.0797
 30
0.000000
  70
    32
  0
VERTEX
  8
0
  5
8F
 10
-15.5971
 20
80.1399
 30
0.000000
  70
    32
  0
VERTEX
  8
0
  5
90
 10
-15.6435
 20
80.1995
 30
0.000000
  70
    32
  0
VERTEX
  8
0
  5
91
 10
-15.6915
 20
80.2584
 30
0.000000
  70
    32
  0
VERTEX
  8
0
  5
92
 10
-15.7411
 20
80.3167
 30
0.000000
  70
    32
  0
VERTEX
  8
0
  5
93
 10
-15.7922
 20
80.3743
 30
0.000000
  70
    32
  0
VERTEX
  8
0
  5
94
 10
-15.8450
 20
80.4311
 30
0.000000
  70
    32
  0
VERTEX
  8
0
  5
95
 10
-15.8992
 20
80.4873
 30
0.000000
  70
    32
  0
VERTEX
  8
0
  5
96
 10
-15.9550
 20
80.5427
 30
0.000000
  70
    32
  0
VERTEX
  8
0
  5
97
 10
-16.0123
 20
80.5973
 30
0.000000
  70
    32
  0
VERTEX
  8
0
  5
98
 10
-16.0710
 20
80.6511
 30
0.000000
  70
    32
  0
VERTEX
  8
0
  5
99
 10
-16.1312
 20
80.7042
 30
0.000000
  70
    32
  0
VERTEX
  8
0
  5
9A
 10
-16.1928
 20
80.7564
 30
0.000000
  70
    32
  0
VERTEX
  8
0
  5
9B
 10
-16.2559
 20
80.8077
 30
0.000000
  70
    32
  0
VERTEX
  8
0
  5
9C
 10
-16.3203
 20
80.8582
 30
0.000000
  70
    32
  0
VERTEX
  8
0
  5
9D
 10
-16.3861
 20
80.9078
 30
0.000000
  70
    32
  0
VERTEX
  8
0
  5
9E
 10
-16.4532
 20
80.9565
 30
0.000000
  70
    32
  0
VERTEX
  8
0
  5
9F
 10
-16.5217
 20
81.0043
 30
0.000000
  70
    32
  0
VERTEX
  8
0
  5
A0
 10
-16.5914
 20
81.0511
 30
0.000000
  70
    32
  0
VERTEX
  8
0
  5
A1
 10
-16.6624
 20
81.0970
 30
0.000000
  70
    32
  0
VERTEX
  8
0
  5
A2
 10
-16.7346
 20
81.1419
 30
0.000000
  70
    32
  0
VERTEX
  8
0
  5
A3
 10
-16.8080
 20
81.1858
 30
0.000000
  70
    32
  0
VERTEX
  8
0
  5
A4
 10
-16.8826
 20
81.2287
 30
0.000000
  70
    32
  0
VERTEX
  8
0
  5
A5
 10
-16.9584
 20
81.2706
 30
0.000000
  70
    32
  0
VERTEX
  8
0
  5
A6
 10
-17.0353
 20
81.3114
 30
0.000000
  70
    32
  0
VERTEX
  8
0
  5
A7
 10
-17.1132
 20
81.3512
 30
0.000000
  70
    32
  0
VERTEX
  8
0
  5
A8
 10
-17.1923
 20
81.3899
 30
0.000000
  70
    32
  0
VERTEX
  8
0
  5
A9
 10
-17.2724
 20
81.4276
 30
0.000000
  70
    32
  0
VERTEX
  8
0
  5
AA
 10
-17.3535
 20
81.4641
 30
0.000000
  70
    32
  0
VERTEX
  8
0
  5
AB
 10
-17.4356
 20
81.4996
 30
0.000000
  70
    32
  0
VERTEX
  8
0
  5
AC
 10
-17.5186
 20
81.5339
 30
0.000000
  70
    32
  0
VERTEX
  8
0
  5
AD
 10
-17.6025
 20
81.5671
 30
0.000000
  70
    32
  0
VERTEX
  8
0
  5
AE
 10
-17.6874
 20
81.5991
 30
0.000000
  70
    32
  0
VERTEX
  8
0
  5
AF
 10
-17.7731
 20
81.6300
 30
0.000000
  70
    32
  0
VERTEX
  8
0
  5
B0
 10
-17.8596
 20
81.6597
 30
0.000000
  70
    32
  0
VERTEX
  8
0
  5
B1
 10
-17.9469
 20
81.6882
 30
0.000000
  70
    32
  0
VERTEX
  8
0
  5
B2
 10
-18.0349
 20
81.7155
 30
0.000000
  70
    32
  0
VERTEX
  8
0
  5
B3
 10
-18.1237
 20
81.7416
 30
0.000000
  70
    32
  0
VERTEX
  8
0
  5
B4
 10
-18.2132
 20
81.7665
 30
0.000000
  70
    32
  0
VERTEX
  8
0
  5
B5
 10
-18.3033
 20
81.7902
 30
0.000000
  70
    32
  0
VERTEX
  8
0
  5
B6
 10
-18.3941
 20
81.8127
 30
0.000000
  70
    32
  0
VERTEX
  8
0
  5
B7
 10
-18.4855
 20
81.8339
 30
0.000000
  70
    32
  0
VERTEX
  8
0
  5
B8
 10
-18.5774
 20
81.8539
 30
0.000000
  70
    32
  0
VERTEX
  8
0
  5
B9
 10
-18.6698
 20
81.8726
 30
0.000000
  70
    32
  0
VERTEX
  8
0
  5
BA
 10
-18.7628
 20
81.8901
 30
0.000000
  70
    32
  0
VERTEX
  8
0
  5
BB
 10
-18.8562
 20
81.9062
 30
0.000000
  70
    32
  0
VERTEX
  8
0
  5
BC
 10
-18.9500
 20
81.9212
 30
0.000000
  70
    32
  0
VERTEX
  8
0
  5
BD
 10
-19.0442
 20
81.9348
 30
0.000000
  70
    32
  0
VERTEX
  8
0
  5
BE
 10
-19.1388
 20
81.9472
 30
0.000000
  70
    32
  0
VERTEX
  8
0
  5
BF
 10
-19.2337
 20
81.9582
 30
0.000000
  70
    32
  0
VERTEX
  8
0
  5
C0
 10
-19.3289
 20
81.9680
 30
0.000000
  70
    32
  0
VERTEX
  8
0
  5
C1
 10
-19.4243
 20
81.9765
 30
0.000000
  70
    32
  0
VERTEX
  8
0
  5
C2
 10
-19.5199
 20
81.9837
 30
0.000000
  70
    32
  0
VERTEX
  8
0
  5
C3
 10
-19.6157
 20
81.9895
 30
0.000000
  70
    32
  0
VERTEX
  8
0
  5
C4
 10
-19.7117
 20
81.9941
 30
0.000000
  70
    32
  0
VERTEX
  8
0
  5
C5
 10
-19.8077
 20
81.9974
 30
0.000000
  70
    32
  0
VERTEX
  8
0
  5
C6
 10
-19.9038
 20
81.9993
 30
0.000000
  70
    32
  0
VERTEX
  8
0
  5
C7
 10
-20.0000
 20
82.0000
 30
0.000000
  70
    32
  0
VERTEX
  8
0
  5
C8
 10
-20.0962
 20
81.9993
 30
0.000000
  70
    32
  0
VERTEX
  8
0
  5
C9
 10
-20.1923
 20
81.9974
 30
0.000000
  70
    32
  0
VERTEX
  8
0
  5
CA
 10
-20.2883
 20
81.9941
 30
0.000000
  70
    32
  0
VERTEX
  8
0
  5
CB
 10
-20.3843
 20
81.9895
 30
0.000000
  70
    32
  0
VERTEX
  8
0
  5
CC
 10
-20.4801
 20
81.9837
 30
0.000000
  70
    32
  0
VERTEX
  8
0
  5
CD
 10
-20.5757
 20
81.9765
 30
0.000000
  70
    32
  0
VERTEX
  8
0
  5
CE
 10
-20.6711
 20
81.9680
 30
0.000000
  70
    32
  0
VERTEX
  8
0
  5
CF
 10
-20.7663
 20
81.9582
 30
0.000000
  70
    32
  0
VERTEX
  8
0
  5
D0
 10
-20.8612
 20
81.9472
 30
0.000000
  70
    32
  0
VERTEX
  8
0
  5
D1
 10
-20.9558
 20
81.9348
 30
0.000000
  70
    32
  0
VERTEX
  8
0
  5
D2
 10
-21.0500
 20
81.9212
 30
0.000000
  70
    32
  0
VERTEX
  8
0
  5
D3
 10
-21.1438
 20
81.9062
 30
0.000000
  70
    32
  0
VERTEX
  8
0
  5
D4
 10
-21.2372
 20
81.8901
 30
0.000000
  70
    32
  0
VERTEX
  8
0
  5
D5
 10
-21.3302
 20
81.8726
 30
0.000000
  70
    32
  0
VERTEX
  8
0
  5
D6
 10
-21.4226
 20
81.8539
 30
0.000000
  70
    32
  0
VERTEX
  8
0
  5
D7
 10
-21.5145
 20
81.8339
 30
0.000000
  70
    32
  0
VERTEX
  8
0
  5
D8
 10
-21.6059
 20
81.8127
 30
0.000000
  70
    32
  0
VERTEX
  8
0
  5
D9
 10
-21.6967
 20
81.7902
 30
0.000000
  70
    32
  0
VERTEX
  8
0
  5
DA
 10
-21.7868
 20
81.7665
 30
0.000000
  70
    32
  0
VERTEX
  8
0
  5
DB
 10
-21.8763
 20
81.7416
 30
0.000000
  70
    32
  0
VERTEX
  8
0
  5
DC
 10
-21.9651
 20
81.7155
 30
0.000000
  70
    32
  0
VERTEX
  8
0
  5
DD
 10
-22.0531
 20
81.6882
 30
0.000000
  70
    32
  0
VERTEX
  8
0
  5
DE
 10
-22.1404
 20
81.6597
 30
0.000000
  70
    32
  0
VERTEX
  8
0
  5
DF
 10
-22.2269
 20
81.6300
 30
0.000000
  70
    32
  0
VERTEX
  8
0
  5
E0
 10
-22.3126
 20
81.5991
 30
0.000000
  70
    32
  0
VERTEX
  8
0
  5
E1
 10
-22.3975
 20
81.5671
 30
0.000000
  70
    32
  0
VERTEX
  8
0
  5
E2
 10
-22.4814
 20
81.5339
 30
0.000000
  70
    32
  0
VERTEX
  8
0
  5
E3
 10
-22.5644
 20
81.4996
 30
0.000000
  70
    32
  0
VERTEX
  8
0
  5
E4
 10
-22.6465
 20
81.4641
 30
0.000000
  70
    32
  0
VERTEX
  8
0
  5
E5
 10
-22.7276
 20
81.4276
 30
0.000000
  70
    32
  0
VERTEX
  8
0
  5
E6
 10
-22.8077
 20
81.3899
 30
0.000000
  70
    32
  0
VERTEX
  8
0
  5
E7
 10
-22.8868
 20
81.3512
 30
0.000000
  70
    32
  0
VERTEX
  8
0
  5
E8
 10
-22.9647
 20
81.3114
 30
0.000000
  70
    32
  0
VERTEX
  8
0
  5
E9
 10
-23.0416
 20
81.2706
 30
0.000000
  70
    32
  0
VERTEX
  8
0
  5
EA
 10
-23.1174
 20
81.2287
 30
0.000000
  70
    32
  0
VERTEX
  8
0
  5
EB
 10
-23.1920
 20
81.1858
 30
0.000000
  70
    32
  0
VERTEX
  8
0
  5
EC
 10
-23.2654
 20
81.1419
 30
0.000000
  70
    32
  0
VERTEX
  8
0
  5
ED
 10
-23.3376
 20
81.0970
 30
0.000000
  70
    32
  0
VERTEX
  8
0
  5
EE
 10
-23.4086
 20
81.0511
 30
0.000000
  70
    32
  0
VERTEX
  8
0
  5
EF
 10
-23.4783
 20
81.0043
 30
0.000000
  70
    32
  0
VERTEX
  8
0
  5
F0
 10
-23.5468
 20
80.9565
 30
0.000000
  70
    32
  0
VERTEX
  8
0
  5
F1
 10
-23.6139
 20
80.9078
 30
0.000000
  70
    32
  0
VERTEX
  8
0
  5
F2
 10
-23.6797
 20
80.8582
 30
0.000000
  70
    32
  0
VERTEX
  8
0
  5
F3
 10
-23.7441
 20
80.8077
 30
0.000000
  70
    32
  0
VERTEX
  8
0
  5
F4
 10
-23.8072
 20
80.7564
 30
0.000000
  70
    32
  0
VERTEX
  8
0
  5
F5
 10
-23.8688
 20
80.7042
 30
0.000000
  70
    32
  0
VERTEX
  8
0
  5
F6
 10
-23.9290
 20
80.6511
 30
0.000000
  70
    32
  0
VERTEX
  8
0
  5
F7
 10
-23.9877
 20
80.5973
 30
0.000000
  70
    32
  0
VERTEX
  8
0
  5
F8
 10
-24.0450
 20
80.5427
 30
0.000000
  70
    32
  0
VERTEX
  8
0
  5
F9
 10
-24.1008
 20
80.4873
 30
0.000000
  70
    32
  0
VERTEX
  8
0
  5
FA
 10
-24.1550
 20
80.4311
 30
0.000000
  70
    32
  0
VERTEX
  8
0
  5
FB
 10
-24.2078
 20
80.3743
 30
0.000000
  70
    32
  0
VERTEX
  8
0
  5
FC
 10
-24.2589
 20
80.3167
 30
0.000000
  70
    32
  0
VERTEX
  8
0
  5
FD
 10
-24.3085
 20
80.2584
 30
0.000000
  70
    32
  0
VERTEX
  8
0
  5
FE
 10
-24.3565
 20
80.1995
 30
0.000000
  70
    32
  0
VERTEX
  8
0
  5
FF
 10
-24.4029
 20
80.1399
 30
0.000000
  70
    32
  0
VERTEX
  8
0
  5
100
 10
-24.4477
 20
80.0797
 30
0.000000
  70
    32
  0
VERTEX
  8
0
  5
101
 10
-24.4908
 20
80.0190
 30
0.000000
  70
    32
  0
VERTEX
  8
0
  5
102
 10
-24.5322
 20
79.9576
 30
0.000000
  70
    32
  0
VERTEX
  8
0
  5
103
 10
-24.5720
 20
79.8957
 30
0.000000
  70
    32
  0
VERTEX
  8
0
  5
104
 10
-24.6101
 20
79.8332
 30
0.000000
  70
    32
  0
VERTEX
  8
0
  5
105
 10
-24.6465
 20
79.7703
 30
0.000000
  70
    32
  0
VERTEX
  8
0
  5
106
 10
-24.6811
 20
79.7069
 30
0.000000
  70
    32
  0
VERTEX
  8
0
  5
107
 10
-24.7140
 20
79.6430
 30
0.000000
  70
    32
  0
SEQEND
  8
0
  5
108
  0
POLYLINE
  5
32
  8
0
 10
-17.499999999999879
 20
76.696699141101107
 30
0.0
 66
     1
 70
     8
  0
VERTEX
  8
0
  5
109
 10
-17.5000
 20
76.6967
 30
0.000000
  70
    32
  0
VERTEX
  8
0
  5
10A
 10
-17.5030
 20
76.7834
 30
0.000000
  70
    32
  0
VERTEX
  8
0
  5
10B
 10
-17.5120
 20
76.8700
 30
0.000000
  70
    32
  0
VERTEX
  8
0
  5
10C
 10
-17.5271
 20
76.9561
 30
0.000000
  70
    32
  0
VERTEX
  8
0
  5
10D
 10
-17.5480
 20
77.0416
 30
0.000000
  70
    32
  0
VERTEX
  8
0
  5
10E
 10
-17.5749
 20
77.1262
 30
0.000000
  70
    32
  0
VERTEX
  8
0
  5
10F
 10
-17.6076
 20
77.2099
 30
0.000000
  70
    32
  0
VERTEX
  8
0
  5
110
 10
-17.6461
 20
77.2922
 30
0.000000
  70
    32
  0
VERTEX
  8
0
  5
111
 10
-17.6903
 20
77.3732
 30
0.000000
  70
    32
  0
VERTEX
  8
0
  5
112
 10
-17.7400
 20
77.4525
 30
0.000000
  70
    32
  0
VERTEX
  8
0
  5
113
 10
-17.7952
 20
77.5300
 30
0.000000
  70
    32
  0
VERTEX
  8
0
  5
114
 10
-17.8557
 20
77.6055
 30
0.000000
  70
    32
  0
VERTEX
  8
0
  5
115
 10
-17.9213
 20
77.6788
 30
0.000000
  70
    32
  0
VERTEX
  8
0
  5
116
 10
-17.9920
 20
77.7498
 30
0.000000
  70
    32
  0
VERTEX
  8
0
  5
117
 10
-18.0675
 20
77.8182
 30
0.000000
  70
    32
  0
VERTEX
  8
0
  5
118
 10
-18.1476
 20
77.8839
 30
0.000000
  70
    32
  0
VERTEX
  8
0
  5
119
 10
-18.2322
 20
77.9467
 30
0.000000
  70
    32
  0
VERTEX
  8
0
  5
11A
 10
-18.3211
 20
78.0065
 30
0.000000
  70
    32
  0
VERTEX
  8
0
  5
11B
 10
-18.4140
 20
78.0632
 30
0.000000
  70
    32
  0
VERTEX
  8
0
  5
11C
 10
-18.5108
 20
78.1166
 30
0.000000
  70
    32
  0
VERTEX
  8
0
  5
11D
 10
-18.6111
 20
78.1665
 30
0.000000
  70
    32
  0
VERTEX
  8
0
  5
11E
 10
-18.7147
 20
78.2130
 30
0.000000
  70
    32
  0
VERTEX
  8
0
  5
11F
 10
-18.8215
 20
78.2557
 30
0.000000
  70
    32
  0
VERTEX
  8
0
  5
120
 10
-18.9311
 20
78.2947
 30
0.000000
  70
    32
  0
VERTEX
  8
0
  5
121
 10
-19.0433
 20
78.3299
 30
0.000000
  70
    32
  0
VERTEX
  8
0
  5
122
 10
-19.1578
 20
78.3611
 30
0.000000
  70
    32
  0
VERTEX
  8
0
  5
123
 10
-19.2743
 20
78.3883
 30
0.000000
  70
    32
  0
VERTEX
  8
0
  5
124
 10
-19.3925
 20
78.4115
 30
0.000000
  70
    32
  0
VERTEX
  8
0
  5
125
 10
-19.5123
 20
78.4305
 30
0.000000
  70
    32
  0
VERTEX
  8
0
  5
126
 10
-19.6332
 20
78.4453
 30
0.000000
  70
    32
  0
VERTEX
  8
0
  5
127
 10
-19.7550
 20
78.4560
 30
0.000000
  70
    32
  0
VERTEX
  8
0
  5
128
 10
-19.8773
 20
78.4623
 30
0.000000
  70
    32
  0
VERTEX
  8
0
  5
129
 10
-20.0000
 20
78.4645
 30
0.000000
  70
    32
  0
VERTEX
  8
0
  5
12A
 10
-20.1227
 20
78.4623
 30
0.000000
  70
    32
  0
VERTEX
  8
0
  5
12B
 10
-20.2450
 20
78.4560
 30
0.000000
  70
    32
  0
VERTEX
  8
0
  5
12C
 10
-20.3668
 20
78.4453
 30
0.000000
  70
    32
  0
VERTEX
  8
0
  5
12D
 10
-20.4877
 20
78.4305
 30
0.000000
  70
    32
  0
VERTEX
  8
0
  5
12E
 10
-20.6075
 20
78.4115
 30
0.000000
  70
    32
  0
VERTEX
  8
0
  5
12F
 10
-20.7257
 20
78.3883
 30
0.000000
  70
    32
  0
VERTEX
  8
0
  5
130
 10
-20.8422
 20
78.3611
 30
0.000000
  70
    32
  0
VERTEX
  8
0
  5
131
 10
-20.9567
 20
78.3299
 30
0.000000
  70
    32
  0
VERTEX
  8
0
  5
132
 10
-21.0689
 20
78.2947
 30
0.000000
  70
    32
  0
VERTEX
  8
0
  5
133
 10
-21.1785
 20
78.2557
 30
0.000000
  70
    32
  0
VERTEX
  8
0
  5
134
 10
-21.2853
 20
78.2130
 30
0.000000
  70
    32
  0
VERTEX
  8
0
  5
135
 10
-21.3889
 20
78.1665
 30
0.000000
  70
    32
  0
VERTEX
  8
0
  5
136
 10
-21.4892
 20
78.1166
 30
0.000000
  70
    32
  0
VERTEX
  8
0
  5
137
 10
-21.5860
 20
78.0632
 30
0.000000
  70
    32
  0
VERTEX
  8
0
  5
138
 10
-21.6789
 20
78.0065
 30
0.000000
  70
    32
  0
VERTEX
  8
0
  5
139
 10
-21.7678
 20
77.9467
 30
0.000000
  70
    32
  0
VERTEX
  8
0
  5
13A
 10
-21.8524
 20
77.8839
 30
0.000000
  70
    32
  0
VERTEX
  8
0
  5
13B
 10
-21.9325
 20
77.8182
 30
0.000000
  70
    32
  0
VERTEX
  8
0
  5
13C
 10
-22.0080
 20
77.7498
 30
0.000000
  70
    32
  0
VERTEX
  8
0
  5
13D
 10
-22.0787
 20
77.6788
 30
0.000000
  70
    32
  0
VERTEX
  8
0
  5
13E
 10
-22.1443
 20
77.6055
 30
0.000000
  70
    32
  0
VERTEX
  8
0
  5
13F
 10
-22.2048
 20
77.5300
 30
0.000000
  70
    32
  0
VERTEX
  8
0
  5
140
 10
-22.2600
 20
77.4525
 30
0.000000
  70
    32
  0
VERTEX
  8
0
  5
141
 10
-22.3097
 20
77.3732
 30
0.000000
  70
    32
  0
VERTEX
  8
0
  5
142
 10
-22.3539
 20
77.2922
 30
0.000000
  70
    32
  0
VERTEX
  8
0
  5
143
 10
-22.3924
 20
77.2099
 30
0.000000
  70
    32
  0
VERTEX
  8
0
  5
144
 10
-22.4251
 20
77.1262
 30
0.000000
  70
    32
  0
VERTEX
  8
0
  5
145
 10
-22.4520
 20
77.0416
 30
0.000000
  70
    32
  0
VERTEX
  8
0
  5
146
 10
-22.4729
 20
76.9561
 30
0.000000
  70
    32
  0
VERTEX
  8
0
  5
147
 10
-22.4880
 20
76.8700
 30
0.000000
  70
    32
  0
VERTEX
  8
0
  5
148
 10
-22.4970
 20
76.7834
 30
0.000000
  70
    32
  0
VERTEX
  8
0
  5
149
 10
-22.5000
 20
76.6967
 30
0.000000
  70
    32
  0
VERTEX
  8
0
  5
14A
 10
-22.4970
 20
76.6100
 30
0.000000
  70
    32
  0
VERTEX
  8
0
  5
14B
 10
-22.4880
 20
76.5234
 30
0.000000
  70
    32
  0
VERTEX
  8
0
  5
14C
 10
-22.4729
 20
76.4373
 30
0.000000
  70
    32
  0
VERTEX
  8
0
  5
14D
 10
-22.4520
 20
76.3518
 30
0.000000
  70
    32
  0
VERTEX
  8
0
  5
14E
 10
-22.4251
 20
76.2672
 30
0.000000
  70
    32
  0
VERTEX
  8
0
  5
14F
 10
-22.3924
 20
76.1835
 30
0.000000
  70
    32
  0
VERTEX
  8
0
  5
150
 10
-22.3539
 20
76.1012
 30
0.000000
  70
    32
  0
VERTEX
  8
0
  5
151
 10
-22.3097
 20
76.0202
 30
0.000000
  70
    32
  0
VERTEX
  8
0
  5
152
 10
-22.2600
 20
75.9409
 30
0.000000
  70
    32
  0
VERTEX
  8
0
  5
153
 10
-22.2048
 20
75.8634
 30
0.000000
  70
    32
  0
VERTEX
  8
0
  5
154
 10
-22.1443
 20
75.7879
 30
0.000000
  70
    32
  0
VERTEX
  8
0
  5
155
 10
-22.0787
 20
75.7146
 30
0.000000
  70
    32
  0
VERTEX
  8
0
  5
156
 10
-22.0080
 20
75.6436
 30
0.000000
  70
    32
  0
VERTEX
  8
0
  5
157
 10
-21.9325
 20
75.5752
 30
0.000000
  70
    32
  0
VERTEX
  8
0
  5
158
 10
-21.8524
 20
75.5095
 30
0.000000
  70
    32
  0
VERTEX
  8
0
  5
159
 10
-21.7678
 20
75.4467
 30
0.000000
  70
    32
  0
VERTEX
  8
0
  5
15A
 10
-21.6789
 20
75.3869
 30
0.000000
  70
    32
  0
VERTEX
  8
0
  5
15B
 10
-21.5860
 20
75.3302
 30
0.000000
  70
    32
  0
VERTEX
  8
0
  5
15C
 10
-21.4892
 20
75.2768
 30
0.000000
  70
    32
  0
VERTEX
  8
0
  5
15D
 10
-21.3889
 20
75.2269
 30
0.000000
  70
    32
  0
VERTEX
  8
0
  5
15E
 10
-21.2853
 20
75.1804
 30
0.000000
  70
    32
  0
VERTEX
  8
0
  5
15F
 10
-21.1785
 20
75.1377
 30
0.000000
  70
    32
  0
VERTEX
  8
0
  5
160
 10
-21.0689
 20
75.0987
 30
0.000000
  70
    32
  0
VERTEX
  8
0
  5
161
 10
-20.9567
 20
75.0635
 30
0.000000
  70
    32
  0
VERTEX
  8
0
  5
162
 10
-20.8422
 20
75.0323
 30
0.000000
  70
    32
  0
VERTEX
  8
0
  5
163
 10
-20.7257
 20
75.0051
 30
0.000000
  70
    32
  0
VERTEX
  8
0
  5
164
 10
-20.6075
 20
74.9819
 30
0.000000
  70
    32
  0
VERTEX
  8
0
  5
165
 10
-20.4877
 20
74.9629
 30
0.000000
  70
    32
  0
VERTEX
  8
0
  5
166
 10
-20.3668
 20
74.9481
 30
0.000000
  70
    32
  0
VERTEX
  8
0
  5
167
 10
-20.2450
 20
74.9374
 30
0.000000
  70
    32
  0
VERTEX
  8
0
  5
168
 10
-20.1227
 20
74.9311
 30
0.000000
  70
    32
  0
VERTEX
  8
0
  5
169
 10
-20.0000
 20
74.9289
 30
0.000000
  70
    32
  0
VERTEX
  8
0
  5
16A
 10
-19.8773
 20
74.9311
 30
0.000000
  70
    32
  0
VERTEX
  8
0
  5
16B
 10
-19.7550
 20
74.9374
 30
0.000000
  70
    32
  0
VERTEX
  8
0
  5
16C
 10
-19.6332
 20
74.9481
 30
0.000000
  70
    32
  0
VERTEX
  8
0
  5
16D
 10
-19.5123
 20
74.9629
 30
0.000000
  70
    32
  0
VERTEX
  8
0
  5
16E
 10
-19.3925
 20
74.9819
 30
0.000000
  70
    32
  0
VERTEX
  8
0
  5
16F
 10
-19.2743
 20
75.0051
 30
0.000000
  70
    32
  0
VERTEX
  8
0
  5
170
 10
-19.1578
 20
75.0323
 30
0.000000
  70
    32
  0
VERTEX
  8
0
  5
171
 10
-19.0433
 20
75.0635
 30
0.000000
  70
    32
  0
VERTEX
  8
0
  5
172
 10
-18.9311
 20
75.0987
 30
0.000000
  70
    32
  0
VERTEX
  8
0
  5
173
 10
-18.8215
 20
75.1377
 30
0.000000
  70
    32
  0
VERTEX
  8
0
  5
174
 10
-18.7147
 20
75.1804
 30
0.000000
  70
    32
  0
VERTEX
  8
0
  5
175
 10
-18.6111
 20
75.2269
 30
0.000000
  70
    32
  0
VERTEX
  8
0
  5
176
 10
-18.5108
 20
75.2768
 30
0.000000
  70
    32
  0
VERTEX
  8
0
  5
177
 10
-18.4140
 20
75.3302
 30
0.000000
  70
    32
  0
VERTEX
  8
0
  5
178
 10
-18.3211
 20
75.3869
 30
0.000000
  70
    32
  0
VERTEX
  8
0
  5
179
 10
-18.2322
 20
75.4467
 30
0.000000
  70
    32
  0
VERTEX
  8
0
  5
17A
 10
-18.1476
 20
75.5095
 30
0.000000
  70
    32
  0
VERTEX
  8
0
  5
17B
 10
-18.0675
 20
75.5752
 30
0.000000
  70
    32
  0
VERTEX
  8
0
  5
17C
 10
-17.9920
 20
75.6436
 30
0.000000
  70
    32
  0
VERTEX
  8
0
  5
17D
 10
-17.9213
 20
75.7146
 30
0.000000
  70
    32
  0
VERTEX
  8
0
  5
17E
 10
-17.8557
 20
75.7879
 30
0.000000
  70
    32
  0
VERTEX
  8
0
  5
17F
 10
-17.7952
 20
75.8634
 30
0.000000
  70
    32
  0
VERTEX
  8
0
  5
180
 10
-17.7400
 20
75.9409
 30
0.000000
  70
    32
  0
VERTEX
  8
0
  5
181
 10
-17.6903
 20
76.0202
 30
0.000000
  70
    32
  0
VERTEX
  8
0
  5
182
 10
-17.6461
 20
76.1012
 30
0.000000
  70
    32
  0
VERTEX
  8
0
  5
183
 10
-17.6076
 20
76.1835
 30
0.000000
  70
    32
  0
VERTEX
  8
0
  5
184
 10
-17.5749
 20
76.2672
 30
0.000000
  70
    32
  0
VERTEX
  8
0
  5
185
 10
-17.5480
 20
76.3518
 30
0.000000
  70
    32
  0
VERTEX
  8
0
  5
186
 10
-17.5271
 20
76.4373
 30
0.000000
  70
    32
  0
VERTEX
  8
0
  5
187
 10
-17.5120
 20
76.5234
 30
0.000000
  70
    32
  0
VERTEX
  8
0
  5
188
 10
-17.5030
 20
76.6100
 30
0.000000
  70
    32
  0
VERTEX
  8
0
  5
189
 10
-17.5000
 20
76.6967
 30
0.000000
  70
    32
  0
SEQEND
  8
0
  5
18A
  0
POLYLINE
  5
33
  8
0
 10
-19.999999999999879
 20
89.07106781186576
 30
0.0
 66
     1
 70
     8
  0
VERTEX
  8
0
  5
18B
 10
-20.0000
 20
89.0711
 30
0.000000
  70
    32
  0
VERTEX
  8
0
  5
18C
 10
-20.2453
 20
89.0626
 30
0.000000
  70
    32
  0
VERTEX
  8
0
  5
18D
 10
-20.4901
 20
89.0370
 30
0.000000
  70
    32
  0
VERTEX
  8
0
  5
18E
 10
-20.7337
 20
88.9945
 30
0.000000
  70
    32
  0
VERTEX
  8
0
  5
18F
 10
-20.9755
 20
88.9352
 30
0.000000
  70
    32
  0
VERTEX
  8
0
  5
190
 10
-21.2149
 20
88.8592
 30
0.000000
  70
    32
  0
VERTEX
  8
0
  5
191
 10
-21.4514
 20
88.7666
 30
0.000000
  70
    32
  0
VERTEX
  8
0
  5
192
 10
-21.6844
 20
88.6577
 30
0.000000
  70
    32
  0
VERTEX
  8
0
  5
193
 10
-21.9134
 20
88.5328
 30
0.000000
  70
    32
  0
VERTEX
  8
0
  5
194
 10
-22.1378
 20
88.3922
 30
0.000000
  70
    32
  0
VERTEX
  8
0
  5
195
 10
-22.3570
 20
88.2361
 30
0.000000
  70
    32
  0
VERTEX
  8
0
  5
196
 10
-22.5705
 20
88.0651
 30
0.000000
  70
    32
  0
VERTEX
  8
0
  5
197
 10
-22.7779
 20
87.8794
 30
0.000000
  70
    32
  0
VERTEX
  8
0
  5
198
 10
-22.9785
 20
87.6795
 30
0.000000
  70
    32
  0
VERTEX
  8
0
  5
199
 10
-23.1720
 20
87.4660
 30
0.000000
  70
    32
  0
VERTEX
  8
0
  5
19A
 10
-23.3578
 20
87.2393
 30
0.000000
  70
    32
  0
VERTEX
  8
0
  5
19B
 10
-23.5355
 20
87.0000
 30
0.000000
  70
    32
  0
VERTEX
  8
0
  5
19C
 10
-23.7048
 20
86.7486
 30
0.000000
  70
    32
  0
VERTEX
  8
0
  5
19D
 10
-23.8651
 20
86.4858
 30
0.000000
  70
    32
  0
VERTEX
  8
0
  5
19E
 10
-24.0160
 20
86.2122
 30
0.000000
  70
    32
  0
VERTEX
  8
0
  5
19F
 10
-24.1573
 20
85.9285
 30
0.000000
  70
    32
  0
VERTEX
  8
0
  5
1A0
 10
-24.2886
 20
85.6353
 30
0.000000
  70
    32
  0
VERTEX
  8
0
  5
1A1
 10
-24.4096
 20
85.3333
 30
0.000000
  70
    32
  0
VERTEX
  8
0
  5
1A2
 10
-24.5199
 20
85.0233
 30
0.000000
  70
    32
  0
VERTEX
  8
0
  5
1A3
 10
-24.6194
 20
84.7060
 30
0.000000
  70
    32
  0
VERTEX
  8
0
  5
1A4
 10
-24.7077
 20
84.3822
 30
0.000000
  70
    32
  0
VERTEX
  8
0
  5
1A5
 10
-24.7847
 20
84.0526
 30
0.000000
  70
    32
  0
VERTEX
  8
0
  5
1A6
 10
-24.8502
 20
83.7181
 30
0.000000
  70
    32
  0
VERTEX
  8
0
  5
1A7
 10
-24.9039
 20
83.3795
 30
0.000000
  70
    32
  0
VERTEX
  8
0
  5
1A8
 10
-24.9459
 20
83.0375
 30
0.000000
  70
    32
  0
VERTEX
  8
0
  5
1A9
 10
-24.9759
 20
82.6931
 30
0.000000
  70
    32
  0
VERTEX
  8
0
  5
1AA
 10
-24.9940
 20
82.3470
 30
0.000000
  70
    32
  0
VERTEX
  8
0
  5
1AB
 10
-25.0000
 20
82.0000
 30
0.000000
  70
    32
  0
VERTEX
  8
0
  5
1AC
 10
-24.9940
 20
81.6530
 30
0.000000
  70
    32
  0
VERTEX
  8
0
  5
1AD
 10
-24.9759
 20
81.3069
 30
0.000000
  70
    32
  0
VERTEX
  8
0
  5
1AE
 10
-24.9459
 20
80.9625
 30
0.000000
  70
    32
  0
VERTEX
  8
0
  5
1AF
 10
-24.9039
 20
80.6205
 30
0.000000
  70
    32
  0
VERTEX
  8
0
  5
1B0
 10
-24.8502
 20
80.2819
 30
0.000000
  70
    32
  0
VERTEX
  8
0
  5
1B1
 10
-24.7847
 20
79.9474
 30
0.000000
  70
    32
  0
VERTEX
  8
0
  5
1B2
 10
-24.7077
 20
79.6178
 30
0.000000
  70
    32
  0
VERTEX
  8
0
  5
1B3
 10
-24.6194
 20
79.2940
 30
0.000000
  70
    32
  0
VERTEX
  8
0
  5
1B4
 10
-24.5199
 20
78.9767
 30
0.000000
  70
    32
  0
VERTEX
  8
0
  5
1B5
 10
-24.4096
 20
78.6667
 30
0.000000
  70
    32
  0
VERTEX
  8
0
  5
1B6
 10
-24.2886
 20
78.3647
 30
0.000000
  70
    32
  0
VERTEX
  8
0
  5
1B7
 10
-24.1573
 20
78.0715
 30
0.000000
  70
    32
  0
VERTEX
  8
0
  5
1B8
 10
-24.0160
 20
77.7878
 30
0.000000
  70
    32
  0
VERTEX
  8
0
  5
1B9
 10
-23.8651
 20
77.5142
 30
0.000000
  70
    32
  0
VERTEX
  8
0
  5
1BA
 10
-23.7048
 20
77.2514
 30
0.000000
  70
    32
  0
VERTEX
  8
0
  5
1BB
 10
-23.5355
 20
77.0000
 30
0.000000
  70
    32
  0
VERTEX
  8
0
  5
1BC
 10
-23.3578
 20
76.7607
 30
0.000000
  70
    32
  0
VERTEX
  8
0
  5
1BD
 10
-23.1720
 20
76.5340
 30
0.000000
  70
    32
  0
VERTEX
  8
0
  5
1BE
 10
-22.9785
 20
76.3205
 30
0.000000
  70
    32
  0
VERTEX
  8
0
  5
1BF
 10
-22.7779
 20
76.1206
 30
0.000000
  70
    32
  0
VERTEX
  8
0
  5
1C0
 10
-22.5705
 20
75.9349
 30
0.000000
  70
    32
  0
VERTEX
  8
0
  5
1C1
 10
-22.3570
 20
75.7639
 30
0.000000
  70
    32
  0
VERTEX
  8
0
  5
1C2
 10
-22.1378
 20
75.6078
 30
0.000000
  70
    32
  0
VERTEX
  8
0
  5
1C3
 10
-21.9134
 20
75.4672
 30
0.000000
  70
    32
  0
VERTEX
  8
0
  5
1C4
 10
-21.6844
 20
75.3423
 30
0.000000
  70
    32
  0
VERTEX
  8
0
  5
1C5
 10
-21.4514
 20
75.2334
 30
0.000000
  70
    32
  0
VERTEX
  8
0
  5
1C6
 10
-21.2149
 20
75.1408
 30
0.000000
  70
    32
  0
VERTEX
  8
0
  5
1C7
 10
-20.9755
 20
75.0648
 30
0.000000
  70
    32
  0
VERTEX
  8
0
  5
1C8
 10
-20.7337
 20
75.0055
 30
0.000000
  70
    32
  0
VERTEX
  8
0
  5
1C9
 10
-20.4901
 20
74.9630
 30
0.000000
  70
    32
  0
VERTEX
  8
0
  5
1CA
 10
-20.2453
 20
74.9374
 30
0.000000
  70
    32
  0
VERTEX
  8
0
  5
1CB
 10
-20.0000
 20
74.9289
 30
0.000000
  70
    32
  0
VERTEX
  8
0
  5
1CC
 10
-19.7547
 20
74.9374
 30
0.000000
  70
    32
  0
VERTEX
  8
0
  5
1CD
 10
-19.5099
 20
74.9630
 30
0.000000
  70
    32
  0
VERTEX
  8
0
  5
1CE
 10
-19.2663
 20
75.0055
 30
0.000000
  70
    32
  0
VERTEX
  8
0
  5
1CF
 10
-19.0245
 20
75.0648
 30
0.000000
  70
    32
  0
VERTEX
  8
0
  5
1D0
 10
-18.7851
 20
75.1408
 30
0.000000
  70
    32
  0
VERTEX
  8
0
  5
1D1
 10
-18.5486
 20
75.2334
 30
0.000000
  70
    32
  0
VERTEX
  8
0
  5
1D2
 10
-18.3156
 20
75.3423
 30
0.000000
  70
    32
  0
VERTEX
  8
0
  5
1D3
 10
-18.0866
 20
75.4672
 30
0.000000
  70
    32
  0
VERTEX
  8
0
  5
1D4
 10
-17.8622
 20
75.6078
 30
0.000000
  70
    32
  0
VERTEX
  8
0
  5
1D5
 10
-17.6430
 20
75.7639
 30
0.000000
  70
    32
  0
VERTEX
  8
0
  5
1D6
 10
-17.4295
 20
75.9349
 30
0.000000
  70
    32
  0
VERTEX
  8
0
  5
1D7
 10
-17.2221
 20
76.1206
 30
0.000000
  70
    32
  0
VERTEX
  8
0
  5
1D8
 10
-17.0215
 20
76.3205
 30
0.000000
  70
    32
  0
VERTEX
  8
0
  5
1D9
 10
-16.8280
 20
76.5340
 30
0.000000
  70
    32
  0
VERTEX
  8
0
  5
1DA
 10
-16.6422
 20
76.7607
 30
0.000000
  70
    32
  0
VERTEX
  8
0
  5
1DB
 10
-16.4645
 20
77.0000
 30
0.000000
  70
    32
  0
VERTEX
  8
0
  5
1DC
 10
-16.2952
 20
77.2514
 30
0.000000
  70
    32
  0
VERTEX
  8
0
  5
1DD
 10
-16.1349
 20
77.5142
 30
0.000000
  70
    32
  0
VERTEX
  8
0
  5
1DE
 10
-15.9840
 20
77.7878
 30
0.000000
  70
    32
  0
VERTEX
  8
0
  5
1DF
 10
-15.8427
 20
78.0715
 30
0.000000
  70
    32
  0
VERTEX
  8
0
  5
1E0
 10
-15.7114
 20
78.3647
 30
0.000000
  70
    32
  0
VERTEX
  8
0
  5
1E1
 10
-15.5904
 20
78.6667
 30
0.000000
  70
    32
  0
VERTEX
  8
0
  5
1E2
 10
-15.4801
 20
78.9767
 30
0.000000
  70
    32
  0
VERTEX
  8
0
  5
1E3
 10
-15.3806
 20
79.2940
 30
0.000000
  70
    32
  0
VERTEX
  8
0
  5
1E4
 10
-15.2923
 20
79.6178
 30
0.000000
  70
    32
  0
VERTEX
  8
0
  5
1E5
 10
-15.2153
 20
79.9474
 30
0.000000
  70
    32
  0
VERTEX
  8
0
  5
1E6
 10
-15.1498
 20
80.2819
 30
0.000000
  70
    32
  0
VERTEX
  8
0
  5
1E7
 10
-15.0961
 20
80.6205
 30
0.000000
  70
    32
  0
VERTEX
  8
0
  5
1E8
 10
-15.0541
 20
80.9625
 30
0.000000
  70
    32
  0
VERTEX
  8
0
  5
1E9
 10
-15.0241
 20
81.3069
 30
0.000000
  70
    32
  0
VERTEX
  8
0
  5
1EA
 10
-15.0060
 20
81.6530
 30
0.000000
  70
    32
  0
VERTEX
  8
0
  5
1EB
 10
-15.0000
 20
82.0000
 30
0.000000
  70
    32
  0
VERTEX
  8
0
  5
1EC
 10
-15.0060
 20
82.3470
 30
0.000000
  70
    32
  0
VERTEX
  8
0
  5
1ED
 10
-15.0241
 20
82.6931
 30
0.000000
  70
    32
  0
VERTEX
  8
0
  5
1EE
 10
-15.0541
 20
83.0375
 30
0.000000
  70
    32
  0
VERTEX
  8
0
  5
1EF
 10
-15.0961
 20
83.3795
 30
0.000000
  70
    32
  0
VERTEX
  8
0
  5
1F0
 10
-15.1498
 20
83.7181
 30
0.000000
  70
    32
  0
VERTEX
  8
0
  5
1F1
 10
-15.2153
 20
84.0526
 30
0.000000
  70
    32
  0
VERTEX
  8
0
  5
1F2
 10
-15.2923
 20
84.3822
 30
0.000000
  70
    32
  0
VERTEX
  8
0
  5
1F3
 10
-15.3806
 20
84.7060
 30
0.000000
  70
    32
  0
VERTEX
  8
0
  5
1F4
 10
-15.4801
 20
85.0233
 30
0.000000
  70
    32
  0
VERTEX
  8
0
  5
1F5
 10
-15.5904
 20
85.3333
 30
0.000000
  70
    32
  0
VERTEX
  8
0
  5
1F6
 10
-15.7114
 20
85.6353
 30
0.000000
  70
    32
  0
VERTEX
  8
0
  5
1F7
 10
-15.8427
 20
85.9285
 30
0.000000
  70
    32
  0
VERTEX
  8
0
  5
1F8
 10
-15.9840
 20
86.2122
 30
0.000000
  70
    32
  0
VERTEX
  8
0
  5
1F9
 10
-16.1349
 20
86.4858
 30
0.000000
  70
    32
  0
VERTEX
  8
0
  5
1FA
 10
-16.2952
 20
86.7486
 30
0.000000
  70
    32
  0
VERTEX
  8
0
  5
1FB
 10
-16.4645
 20
87.0000
 30
0.000000
  70
    32
  0
VERTEX
  8
0
  5
1FC
 10
-16.6422
 20
87.2393
 30
0.000000
  70
    32
  0
VERTEX
  8
0
  5
1FD
 10
-16.8280
 20
87.4660
 30
0.000000
  70
    32
  0
VERTEX
  8
0
  5
1FE
 10
-17.0215
 20
87.6795
 30
0.000000
  70
    32
  0
VERTEX
  8
0
  5
1FF
 10
-17.2221
 20
87.8794
 30
0.000000
  70
    32
  0
VERTEX
  8
0
  5
200
 10
-17.4295
 20
88.0651
 30
0.000000
  70
    32
  0
VERTEX
  8
0
  5
201
 10
-17.6430
 20
88.2361
 30
0.000000
  70
    32
  0
VERTEX
  8
0
  5
202
 10
-17.8622
 20
88.3922
 30
0.000000
  70
    32
  0
VERTEX
  8
0
  5
203
 10
-18.0866
 20
88.5328
 30
0.000000
  70
    32
  0
VERTEX
  8
0
  5
204
 10
-18.3156
 20
88.6577
 30
0.000000
  70
    32
  0
VERTEX
  8
0
  5
205
 10
-18.5486
 20
88.7666
 30
0.000000
  70
    32
  0
VERTEX
  8
0
  5
206
 10
-18.7851
 20
88.8592
 30
0.000000
  70
    32
  0
VERTEX
  8
0
  5
207
 10
-19.0245
 20
88.9352
 30
0.000000
  70
    32
  0
VERTEX
  8
0
  5
208
 10
-19.2663
 20
88.9945
 30
0.000000
  70
    32
  0
VERTEX
  8
0
  5
209
 10
-19.5099
 20
89.0370
 30
0.000000
  70
    32
  0
VERTEX
  8
0
  5
20A
 10
-19.7547
 20
89.0626
 30
0.000000
  70
    32
  0
VERTEX
  8
0
  5
20B
 10
-20.0000
 20
89.0711
 30
0.000000
  70
    32
  0
SEQEND
  8
0
  5
20C
  0
POLYLINE
  5
34
  8
0
  6
HIDDEN
 62
     8
 10
-21.441103570184808
 20
75.229000000000312
 30
0.0
 66
     1
 70
     8
  0
VERTEX
  8
0
  5
20D
 10
-21.4411
 20
75.2290
 30
0.000000
  70
    32
  0
VERTEX
  8
0
  5
20E
 10
-21.5319
 20
75.1443
 30
0.000000
  70
    32
  0
VERTEX
  8
0
  5
20F
 10
-21.6202
 20
75.0545
 30
0.000000
  70
    32
  0
VERTEX
  8
0
  5
210
 10
-21.7059
 20
74.9597
 30
0.000000
  70
    32
  0
VERTEX
  8
0
  5
211
 10
-21.7888
 20
74.8601
 30
0.000000
  70
    32
  0
VERTEX
  8
0
  5
212
 10
-21.8688
 20
74.7559
 30
0.000000
  70
    32
  0
VERTEX
  8
0
  5
213
 10
-21.9458
 20
74.6472
 30
0.000000
  70
    32
  0
VERTEX
  8
0
  5
214
 10
-22.0196
 20
74.5342
 30
0.000000
  70
    32
  0
VERTEX
  8
0
  5
215
 10
-22.0902
 20
74.4171
 30
0.000000
  70
    32
  0
VERTEX
  8
0
  5
216
 10
-22.1573
 20
74.2961
 30
0.000000
  70
    32
  0
VERTEX
  8
0
  5
217
 10
-22.2209
 20
74.1714
 30
0.000000
  70
    32
  0
VERTEX
  8
0
  5
218
 10
-22.2810
 20
74.0431
 30
0.000000
  70
    32
  0
VERTEX
  8
0
  5
219
 10
-22.3373
 20
73.9115
 30
0.000000
  70
    32
  0
VERTEX
  8
0
  5
21A
 10
-22.3899
 20
73.7768
 30
0.000000
  70
    32
  0
VERTEX
  8
0
  5
21B
 10
-22.4385
 20
73.6392
 30
0.000000
  70
    32
  0
VERTEX
  8
0
  5
21C
 10
-22.4833
 20
73.4990
 30
0.000000
  70
    32
  0
VERTEX
  8
0
  5
21D
 10
-22.5239
 20
73.3563
 30
0.000000
  70
    32
  0
VERTEX
  8
0
  5
21E
 10
-22.5605
 20
73.2114
 30
0.000000
  70
    32
  0
VERTEX
  8
0
  5
21F
 10
-22.5929
 20
73.0646
 30
0.000000
  70
    32
  0
VERTEX
  8
0
  5
220
 10
-22.6212
 20
72.9160
 30
0.000000
  70
    32
  0
VERTEX
  8
0
  5
221
 10
-22.6451
 20
72.7660
 30
0.000000
  70
    32
  0
VERTEX
  8
0
  5
222
 10
-22.6648
 20
72.6147
 30
0.000000
  70
    32
  0
VERTEX
  8
0
  5
223
 10
-22.6801
 20
72.4624
 30
0.000000
  70
    32
  0
VERTEX
  8
0
  5
224
 10
-22.6911
 20
72.3093
 30
0.000000
  70
    32
  0
VERTEX
  8
0
  5
225
 10
-22.6978
 20
72.1558
 30
0.000000
  70
    32
  0
VERTEX
  8
0
  5
226
 10
-22.7000
 20
72.0020
 30
0.000000
  70
    32
  0
VERTEX
  8
0
  5
227
 10
-22.6979
 20
71.8482
 30
0.000000
  70
    32
  0
VERTEX
  8
0
  5
228
 10
-22.6914
 20
71.6946
 30
0.000000
  70
    32
  0
VERTEX
  8
0
  5
229
 10
-22.6805
 20
71.5416
 30
0.000000
  70
    32
  0
VERTEX
  8
0
  5
22A
 10
-22.6652
 20
71.3893
 30
0.000000
  70
    32
  0
VERTEX
  8
0
  5
22B
 10
-22.6457
 20
71.2379
 30
0.000000
  70
    32
  0
VERTEX
  8
0
  5
22C
 10
-22.6218
 20
71.0878
 30
0.000000
  70
    32
  0
VERTEX
  8
0
  5
22D
 10
-22.5937
 20
70.9392
 30
0.000000
  70
    32
  0
VERTEX
  8
0
  5
22E
 10
-22.5614
 20
70.7923
 30
0.000000
  70
    32
  0
VERTEX
  8
0
  5
22F
 10
-22.5249
 20
70.6474
 30
0.000000
  70
    32
  0
VERTEX
  8
0
  5
230
 10
-22.4844
 20
70.5047
 30
0.000000
  70
    32
  0
VERTEX
  8
0
  5
231
 10
-22.4397
 20
70.3644
 30
0.000000
  70
    32
  0
VERTEX
  8
0
  5
232
 10
-22.3912
 20
70.2267
 30
0.000000
  70
    32
  0
VERTEX
  8
0
  5
233
 10
-22.3387
 20
70.0920
 30
0.000000
  70
    32
  0
VERTEX
  8
0
  5
234
 10
-22.2825
 20
69.9603
 30
0.000000
  70
    32
  0
VERTEX
  8
0
  5
235
 10
-22.2225
 20
69.8319
 30
0.000000
  70
    32
  0
VERTEX
  8
0
  5
236
 10
-22.1590
 20
69.7071
 30
0.000000
  70
    32
  0
VERTEX
  8
0
  5
237
 10
-22.0919
 20
69.5860
 30
0.000000
  70
    32
  0
VERTEX
  8
0
  5
238
 10
-22.0215
 20
69.4688
 30
0.000000
  70
    32
  0
VERTEX
  8
0
  5
239
 10
-21.9477
 20
69.3557
 30
0.000000
  70
    32
  0
VERTEX
  8
0
  5
23A
 10
-21.8709
 20
69.2468
 30
0.000000
  70
    32
  0
VERTEX
  8
0
  5
23B
 10
-21.7909
 20
69.1425
 30
0.000000
  70
    32
  0
VERTEX
  8
0
  5
23C
 10
-21.7081
 20
69.0428
 30
0.000000
  70
    32
  0
VERTEX
  8
0
  5
23D
 10
-21.6225
 20
68.9479
 30
0.000000
  70
    32
  0
VERTEX
  8
0
  5
23E
 10
-21.5342
 20
68.8580
 30
0.000000
  70
    32
  0
VERTEX
  8
0
  5
23F
 10
-21.4435
 20
68.7731
 30
0.000000
  70
    32
  0
VERTEX
  8
0
  5
240
 10
-21.3504
 20
68.6935
 30
0.000000
  70
    32
  0
VERTEX
  8
0
  5
241
 10
-21.2551
 20
68.6193
 30
0.000000
  70
    32
  0
VERTEX
  8
0
  5
242
 10
-21.1578
 20
68.5505
 30
0.000000
  70
    32
  0
VERTEX
  8
0
  5
243
 10
-21.0586
 20
68.4874
 30
0.000000
  70
    32
  0
VERTEX
  8
0
  5
244
 10
-20.9577
 20
68.4299
 30
0.000000
  70
    32
  0
VERTEX
  8
0
  5
245
 10
-20.8553
 20
68.3783
 30
0.000000
  70
    32
  0
VERTEX
  8
0
  5
246
 10
-20.7514
 20
68.3325
 30
0.000000
  70
    32
  0
VERTEX
  8
0
  5
247
 10
-20.6464
 20
68.2927
 30
0.000000
  70
    32
  0
VERTEX
  8
0
  5
248
 10
-20.5402
 20
68.2588
 30
0.000000
  70
    32
  0
VERTEX
  8
0
  5
249
 10
-20.4333
 20
68.2311
 30
0.000000
  70
    32
  0
VERTEX
  8
0
  5
24A
 10
-20.3256
 20
68.2095
 30
0.000000
  70
    32
  0
VERTEX
  8
0
  5
24B
 10
-20.2173
 20
68.1940
 30
0.000000
  70
    32
  0
VERTEX
  8
0
  5
24C
 10
-20.1088
 20
68.1847
 30
0.000000
  70
    32
  0
VERTEX
  8
0
  5
24D
 10
-20.0000
 20
68.1816
 30
0.000000
  70
    32
  0
VERTEX
  8
0
  5
24E
 10
-19.8912
 20
68.1847
 30
0.000000
  70
    32
  0
VERTEX
  8
0
  5
24F
 10
-19.7827
 20
68.1940
 30
0.000000
  70
    32
  0
VERTEX
  8
0
  5
250
 10
-19.6744
 20
68.2095
 30
0.000000
  70
    32
  0
VERTEX
  8
0
  5
251
 10
-19.5667
 20
68.2311
 30
0.000000
  70
    32
  0
VERTEX
  8
0
  5
252
 10
-19.4598
 20
68.2588
 30
0.000000
  70
    32
  0
VERTEX
  8
0
  5
253
 10
-19.3536
 20
68.2927
 30
0.000000
  70
    32
  0
VERTEX
  8
0
  5
254
 10
-19.2486
 20
68.3325
 30
0.000000
  70
    32
  0
VERTEX
  8
0
  5
255
 10
-19.1447
 20
68.3783
 30
0.000000
  70
    32
  0
VERTEX
  8
0
  5
256
 10
-19.0423
 20
68.4299
 30
0.000000
  70
    32
  0
VERTEX
  8
0
  5
257
 10
-18.9414
 20
68.4874
 30
0.000000
  70
    32
  0
VERTEX
  8
0
  5
258
 10
-18.8422
 20
68.5505
 30
0.000000
  70
    32
  0
VERTEX
  8
0
  5
259
 10
-18.7449
 20
68.6193
 30
0.000000
  70
    32
  0
VERTEX
  8
0
  5
25A
 10
-18.6496
 20
68.6935
 30
0.000000
  70
    32
  0
VERTEX
  8
0
  5
25B
 10
-18.5565
 20
68.7731
 30
0.000000
  70
    32
  0
VERTEX
  8
0
  5
25C
 10
-18.4658
 20
68.8580
 30
0.000000
  70
    32
  0
VERTEX
  8
0
  5
25D
 10
-18.3775
 20
68.9479
 30
0.000000
  70
    32
  0
VERTEX
  8
0
  5
25E
 10
-18.2919
 20
69.0428
 30
0.000000
  70
    32
  0
VERTEX
  8
0
  5
25F
 10
-18.2091
 20
69.1425
 30
0.000000
  70
    32
  0
VERTEX
  8
0
  5
260
 10
-18.1291
 20
69.2468
 30
0.000000
  70
    32
  0
VERTEX
  8
0
  5
261
 10
-18.0523
 20
69.3557
 30
0.000000
  70
    32
  0
VERTEX
  8
0
  5
262
 10
-17.9785
 20
69.4688
 30
0.000000
  70
    32
  0
VERTEX
  8
0
  5
263
 10
-17.9081
 20
69.5860
 30
0.000000
  70
    32
  0
VERTEX
  8
0
  5
264
 10
-17.8410
 20
69.7071
 30
0.000000
  70
    32
  0
VERTEX
  8
0
  5
265
 10
-17.7775
 20
69.8319
 30
0.000000
  70
    32
  0
VERTEX
  8
0
  5
266
 10
-17.7175
 20
69.9603
 30
0.000000
  70
    32
  0
VERTEX
  8
0
  5
267
 10
-17.6613
 20
70.0920
 30
0.000000
  70
    32
  0
VERTEX
  8
0
  5
268
 10
-17.6088
 20
70.2267
 30
0.000000
  70
    32
  0
VERTEX
  8
0
  5
269
 10
-17.5603
 20
70.3644
 30
0.000000
  70
    32
  0
VERTEX
  8
0
  5
26A
 10
-17.5156
 20
70.5047
 30
0.000000
  70
    32
  0
VERTEX
  8
0
  5
26B
 10
-17.4751
 20
70.6474
 30
0.000000
  70
    32
  0
VERTEX
  8
0
  5
26C
 10
-17.4386
 20
70.7923
 30
0.000000
  70
    32
  0
VERTEX
  8
0
  5
26D
 10
-17.4063
 20
70.9392
 30
0.000000
  70
    32
  0
VERTEX
  8
0
  5
26E
 10
-17.3782
 20
71.0878
 30
0.000000
  70
    32
  0
VERTEX
  8
0
  5
26F
 10
-17.3543
 20
71.2379
 30
0.000000
  70
    32
  0
VERTEX
  8
0
  5
270
 10
-17.3348
 20
71.3893
 30
0.000000
  70
    32
  0
VERTEX
  8
0
  5
271
 10
-17.3195
 20
71.5416
 30
0.000000
  70
    32
  0
VERTEX
  8
0
  5
272
 10
-17.3086
 20
71.6946
 30
0.000000
  70
    32
  0
VERTEX
  8
0
  5
273
 10
-17.3021
 20
71.8482
 30
0.000000
  70
    32
  0
VERTEX
  8
0
  5
274
 10
-17.3000
 20
72.0020
 30
0.000000
  70
    32
  0
VERTEX
  8
0
  5
275
 10
-17.3022
 20
72.1558
 30
0.000000
  70
    32
  0
VERTEX
  8
0
  5
276
 10
-17.3089
 20
72.3093
 30
0.000000
  70
    32
  0
VERTEX
  8
0
  5
277
 10
-17.3199
 20
72.4624
 30
0.000000
  70
    32
  0
VERTEX
  8
0
  5
278
 10
-17.3352
 20
72.6147
 30
0.000000
  70
    32
  0
VERTEX
  8
0
  5
279
 10
-17.3549
 20
72.7660
 30
0.000000
  70
    32
  0
VERTEX
  8
0
  5
27A
 10
-17.3788
 20
72.9160
 30
0.000000
  70
    32
  0
VERTEX
  8
0
  5
27B
 10
-17.4071
 20
73.0646
 30
0.000000
  70
    32
  0
VERTEX
  8
0
  5
27C
 10
-17.4395
 20
73.2114
 30
0.000000
  70
    32
  0
VERTEX
  8
0
  5
27D
 10
-17.4761
 20
73.3563
 30
0.000000
  70
    32
  0
VERTEX
  8
0
  5
27E
 10
-17.5167
 20
73.4990
 30
0.000000
  70
    32
  0
VERTEX
  8
0
  5
27F
 10
-17.5615
 20
73.6392
 30
0.000000
  70
    32
  0
VERTEX
  8
0
  5
280
 10
-17.6101
 20
73.7768
 30
0.000000
  70
    32
  0
VERTEX
  8
0
  5
281
 10
-17.6627
 20
73.9115
 30
0.000000
  70
    32
  0
VERTEX
  8
0
  5
282
 10
-17.7190
 20
74.0431
 30
0.000000
  70
    32
  0
VERTEX
  8
0
  5
283
 10
-17.7791
 20
74.1714
 30
0.000000
  70
    32
  0
VERTEX
  8
0
  5
284
 10
-17.8427
 20
74.2961
 30
0.000000
  70
    32
  0
VERTEX
  8
0
  5
285
 10
-17.9098
 20
74.4171
 30
0.000000
  70
    32
  0
VERTEX
  8
0
  5
286
 10
-17.9804
 20
74.5342
 30
0.000000
  70
    32
  0
VERTEX
  8
0
  5
287
 10
-18.0542
 20
74.6472
 30
0.000000
  70
    32
  0
VERTEX
  8
0
  5
288
 10
-18.1312
 20
74.7559
 30
0.000000
  70
    32
  0
VERTEX
  8
0
  5
289
 10
-18.2112
 20
74.8601
 30
0.000000
  70
    32
  0
VERTEX
  8
0
  5
28A
 10
-18.2941
 20
74.9597
 30
0.000000
  70
    32
  0
VERTEX
  8
0
  5
28B
 10
-18.3798
 20
75.0545
 30
0.000000
  70
    32
  0
VERTEX
  8
0
  5
28C
 10
-18.4681
 20
75.1443
 30
0.000000
  70
    32
  0
VERTEX
  8
0
  5
28D
 10
-18.5589
 20
75.2290
 30
0.000000
  70
    32
  0
SEQEND
  8
0
  5
28E
  0
CIRCLE
  5
36
  8
0
 10
-0.0309130539383205
 20
75.999522077343272
 30
0.0
 40
5.0
  0
CIRCLE
  5
37
  8
0
 10
-0.0309130539383205
 20
75.999522077343272
 30
0.0
 40
2.7000000000000002
  0
POLYLINE
  5
38
  8
0
  6
HIDDEN
 62
     8
 10
18.558896429815182
 20
75.229000000000312
 30
0.0
 66
     1
 70
     8
  0
VERTEX
  8
0
  5
28F
 10
18.5589
 20
75.2290
 30
0.000000
  70
    32
  0
VERTEX
  8
0
  5
290
 10
18.4681
 20
75.1443
 30
0.000000
  70
    32
  0
VERTEX
  8
0
  5
291
 10
18.3798
 20
75.0545
 30
0.000000
  70
    32
  0
VERTEX
  8
0
  5
292
 10
18.2941
 20
74.9597
 30
0.000000
  70
    32
  0
VERTEX
  8
0
  5
293
 10
18.2112
 20
74.8601
 30
0.000000
  70
    32
  0
VERTEX
  8
0
  5
294
 10
18.1312
 20
74.7559
 30
0.000000
  70
    32
  0
VERTEX
  8
0
  5
295
 10
18.0542
 20
74.6472
 30
0.000000
  70
    32
  0
VERTEX
  8
0
  5
296
 10
17.9804
 20
74.5342
 30
0.000000
  70
    32
  0
VERTEX
  8
0
  5
297
 10
17.9098
 20
74.4171
 30
0.000000
  70
    32
  0
VERTEX
  8
0
  5
298
 10
17.8427
 20
74.2961
 30
0.000000
  70
    32
  0
VERTEX
  8
0
  5
299
 10
17.7791
 20
74.1714
 30
0.000000
  70
    32
  0
VERTEX
  8
0
  5
29A
 10
17.7190
 20
74.0431
 30
0.000000
  70
    32
  0
VERTEX
  8
0
  5
29B
 10
17.6627
 20
73.9115
 30
0.000000
  70
    32
  0
VERTEX
  8
0
  5
29C
 10
17.6101
 20
73.7768
 30
0.000000
  70
    32
  0
VERTEX
  8
0
  5
29D
 10
17.5615
 20
73.6392
 30
0.000000
  70
    32
  0
VERTEX
  8
0
  5
29E
 10
17.5167
 20
73.4990
 30
0.000000
  70
    32
  0
VERTEX
  8
0
  5
29F
 10
17.4761
 20
73.3563
 30
0.000000
  70
    32
  0
VERTEX
  8
0
  5
2A0
 10
17.4395
 20
73.2114
 30
0.000000
  70
    32
  0
VERTEX
  8
0
  5
2A1
 10
17.4071
 20
73.0646
 30
0.000000
  70
    32
  0
VERTEX
  8
0
  5
2A2
 10
17.3788
 20
72.9160
 30
0.000000
  70
    32
  0
VERTEX
  8
0
  5
2A3
 10
17.3549
 20
72.7660
 30
0.000000
  70
    32
  0
VERTEX
  8
0
  5
2A4
 10
17.3352
 20
72.6147
 30
0.000000
  70
    32
  0
VERTEX
  8
0
  5
2A5
 10
17.3199
 20
72.4624
 30
0.000000
  70
    32
  0
VERTEX
  8
0
  5
2A6
 10
17.3089
 20
72.3093
 30
0.000000
  70
    32
  0
VERTEX
  8
0
  5
2A7
 10
17.3022
 20
72.1558
 30
0.000000
  70
    32
  0
VERTEX
  8
0
  5
2A8
 10
17.3000
 20
72.0020
 30
0.000000
  70
    32
  0
VERTEX
  8
0
  5
2A9
 10
17.3021
 20
71.8482
 30
0.000000
  70
    32
  0
VERTEX
  8
0
  5
2AA
 10
17.3086
 20
71.6946
 30
0.000000
  70
    32
  0
VERTEX
  8
0
  5
2AB
 10
17.3195
 20
71.5416
 30
0.000000
  70
    32
  0
VERTEX
  8
0
  5
2AC
 10
17.3348
 20
71.3893
 30
0.000000
  70
    32
  0
VERTEX
  8
0
  5
2AD
 10
17.3543
 20
71.2379
 30
0.000000
  70
    32
  0
VERTEX
  8
0
  5
2AE
 10
17.3782
 20
71.0878
 30
0.000000
  70
    32
  0
VERTEX
  8
0
  5
2AF
 10
17.4063
 20
70.9392
 30
0.000000
  70
    32
  0
VERTEX
  8
0
  5
2B0
 10
17.4386
 20
70.7923
 30
0.000000
  70
    32
  0
VERTEX
  8
0
  5
2B1
 10
17.4751
 20
70.6474
 30
0.000000
  70
    32
  0
VERTEX
  8
0
  5
2B2
 10
17.5156
 20
70.5047
 30
0.000000
  70
    32
  0
VERTEX
  8
0
  5
2B3
 10
17.5603
 20
70.3644
 30
0.000000
  70
    32
  0
VERTEX
  8
0
  5
2B4
 10
17.6088
 20
70.2267
 30
0.000000
  70
    32
  0
VERTEX
  8
0
  5
2B5
 10
17.6613
 20
70.0920
 30
0.000000
  70
    32
  0
VERTEX
  8
0
  5
2B6
 10
17.7175
 20
69.9603
 30
0.000000
  70
    32
  0
VERTEX
  8
0
  5
2B7
 10
17.7775
 20
69.8319
 30
0.000000
  70
    32
  0
VERTEX
  8
0
  5
2B8
 10
17.8410
 20
69.7071
 30
0.000000
  70
    32
  0
VERTEX
  8
0
  5
2B9
 10
17.9081
 20
69.5860
 30
0.000000
  70
    32
  0
VERTEX
  8
0
  5
2BA
 10
17.9785
 20
69.4688
 30
0.000000
  70
    32
  0
VERTEX
  8
0
  5
2BB
 10
18.0523
 20
69.3557
 30
0.000000
  70
    32
  0
VERTEX
  8
0
  5
2BC
 10
18.1291
 20
69.2468
 30
0.000000
  70
    32
  0
VERTEX
  8
0
  5
2BD
 10
18.2091
 20
69.1425
 30
0.000000
  70
    32
  0
VERTEX
  8
0
  5
2BE
 10
18.2919
 20
69.0428
 30
0.000000
  70
    32
  0
VERTEX
  8
0
  5
2BF
 10
18.3775
 20
68.9479
 30
0.000000
  70
    32
  0
VERTEX
  8
0
  5
2C0
 10
18.4658
 20
68.8580
 30
0.000000
  70
    32
  0
VERTEX
  8
0
  5
2C1
 10
18.5565
 20
68.7731
 30
0.000000
  70
    32
  0
VERTEX
  8
0
  5
2C2
 10
18.6496
 20
68.6935
 30
0.000000
  70
    32
  0
VERTEX
  8
0
  5
2C3
 10
18.7449
 20
68.6193
 30
0.000000
  70
    32
  0
VERTEX
  8
0
  5
2C4
 10
18.8422
 20
68.5505
 30
0.000000
  70
    32
  0
VERTEX
  8
0
  5
2C5
 10
18.9414
 20
68.4874
 30
0.000000
  70
    32
  0
VERTEX
  8
0
  5
2C6
 10
19.0423
 20
68.4299
 30
0.000000
  70
    32
  0
VERTEX
  8
0
  5
2C7
 10
19.1447
 20
68.3783
 30
0.000000
  70
    32
  0
VERTEX
  8
0
  5
2C8
 10
19.2486
 20
68.3325
 30
0.000000
  70
    32
  0
VERTEX
  8
0
  5
2C9
 10
19.3536
 20
68.2927
 30
0.000000
  70
    32
  0
VERTEX
  8
0
  5
2CA
 10
19.4598
 20
68.2588
 30
0.000000
  70
    32
  0
VERTEX
  8
0
  5
2CB
 10
19.5667
 20
68.2311
 30
0.000000
  70
    32
  0
VERTEX
  8
0
  5
2CC
 10
19.6744
 20
68.2095
 30
0.000000
  70
    32
  0
VERTEX
  8
0
  5
2CD
 10
19.7827
 20
68.1940
 30
0.000000
  70
    32
  0
VERTEX
  8
0
  5
2CE
 10
19.8912
 20
68.1847
 30
0.000000
  70
    32
  0
VERTEX
  8
0
  5
2CF
 10
20.0000
 20
68.1816
 30
0.000000
  70
    32
  0
VERTEX
  8
0
  5
2D0
 10
20.1088
 20
68.1847
 30
0.000000
  70
    32
  0
VERTEX
  8
0
  5
2D1
 10
20.2173
 20
68.1940
 30
0.000000
  70
    32
  0
VERTEX
  8
0
  5
2D2
 10
20.3256
 20
68.2095
 30
0.000000
  70
    32
  0
VERTEX
  8
0
  5
2D3
 10
20.4333
 20
68.2311
 30
0.000000
  70
    32
  0
VERTEX
  8
0
  5
2D4
 10
20.5402
 20
68.2588
 30
0.000000
  70
    32
  0
VERTEX
  8
0
  5
2D5
 10
20.6464
 20
68.2927
 30
0.000000
  70
    32
  0
VERTEX
  8
0
  5
2D6
 10
20.7514
 20
68.3325
 30
0.000000
  70
    32
  0
VERTEX
  8
0
  5
2D7
 10
20.8553
 20
68.3783
 30
0.000000
  70
    32
  0
VERTEX
  8
0
  5
2D8
 10
20.9577
 20
68.4299
 30
0.000000
  70
    32
  0
VERTEX
  8
0
  5
2D9
 10
21.0586
 20
68.4874
 30
0.000000
  70
    32
  0
VERTEX
  8
0
  5
2DA
 10
21.1578
 20
68.5505
 30
0.000000
  70
    32
  0
VERTEX
  8
0
  5
2DB
 10
21.2551
 20
68.6193
 30
0.000000
  70
    32
  0
VERTEX
  8
0
  5
2DC
 10
21.3504
 20
68.6935
 30
0.000000
  70
    32
  0
VERTEX
  8
0
  5
2DD
 10
21.4435
 20
68.7731
 30
0.000000
  70
    32
  0
VERTEX
  8
0
  5
2DE
 10
21.5342
 20
68.8580
 30
0.000000
  70
    32
  0
VERTEX
  8
0
  5
2DF
 10
21.6225
 20
68.9479
 30
0.000000
  70
    32
  0
VERTEX
  8
0
  5
2E0
 10
21.7081
 20
69.0428
 30
0.000000
  70
    32
  0
VERTEX
  8
0
  5
2E1
 10
21.7909
 20
69.1425
 30
0.000000
  70
    32
  0
VERTEX
  8
0
  5
2E2
 10
21.8709
 20
69.2468
 30
0.000000
  70
    32
  0
VERTEX
  8
0
  5
2E3
 10
21.9477
 20
69.3557
 30
0.000000
  70
    32
  0
VERTEX
  8
0
  5
2E4
 10
22.0215
 20
69.4688
 30
0.000000
  70
    32
  0
VERTEX
  8
0
  5
2E5
 10
22.0919
 20
69.5860
 30
0.000000
  70
    32
  0
VERTEX
  8
0
  5
2E6
 10
22.1590
 20
69.7071
 30
0.000000
  70
    32
  0
VERTEX
  8
0
  5
2E7
 10
22.2225
 20
69.8319
 30
0.000000
  70
    32
  0
VERTEX
  8
0
  5
2E8
 10
22.2825
 20
69.9603
 30
0.000000
  70
    32
  0
VERTEX
  8
0
  5
2E9
 10
22.3387
 20
70.0920
 30
0.000000
  70
    32
  0
VERTEX
  8
0
  5
2EA
 10
22.3912
 20
70.2267
 30
0.000000
  70
    32
  0
VERTEX
  8
0
  5
2EB
 10
22.4397
 20
70.3644
 30
0.000000
  70
    32
  0
VERTEX
  8
0
  5
2EC
 10
22.4844
 20
70.5047
 30
0.000000
  70
    32
  0
VERTEX
  8
0
  5
2ED
 10
22.5249
 20
70.6474
 30
0.000000
  70
    32
  0
VERTEX
  8
0
  5
2EE
 10
22.5614
 20
70.7923
 30
0.000000
  70
    32
  0
VERTEX
  8
0
  5
2EF
 10
22.5937
 20
70.9392
 30
0.000000
  70
    32
  0
VERTEX
  8
0
  5
2F0
 10
22.6218
 20
71.0878
 30
0.000000
  70
    32
  0
VERTEX
  8
0
  5
2F1
 10
22.6457
 20
71.2379
 30
0.000000
  70
    32
  0
VERTEX
  8
0
  5
2F2
 10
22.6652
 20
71.3893
 30
0.000000
  70
    32
  0
VERTEX
  8
0
  5
2F3
 10
22.6805
 20
71.5416
 30
0.000000
  70
    32
  0
VERTEX
  8
0
  5
2F4
 10
22.6914
 20
71.6946
 30
0.000000
  70
    32
  0
VERTEX
  8
0
  5
2F5
 10
22.6979
 20
71.8482
 30
0.000000
  70
    32
  0
VERTEX
  8
0
  5
2F6
 10
22.7000
 20
72.0020
 30
0.000000
  70
    32
  0
VERTEX
  8
0
  5
2F7
 10
22.6978
 20
72.1558
 30
0.000000
  70
    32
  0
VERTEX
  8
0
  5
2F8
 10
22.6911
 20
72.3093
 30
0.000000
  70
    32
  0
VERTEX
  8
0
  5
2F9
 10
22.6801
 20
72.4624
 30
0.000000
  70
    32
  0
VERTEX
  8
0
  5
2FA
 10
22.6648
 20
72.6147
 30
0.000000
  70
    32
  0
VERTEX
  8
0
  5
2FB
 10
22.6451
 20
72.7660
 30
0.000000
  70
    32
  0
VERTEX
  8
0
  5
2FC
 10
22.6212
 20
72.9160
 30
0.000000
  70
    32
  0
VERTEX
  8
0
  5
2FD
 10
22.5929
 20
73.0646
 30
0.000000
  70
    32
  0
VERTEX
  8
0
  5
2FE
 10
22.5605
 20
73.2114
 30
0.000000
  70
    32
  0
VERTEX
  8
0
  5
2FF
 10
22.5239
 20
73.3563
 30
0.000000
  70
    32
  0
VERTEX
  8
0
  5
300
 10
22.4833
 20
73.4990
 30
0.000000
  70
    32
  0
VERTEX
  8
0
  5
301
 10
22.4385
 20
73.6392
 30
0.000000
  70
    32
  0
VERTEX
  8
0
  5
302
 10
22.3899
 20
73.7768
 30
0.000000
  70
    32
  0
VERTEX
  8
0
  5
303
 10
22.3373
 20
73.9115
 30
0.000000
  70
    32
  0
VERTEX
  8
0
  5
304
 10
22.2810
 20
74.0431
 30
0.000000
  70
    32
  0
VERTEX
  8
0
  5
305
 10
22.2209
 20
74.1714
 30
0.000000
  70
    32
  0
VERTEX
  8
0
  5
306
 10
22.1573
 20
74.2961
 30
0.000000
  70
    32
  0
VERTEX
  8
0
  5
307
 10
22.0902
 20
74.4171
 30
0.000000
  70
    32
  0
VERTEX
  8
0
  5
308
 10
22.0196
 20
74.5342
 30
0.000000
  70
    32
  0
VERTEX
  8
0
  5
309
 10
21.9458
 20
74.6472
 30
0.000000
  70
    32
  0
VERTEX
  8
0
  5
30A
 10
21.8688
 20
74.7559
 30
0.000000
  70
    32
  0
VERTEX
  8
0
  5
30B
 10
21.7888
 20
74.8601
 30
0.000000
  70
    32
  0
VERTEX
  8
0
  5
30C
 10
21.7059
 20
74.9597
 30
0.000000
  70
    32
  0
VERTEX
  8
0
  5
30D
 10
21.6202
 20
75.0545
 30
0.000000
  70
    32
  0
VERTEX
  8
0
  5
30E
 10
21.5319
 20
75.1443
 30
0.000000
  70
    32
  0
VERTEX
  8
0
  5
30F
 10
21.4411
 20
75.2290
 30
0.000000
  70
    32
  0
SEQEND
  8
0
  5
310
  0
POLYLINE
  5
39
  8
0
 10
20.00000000000011
 20
89.07106781186576
 30
0.0
 66
     1
 70
     8
  0
VERTEX
  8
0
  5
311
 10
20.0000
 20
89.0711
 30
0.000000
  70
    32
  0
VERTEX
  8
0
  5
312
 10
19.7547
 20
89.0626
 30
0.000000
  70
    32
  0
VERTEX
  8
0
  5
313
 10
19.5099
 20
89.0370
 30
0.000000
  70
    32
  0
VERTEX
  8
0
  5
314
 10
19.2663
 20
88.9945
 30
0.000000
  70
    32
  0
VERTEX
  8
0
  5
315
 10
19.0245
 20
88.9352
 30
0.000000
  70
    32
  0
VERTEX
  8
0
  5
316
 10
18.7851
 20
88.8592
 30
0.000000
  70
    32
  0
VERTEX
  8
0
  5
317
 10
18.5486
 20
88.7666
 30
0.000000
  70
    32
  0
VERTEX
  8
0
  5
318
 10
18.3156
 20
88.6577
 30
0.000000
  70
    32
  0
VERTEX
  8
0
  5
319
 10
18.0866
 20
88.5328
 30
0.000000
  70
    32
  0
VERTEX
  8
0
  5
31A
 10
17.8622
 20
88.3922
 30
0.000000
  70
    32
  0
VERTEX
  8
0
  5
31B
 10
17.6430
 20
88.2361
 30
0.000000
  70
    32
  0
VERTEX
  8
0
  5
31C
 10
17.4295
 20
88.0651
 30
0.000000
  70
    32
  0
VERTEX
  8
0
  5
31D
 10
17.2221
 20
87.8794
 30
0.000000
  70
    32
  0
VERTEX
  8
0
  5
31E
 10
17.0215
 20
87.6795
 30
0.000000
  70
    32
  0
VERTEX
  8
0
  5
31F
 10
16.8280
 20
87.4660
 30
0.000000
  70
    32
  0
VERTEX
  8
0
  5
320
 10
16.6422
 20
87.2393
 30
0.000000
  70
    32
  0
VERTEX
  8
0
  5
321
 10
16.4645
 20
87.0000
 30
0.000000
  70
    32
  0
VERTEX
  8
0
  5
322
 10
16.2952
 20
86.7486
 30
0.000000
  70
    32
  0
VERTEX
  8
0
  5
323
 10
16.1349
 20
86.4858
 30
0.000000
  70
    32
  0
VERTEX
  8
0
  5
324
 10
15.9840
 20
86.2122
 30
0.000000
  70
    32
  0
VERTEX
  8
0
  5
325
 10
15.8427
 20
85.9285
 30
0.000000
  70
    32
  0
VERTEX
  8
0
  5
326
 10
15.7114
 20
85.6353
 30
0.000000
  70
    32
  0
VERTEX
  8
0
  5
327
 10
15.5904
 20
85.3333
 30
0.000000
  70
    32
  0
VERTEX
  8
0
  5
328
 10
15.4801
 20
85.0233
 30
0.000000
  70
    32
  0
VERTEX
  8
0
  5
329
 10
15.3806
 20
84.7060
 30
0.000000
  70
    32
  0
VERTEX
  8
0
  5
32A
 10
15.2923
 20
84.3822
 30
0.000000
  70
    32
  0
VERTEX
  8
0
  5
32B
 10
15.2153
 20
84.0526
 30
0.000000
  70
    32
  0
VERTEX
  8
0
  5
32C
 10
15.1498
 20
83.7181
 30
0.000000
  70
    32
  0
VERTEX
  8
0
  5
32D
 10
15.0961
 20
83.3795
 30
0.000000
  70
    32
  0
VERTEX
  8
0
  5
32E
 10
15.0541
 20
83.0375
 30
0.000000
  70
    32
  0
VERTEX
  8
0
  5
32F
 10
15.0241
 20
82.6931
 30
0.000000
  70
    32
  0
VERTEX
  8
0
  5
330
 10
15.0060
 20
82.3470
 30
0.000000
  70
    32
  0
VERTEX
  8
0
  5
331
 10
15.0000
 20
82.0000
 30
0.000000
  70
    32
  0
VERTEX
  8
0
  5
332
 10
15.0060
 20
81.6530
 30
0.000000
  70
    32
  0
VERTEX
  8
0
  5
333
 10
15.0241
 20
81.3069
 30
0.000000
  70
    32
  0
VERTEX
  8
0
  5
334
 10
15.0541
 20
80.9625
 30
0.000000
  70
    32
  0
VERTEX
  8
0
  5
335
 10
15.0961
 20
80.6205
 30
0.000000
  70
    32
  0
VERTEX
  8
0
  5
336
 10
15.1498
 20
80.2819
 30
0.000000
  70
    32
  0
VERTEX
  8
0
  5
337
 10
15.2153
 20
79.9474
 30
0.000000
  70
    32
  0
VERTEX
  8
0
  5
338
 10
15.2923
 20
79.6178
 30
0.000000
  70
    32
  0
VERTEX
  8
0
  5
339
 10
15.3806
 20
79.2940
 30
0.000000
  70
    32
  0
VERTEX
  8
0
  5
33A
 10
15.4801
 20
78.9767
 30
0.000000
  70
    32
  0
VERTEX
  8
0
  5
33B
 10
15.5904
 20
78.6667
 30
0.000000
  70
    32
  0
VERTEX
  8
0
  5
33C
 10
15.7114
 20
78.3647
 30
0.000000
  70
    32
  0
VERTEX
  8
0
  5
33D
 10
15.8427
 20
78.0715
 30
0.000000
  70
    32
  0
VERTEX
  8
0
  5
33E
 10
15.9840
 20
77.7878
 30
0.000000
  70
    32
  0
VERTEX
  8
0
  5
33F
 10
16.1349
 20
77.5142
 30
0.000000
  70
    32
  0
VERTEX
  8
0
  5
340
 10
16.2952
 20
77.2514
 30
0.000000
  70
    32
  0
VERTEX
  8
0
  5
341
 10
16.4645
 20
77.0000
 30
0.000000
  70
    32
  0
VERTEX
  8
0
  5
342
 10
16.6422
 20
76.7607
 30
0.000000
  70
    32
  0
VERTEX
  8
0
  5
343
 10
16.8280
 20
76.5340
 30
0.000000
  70
    32
  0
VERTEX
  8
0
  5
344
 10
17.0215
 20
76.3205
 30
0.000000
  70
    32
  0
VERTEX
  8
0
  5
345
 10
17.2221
 20
76.1206
 30
0.000000
  70
    32
  0
VERTEX
  8
0
  5
346
 10
17.4295
 20
75.9349
 30
0.000000
  70
    32
  0
VERTEX
  8
0
  5
347
 10
17.6430
 20
75.7639
 30
0.000000
  70
    32
  0
VERTEX
  8
0
  5
348
 10
17.8622
 20
75.6078
 30
0.000000
  70
    32
  0
VERTEX
  8
0
  5
349
 10
18.0866
 20
75.4672
 30
0.000000
  70
    32
  0
VERTEX
  8
0
  5
34A
 10
18.3156
 20
75.3423
 30
0.000000
  70
    32
  0
VERTEX
  8
0
  5
34B
 10
18.5486
 20
75.2334
 30
0.000000
  70
    32
  0
VERTEX
  8
0
  5
34C
 10
18.7851
 20
75.1408
 30
0.000000
  70
    32
  0
VERTEX
  8
0
  5
34D
 10
19.0245
 20
75.0648
 30
0.000000
  70
    32
  0
VERTEX
  8
0
  5
34E
 10
19.2663
 20
75.0055
 30
0.000000
  70
    32
  0
VERTEX
  8
0
  5
34F
 10
19.5099
 20
74.9630
 30
0.000000
  70
    32
  0
VERTEX
  8
0
  5
350
 10
19.7547
 20
74.9374
 30
0.000000
  70
    32
  0
VERTEX
  8
0
  5
351
 10
20.0000
 20
74.9289
 30
0.000000
  70
    32
  0
VERTEX
  8
0
  5
352
 10
20.2453
 20
74.9374
 30
0.000000
  70
    32
  0
VERTEX
  8
0
  5
353
 10
20.4901
 20
74.9630
 30
0.000000
  70
    32
  0
VERTEX
  8
0
  5
354
 10
20.7337
 20
75.0055
 30
0.000000
  70
    32
  0
VERTEX
  8
0
  5
355
 10
20.9755
 20
75.0648
 30
0.000000
  70
    32
  0
VERTEX
  8
0
  5
356
 10
21.2149
 20
75.1408
 30
0.000000
  70
    32
  0
VERTEX
  8
0
  5
357
 10
21.4514
 20
75.2334
 30
0.000000
  70
    32
  0
VERTEX
  8
0
  5
358
 10
21.6844
 20
75.3423
 30
0.000000
  70
    32
  0
VERTEX
  8
0
  5
359
 10
21.9134
 20
75.4672
 30
0.000000
  70
    32
  0
VERTEX
  8
0
  5
35A
 10
22.1378
 20
75.6078
 30
0.000000
  70
    32
  0
VERTEX
  8
0
  5
35B
 10
22.3570
 20
75.7639
 30
0.000000
  70
    32
  0
VERTEX
  8
0
  5
35C
 10
22.5705
 20
75.9349
 30
0.000000
  70
    32
  0
VERTEX
  8
0
  5
35D
 10
22.7779
 20
76.1206
 30
0.000000
  70
    32
  0
VERTEX
  8
0
  5
35E
 10
22.9785
 20
76.3205
 30
0.000000
  70
    32
  0
VERTEX
  8
0
  5
35F
 10
23.1720
 20
76.5340
 30
0.000000
  70
    32
  0
VERTEX
  8
0
  5
360
 10
23.3578
 20
76.7607
 30
0.000000
  70
    32
  0
VERTEX
  8
0
  5
361
 10
23.5355
 20
77.0000
 30
0.000000
  70
    32
  0
VERTEX
  8
0
  5
362
 10
23.7048
 20
77.2514
 30
0.000000
  70
    32
  0
VERTEX
  8
0
  5
363
 10
23.8651
 20
77.5142
 30
0.000000
  70
    32
  0
VERTEX
  8
0
  5
364
 10
24.0160
 20
77.7878
 30
0.000000
  70
    32
  0
VERTEX
  8
0
  5
365
 10
24.1573
 20
78.0715
 30
0.000000
  70
    32
  0
VERTEX
  8
0
  5
366
 10
24.2886
 20
78.3647
 30
0.000000
  70
    32
  0
VERTEX
  8
0
  5
367
 10
24.4096
 20
78.6667
 30
0.000000
  70
    32
  0
VERTEX
  8
0
  5
368
 10
24.5199
 20
78.9767
 30
0.000000
  70
    32
  0
VERTEX
  8
0
  5
369
 10
24.6194
 20
79.2940
 30
0.000000
  70
    32
  0
VERTEX
  8
0
  5
36A
 10
24.7077
 20
79.6178
 30
0.000000
  70
    32
  0
VERTEX
  8
0
  5
36B
 10
24.7847
 20
79.9474
 30
0.000000
  70
    32
  0
VERTEX
  8
0
  5
36C
 10
24.8502
 20
80.2819
 30
0.000000
  70
    32
  0
VERTEX
  8
0
  5
36D
 10
24.9039
 20
80.6205
 30
0.000000
  70
    32
  0
VERTEX
  8
0
  5
36E
 10
24.9459
 20
80.9625
 30
0.000000
  70
    32
  0
VERTEX
  8
0
  5
36F
 10
24.9759
 20
81.3069
 30
0.000000
  70
    32
  0
VERTEX
  8
0
  5
370
 10
24.9940
 20
81.6530
 30
0.000000
  70
    32
  0
VERTEX
  8
0
  5
371
 10
25.0000
 20
82.0000
 30
0.000000
  70
    32
  0
VERTEX
  8
0
  5
372
 10
24.9940
 20
82.3470
 30
0.000000
  70
    32
  0
VERTEX
  8
0
  5
373
 10
24.9759
 20
82.6931
 30
0.000000
  70
    32
  0
VERTEX
  8
0
  5
374
 10
24.9459
 20
83.0375
 30
0.000000
  70
    32
  0
VERTEX
  8
0
  5
375
 10
24.9039
 20
83.3795
 30
0.000000
  70
    32
  0
VERTEX
  8
0
  5
376
 10
24.8502
 20
83.7181
 30
0.000000
  70
    32
  0
VERTEX
  8
0
  5
377
 10
24.7847
 20
84.0526
 30
0.000000
  70
    32
  0
VERTEX
  8
0
  5
378
 10
24.7077
 20
84.3822
 30
0.000000
  70
    32
  0
VERTEX
  8
0
  5
379
 10
24.6194
 20
84.7060
 30
0.000000
  70
    32
  0
VERTEX
  8
0
  5
37A
 10
24.5199
 20
85.0233
 30
0.000000
  70
    32
  0
VERTEX
  8
0
  5
37B
 10
24.4096
 20
85.3333
 30
0.000000
  70
    32
  0
VERTEX
  8
0
  5
37C
 10
24.2886
 20
85.6353
 30
0.000000
  70
    32
  0
VERTEX
  8
0
  5
37D
 10
24.1573
 20
85.9285
 30
0.000000
  70
    32
  0
VERTEX
  8
0
  5
37E
 10
24.0160
 20
86.2122
 30
0.000000
  70
    32
  0
VERTEX
  8
0
  5
37F
 10
23.8651
 20
86.4858
 30
0.000000
  70
    32
  0
VERTEX
  8
0
  5
380
 10
23.7048
 20
86.7486
 30
0.000000
  70
    32
  0
VERTEX
  8
0
  5
381
 10
23.5355
 20
87.0000
 30
0.000000
  70
    32
  0
VERTEX
  8
0
  5
382
 10
23.3578
 20
87.2393
 30
0.000000
  70
    32
  0
VERTEX
  8
0
  5
383
 10
23.1720
 20
87.4660
 30
0.000000
  70
    32
  0
VERTEX
  8
0
  5
384
 10
22.9785
 20
87.6795
 30
0.000000
  70
    32
  0
VERTEX
  8
0
  5
385
 10
22.7779
 20
87.8794
 30
0.000000
  70
    32
  0
VERTEX
  8
0
  5
386
 10
22.5705
 20
88.0651
 30
0.000000
  70
    32
  0
VERTEX
  8
0
  5
387
 10
22.3570
 20
88.2361
 30
0.000000
  70
    32
  0
VERTEX
  8
0
  5
388
 10
22.1378
 20
88.3922
 30
0.000000
  70
    32
  0
VERTEX
  8
0
  5
389
 10
21.9134
 20
88.5328
 30
0.000000
  70
    32
  0
VERTEX
  8
0
  5
38A
 10
21.6844
 20
88.6577
 30
0.000000
  70
    32
  0
VERTEX
  8
0
  5
38B
 10
21.4514
 20
88.7666
 30
0.000000
  70
    32
  0
VERTEX
  8
0
  5
38C
 10
21.2149
 20
88.8592
 30
0.000000
  70
    32
  0
VERTEX
  8
0
  5
38D
 10
20.9755
 20
88.9352
 30
0.000000
  70
    32
  0
VERTEX
  8
0
  5
38E
 10
20.7337
 20
88.9945
 30
0.000000
  70
    32
  0
VERTEX
  8
0
  5
38F
 10
20.4901
 20
89.0370
 30
0.000000
  70
    32
  0
VERTEX
  8
0
  5
390
 10
20.2453
 20
89.0626
 30
0.000000
  70
    32
  0
VERTEX
  8
0
  5
391
 10
20.0000
 20
89.0711
 30
0.000000
  70
    32
  0
SEQEND
  8
0
  5
392
  0
POLYLINE
  5
3A
  8
0
 10
22.50000000000011
 20
76.696699141101107
 30
0.0
 66
     1
 70
     8
  0
VERTEX
  8
0
  5
393
 10
22.5000
 20
76.6967
 30
0.000000
  70
    32
  0
VERTEX
  8
0
  5
394
 10
22.4970
 20
76.7834
 30
0.000000
  70
    32
  0
VERTEX
  8
0
  5
395
 10
22.4880
 20
76.8700
 30
0.000000
  70
    32
  0
VERTEX
  8
0
  5
396
 10
22.4729
 20
76.9561
 30
0.000000
  70
    32
  0
VERTEX
  8
0
  5
397
 10
22.4520
 20
77.0416
 30
0.000000
  70
    32
  0
VERTEX
  8
0
  5
398
 10
22.4251
 20
77.1262
 30
0.000000
  70
    32
  0
VERTEX
  8
0
  5
399
 10
22.3924
 20
77.2099
 30
0.000000
  70
    32
  0
VERTEX
  8
0
  5
39A
 10
22.3539
 20
77.2922
 30
0.000000
  70
    32
  0
VERTEX
  8
0
  5
39B
 10
22.3097
 20
77.3732
 30
0.000000
  70
    32
  0
VERTEX
  8
0
  5
39C
 10
22.2600
 20
77.4525
 30
0.000000
  70
    32
  0
VERTEX
  8
0
  5
39D
 10
22.2048
 20
77.5300
 30
0.000000
  70
    32
  0
VERTEX
  8
0
  5
39E
 10
22.1443
 20
77.6055
 30
0.000000
  70
    32
  0
VERTEX
  8
0
  5
39F
 10
22.0787
 20
77.6788
 30
0.000000
  70
    32
  0
VERTEX
  8
0
  5
3A0
 10
22.0080
 20
77.7498
 30
0.000000
  70
    32
  0
VERTEX
  8
0
  5
3A1
 10
21.9325
 20
77.8182
 30
0.000000
  70
    32
  0
VERTEX
  8
0
  5
3A2
 10
21.8524
 20
77.8839
 30
0.000000
  70
    32
  0
VERTEX
  8
0
  5
3A3
 10
21.7678
 20
77.9467
 30
0.000000
  70
    32
  0
VERTEX
  8
0
  5
3A4
 10
21.6789
 20
78.0065
 30
0.000000
  70
    32
  0
VERTEX
  8
0
  5
3A5
 10
21.5860
 20
78.0632
 30
0.000000
  70
    32
  0
VERTEX
  8
0
  5
3A6
 10
21.4892
 20
78.1166
 30
0.000000
  70
    32
  0
VERTEX
  8
0
  5
3A7
 10
21.3889
 20
78.1665
 30
0.000000
  70
    32
  0
VERTEX
  8
0
  5
3A8
 10
21.2853
 20
78.2130
 30
0.000000
  70
    32
  0
VERTEX
  8
0
  5
3A9
 10
21.1785
 20
78.2557
 30
0.000000
  70
    32
  0
VERTEX
  8
0
  5
3AA
 10
21.0689
 20
78.2947
 30
0.000000
  70
    32
  0
VERTEX
  8
0
  5
3AB
 10
20.9567
 20
78.3299
 30
0.000000
  70
    32
  0
VERTEX
  8
0
  5
3AC
 10
20.8422
 20
78.3611
 30
0.000000
  70
    32
  0
VERTEX
  8
0
  5
3AD
 10
20.7257
 20
78.3883
 30
0.000000
  70
    32
  0
VERTEX
  8
0
  5
3AE
 10
20.6075
 20
78.4115
 30
0.000000
  70
    32
  0
VERTEX
  8
0
  5
3AF
 10
20.4877
 20
78.4305
 30
0.000000
  70
    32
  0
VERTEX
  8
0
  5
3B0
 10
20.3668
 20
78.4453
 30
0.000000
  70
    32
  0
VERTEX
  8
0
  5
3B1
 10
20.2450
 20
78.4560
 30
0.000000
  70
    32
  0
VERTEX
  8
0
  5
3B2
 10
20.1227
 20
78.4623
 30
0.000000
  70
    32
  0
VERTEX
  8
0
  5
3B3
 10
20.0000
 20
78.4645
 30
0.000000
  70
    32
  0
VERTEX
  8
0
  5
3B4
 10
19.8773
 20
78.4623
 30
0.000000
  70
    32
  0
VERTEX
  8
0
  5
3B5
 10
19.7550
 20
78.4560
 30
0.000000
  70
    32
  0
VERTEX
  8
0
  5
3B6
 10
19.6332
 20
78.4453
 30
0.000000
  70
    32
  0
VERTEX
  8
0
  5
3B7
 10
19.5123
 20
78.4305
 30
0.000000
  70
    32
  0
VERTEX
  8
0
  5
3B8
 10
19.3925
 20
78.4115
 30
0.000000
  70
    32
  0
VERTEX
  8
0
  5
3B9
 10
19.2743
 20
78.3883
 30
0.000000
  70
    32
  0
VERTEX
  8
0
  5
3BA
 10
19.1578
 20
78.3611
 30
0.000000
  70
    32
  0
VERTEX
  8
0
  5
3BB
 10
19.0433
 20
78.3299
 30
0.000000
  70
    32
  0
VERTEX
  8
0
  5
3BC
 10
18.9311
 20
78.2947
 30
0.000000
  70
    32
  0
VERTEX
  8
0
  5
3BD
 10
18.8215
 20
78.2557
 30
0.000000
  70
    32
  0
VERTEX
  8
0
  5
3BE
 10
18.7147
 20
78.2130
 30
0.000000
  70
    32
  0
VERTEX
  8
0
  5
3BF
 10
18.6111
 20
78.1665
 30
0.000000
  70
    32
  0
VERTEX
  8
0
  5
3C0
 10
18.5108
 20
78.1166
 30
0.000000
  70
    32
  0
VERTEX
  8
0
  5
3C1
 10
18.4140
 20
78.0632
 30
0.000000
  70
    32
  0
VERTEX
  8
0
  5
3C2
 10
18.3211
 20
78.0065
 30
0.000000
  70
    32
  0
VERTEX
  8
0
  5
3C3
 10
18.2322
 20
77.9467
 30
0.000000
  70
    32
  0
VERTEX
  8
0
  5
3C4
 10
18.1476
 20
77.8839
 30
0.000000
  70
    32
  0
VERTEX
  8
0
  5
3C5
 10
18.0675
 20
77.8182
 30
0.000000
  70
    32
  0
VERTEX
  8
0
  5
3C6
 10
17.9920
 20
77.7498
 30
0.000000
  70
    32
  0
VERTEX
  8
0
  5
3C7
 10
17.9213
 20
77.6788
 30
0.000000
  70
    32
  0
VERTEX
  8
0
  5
3C8
 10
17.8557
 20
77.6055
 30
0.000000
  70
    32
  0
VERTEX
  8
0
  5
3C9
 10
17.7952
 20
77.5300
 30
0.000000
  70
    32
  0
VERTEX
  8
0
  5
3CA
 10
17.7400
 20
77.4525
 30
0.000000
  70
    32
  0
VERTEX
  8
0
  5
3CB
 10
17.6903
 20
77.3732
 30
0.000000
  70
    32
  0
VERTEX
  8
0
  5
3CC
 10
17.6461
 20
77.2922
 30
0.000000
  70
    32
  0
VERTEX
  8
0
  5
3CD
 10
17.6076
 20
77.2099
 30
0.000000
  70
    32
  0
VERTEX
  8
0
  5
3CE
 10
17.5749
 20
77.1262
 30
0.000000
  70
    32
  0
VERTEX
  8
0
  5
3CF
 10
17.5480
 20
77.0416
 30
0.000000
  70
    32
  0
VERTEX
  8
0
  5
3D0
 10
17.5271
 20
76.9561
 30
0.000000
  70
    32
  0
VERTEX
  8
0
  5
3D1
 10
17.5120
 20
76.8700
 30
0.000000
  70
    32
  0
VERTEX
  8
0
  5
3D2
 10
17.5030
 20
76.7834
 30
0.000000
  70
    32
  0
VERTEX
  8
0
  5
3D3
 10
17.5000
 20
76.6967
 30
0.000000
  70
    32
  0
VERTEX
  8
0
  5
3D4
 10
17.5030
 20
76.6100
 30
0.000000
  70
    32
  0
VERTEX
  8
0
  5
3D5
 10
17.5120
 20
76.5234
 30
0.000000
  70
    32
  0
VERTEX
  8
0
  5
3D6
 10
17.5271
 20
76.4373
 30
0.000000
  70
    32
  0
VERTEX
  8
0
  5
3D7
 10
17.5480
 20
76.3518
 30
0.000000
  70
    32
  0
VERTEX
  8
0
  5
3D8
 10
17.5749
 20
76.2672
 30
0.000000
  70
    32
  0
VERTEX
  8
0
  5
3D9
 10
17.6076
 20
76.1835
 30
0.000000
  70
    32
  0
VERTEX
  8
0
  5
3DA
 10
17.6461
 20
76.1012
 30
0.000000
  70
    32
  0
VERTEX
  8
0
  5
3DB
 10
17.6903
 20
76.0202
 30
0.000000
  70
    32
  0
VERTEX
  8
0
  5
3DC
 10
17.7400
 20
75.9409
 30
0.000000
  70
    32
  0
VERTEX
  8
0
  5
3DD
 10
17.7952
 20
75.8634
 30
0.000000
  70
    32
  0
VERTEX
  8
0
  5
3DE
 10
17.8557
 20
75.7879
 30
0.000000
  70
    32
  0
VERTEX
  8
0
  5
3DF
 10
17.9213
 20
75.7146
 30
0.000000
  70
    32
  0
VERTEX
  8
0
  5
3E0
 10
17.9920
 20
75.6436
 30
0.000000
  70
    32
  0
VERTEX
  8
0
  5
3E1
 10
18.0675
 20
75.5752
 30
0.000000
  70
    32
  0
VERTEX
  8
0
  5
3E2
 10
18.1476
 20
75.5095
 30
0.000000
  70
    32
  0
VERTEX
  8
0
  5
3E3
 10
18.2322
 20
75.4467
 30
0.000000
  70
    32
  0
VERTEX
  8
0
  5
3E4
 10
18.3211
 20
75.3869
 30
0.000000
  70
    32
  0
VERTEX
  8
0
  5
3E5
 10
18.4140
 20
75.3302
 30
0.000000
  70
    32
  0
VERTEX
  8
0
  5
3E6
 10
18.5108
 20
75.2768
 30
0.000000
  70
    32
  0
VERTEX
  8
0
  5
3E7
 10
18.6111
 20
75.2269
 30
0.000000
  70
    32
  0
VERTEX
  8
0
  5
3E8
 10
18.7147
 20
75.1804
 30
0.000000
  70
    32
  0
VERTEX
  8
0
  5
3E9
 10
18.8215
 20
75.1377
 30
0.000000
  70
    32
  0
VERTEX
  8
0
  5
3EA
 10
18.9311
 20
75.0987
 30
0.000000
  70
    32
  0
VERTEX
  8
0
  5
3EB
 10
19.0433
 20
75.0635
 30
0.000000
  70
    32
  0
VERTEX
  8
0
  5
3EC
 10
19.1578
 20
75.0323
 30
0.000000
  70
    32
  0
VERTEX
  8
0
  5
3ED
 10
19.2743
 20
75.0051
 30
0.000000
  70
    32
  0
VERTEX
  8
0
  5
3EE
 10
19.3925
 20
74.9819
 30
0.000000
  70
    32
  0
VERTEX
  8
0
  5
3EF
 10
19.5123
 20
74.9629
 30
0.000000
  70
    32
  0
VERTEX
  8
0
  5
3F0
 10
19.6332
 20
74.9481
 30
0.000000
  70
    32
  0
VERTEX
  8
0
  5
3F1
 10
19.7550
 20
74.9374
 30
0.000000
  70
    32
  0
VERTEX
  8
0
  5
3F2
 10
19.8773
 20
74.9311
 30
0.000000
  70
    32
  0
VERTEX
  8
0
  5
3F3
 10
20.0000
 20
74.9289
 30
0.000000
  70
    32
  0
VERTEX
  8
0
  5
3F4
 10
20.1227
 20
74.9311
 30
0.000000
  70
    32
  0
VERTEX
  8
0
  5
3F5
 10
20.2450
 20
74.9374
 30
0.000000
  70
    32
  0
VERTEX
  8
0
  5
3F6
 10
20.3668
 20
74.9481
 30
0.000000
  70
    32
  0
VERTEX
  8
0
  5
3F7
 10
20.4877
 20
74.9629
 30
0.000000
  70
    32
  0
VERTEX
  8
0
  5
3F8
 10
20.6075
 20
74.9819
 30
0.000000
  70
    32
  0
VERTEX
  8
0
  5
3F9
 10
20.7257
 20
75.0051
 30
0.000000
  70
    32
  0
VERTEX
  8
0
  5
3FA
 10
20.8422
 20
75.0323
 30
0.000000
  70
    32
  0
VERTEX
  8
0
  5
3FB
 10
20.9567
 20
75.0635
 30
0.000000
  70
    32
  0
VERTEX
  8
0
  5
3FC
 10
21.0689
 20
75.0987
 30
0.000000
  70
    32
  0
VERTEX
  8
0
  5
3FD
 10
21.1785
 20
75.1377
 30
0.000000
  70
    32
  0
VERTEX
  8
0
  5
3FE
 10
21.2853
 20
75.1804
 30
0.000000
  70
    32
  0
VERTEX
  8
0
  5
3FF
 10
21.3889
 20
75.2269
 30
0.000000
  70
    32
  0
VERTEX
  8
0
  5
400
 10
21.4892
 20
75.2768
 30
0.000000
  70
    32
  0
VERTEX
  8
0
  5
401
 10
21.5860
 20
75.3302
 30
0.000000
  70
    32
  0
VERTEX
  8
0
  5
402
 10
21.6789
 20
75.3869
 30
0.000000
  70
    32
  0
VERTEX
  8
0
  5
403
 10
21.7678
 20
75.4467
 30
0.000000
  70
    32
  0
VERTEX
  8
0
  5
404
 10
21.8524
 20
75.5095
 30
0.000000
  70
    32
  0
VERTEX
  8
0
  5
405
 10
21.9325
 20
75.5752
 30
0.000000
  70
    32
  0
VERTEX
  8
0
  5
406
 10
22.0080
 20
75.6436
 30
0.000000
  70
    32
  0
VERTEX
  8
0
  5
407
 10
22.0787
 20
75.7146
 30
0.000000
  70
    32
  0
VERTEX
  8
0
  5
408
 10
22.1443
 20
75.7879
 30
0.000000
  70
    32
  0
VERTEX
  8
0
  5
409
 10
22.2048
 20
75.8634
 30
0.000000
  70
    32
  0
VERTEX
  8
0
  5
40A
 10
22.2600
 20
75.9409
 30
0.000000
  70
    32
  0
VERTEX
  8
0
  5
40B
 10
22.3097
 20
76.0202
 30
0.000000
  70
    32
  0
VERTEX
  8
0
  5
40C
 10
22.3539
 20
76.1012
 30
0.000000
  70
    32
  0
VERTEX
  8
0
  5
40D
 10
22.3924
 20
76.1835
 30
0.000000
  70
    32
  0
VERTEX
  8
0
  5
40E
 10
22.4251
 20
76.2672
 30
0.000000
  70
    32
  0
VERTEX
  8
0
  5
40F
 10
22.4520
 20
76.3518
 30
0.000000
  70
    32
  0
VERTEX
  8
0
  5
410
 10
22.4729
 20
76.4373
 30
0.000000
  70
    32
  0
VERTEX
  8
0
  5
411
 10
22.4880
 20
76.5234
 30
0.000000
  70
    32
  0
VERTEX
  8
0
  5
412
 10
22.4970
 20
76.6100
 30
0.000000
  70
    32
  0
VERTEX
  8
0
  5
413
 10
22.5000
 20
76.6967
 30
0.000000
  70
    32
  0
SEQEND
  8
0
  5
414
  0
POLYLINE
  5
3B
  8
0
 10
24.714045207910313
 20
79.642977396045154
 30
0.0
 66
     1
 70
     8
  0
VERTEX
  8
0
  5
415
 10
24.7140
 20
79.6430
 30
0.000000
  70
    32
  0
VERTEX
  8
0
  5
416
 10
24.6811
 20
79.7069
 30
0.000000
  70
    32
  0
VERTEX
  8
0
  5
417
 10
24.6465
 20
79.7703
 30
0.000000
  70
    32
  0
VERTEX
  8
0
  5
418
 10
24.6101
 20
79.8332
 30
0.000000
  70
    32
  0
VERTEX
  8
0
  5
419
 10
24.5720
 20
79.8957
 30
0.000000
  70
    32
  0
VERTEX
  8
0
  5
41A
 10
24.5322
 20
79.9576
 30
0.000000
  70
    32
  0
VERTEX
  8
0
  5
41B
 10
24.4908
 20
80.0190
 30
0.000000
  70
    32
  0
VERTEX
  8
0
  5
41C
 10
24.4477
 20
80.0797
 30
0.000000
  70
    32
  0
VERTEX
  8
0
  5
41D
 10
24.4029
 20
80.1399
 30
0.000000
  70
    32
  0
VERTEX
  8
0
  5
41E
 10
24.3565
 20
80.1995
 30
0.000000
  70
    32
  0
VERTEX
  8
0
  5
41F
 10
24.3085
 20
80.2584
 30
0.000000
  70
    32
  0
VERTEX
  8
0
  5
420
 10
24.2589
 20
80.3167
 30
0.000000
  70
    32
  0
VERTEX
  8
0
  5
421
 10
24.2078
 20
80.3743
 30
0.000000
  70
    32
  0
VERTEX
  8
0
  5
422
 10
24.1550
 20
80.4311
 30
0.000000
  70
    32
  0
VERTEX
  8
0
  5
423
 10
24.1008
 20
80.4873
 30
0.000000
  70
    32
  0
VERTEX
  8
0
  5
424
 10
24.0450
 20
80.5427
 30
0.000000
  70
    32
  0
VERTEX
  8
0
  5
425
 10
23.9877
 20
80.5973
 30
0.000000
  70
    32
  0
VERTEX
  8
0
  5
426
 10
23.9290
 20
80.6511
 30
0.000000
  70
    32
  0
VERTEX
  8
0
  5
427
 10
23.8688
 20
80.7042
 30
0.000000
  70
    32
  0
VERTEX
  8
0
  5
428
 10
23.8072
 20
80.7564
 30
0.000000
  70
    32
  0
VERTEX
  8
0
  5
429
 10
23.7441
 20
80.8077
 30
0.000000
  70
    32
  0
VERTEX
  8
0
  5
42A
 10
23.6797
 20
80.8582
 30
0.000000
  70
    32
  0
VERTEX
  8
0
  5
42B
 10
23.6139
 20
80.9078
 30
0.000000
  70
    32
  0
VERTEX
  8
0
  5
42C
 10
23.5468
 20
80.9565
 30
0.000000
  70
    32
  0
VERTEX
  8
0
  5
42D
 10
23.4783
 20
81.0043
 30
0.000000
  70
    32
  0
VERTEX
  8
0
  5
42E
 10
23.4086
 20
81.0511
 30
0.000000
  70
    32
  0
VERTEX
  8
0
  5
42F
 10
23.3376
 20
81.0970
 30
0.000000
  70
    32
  0
VERTEX
  8
0
  5
430
 10
23.2654
 20
81.1419
 30
0.000000
  70
    32
  0
VERTEX
  8
0
  5
431
 10
23.1920
 20
81.1858
 30
0.000000
  70
    32
  0
VERTEX
  8
0
  5
432
 10
23.1174
 20
81.2287
 30
0.000000
  70
    32
  0
VERTEX
  8
0
  5
433
 10
23.0416
 20
81.2706
 30
0.000000
  70
    32
  0
VERTEX
  8
0
  5
434
 10
22.9647
 20
81.3114
 30
0.000000
  70
    32
  0
VERTEX
  8
0
  5
435
 10
22.8868
 20
81.3512
 30
0.000000
  70
    32
  0
VERTEX
  8
0
  5
436
 10
22.8077
 20
81.3899
 30
0.000000
  70
    32
  0
VERTEX
  8
0
  5
437
 10
22.7276
 20
81.4276
 30
0.000000
  70
    32
  0
VERTEX
  8
0
  5
438
 10
22.6465
 20
81.4641
 30
0.000000
  70
    32
  0
VERTEX
  8
0
  5
439
 10
22.5644
 20
81.4996
 30
0.000000
  70
    32
  0
VERTEX
  8
0
  5
43A
 10
22.4814
 20
81.5339
 30
0.000000
  70
    32
  0
VERTEX
  8
0
  5
43B
 10
22.3975
 20
81.5671
 30
0.000000
  70
    32
  0
VERTEX
  8
0
  5
43C
 10
22.3126
 20
81.5991
 30
0.000000
  70
    32
  0
VERTEX
  8
0
  5
43D
 10
22.2269
 20
81.6300
 30
0.000000
  70
    32
  0
VERTEX
  8
0
  5
43E
 10
22.1404
 20
81.6597
 30
0.000000
  70
    32
  0
VERTEX
  8
0
  5
43F
 10
22.0531
 20
81.6882
 30
0.000000
  70
    32
  0
VERTEX
  8
0
  5
440
 10
21.9651
 20
81.7155
 30
0.000000
  70
    32
  0
VERTEX
  8
0
  5
441
 10
21.8763
 20
81.7416
 30
0.000000
  70
    32
  0
VERTEX
  8
0
  5
442
 10
21.7868
 20
81.7665
 30
0.000000
  70
    32
  0
VERTEX
  8
0
  5
443
 10
21.6967
 20
81.7902
 30
0.000000
  70
    32
  0
VERTEX
  8
0
  5
444
 10
21.6059
 20
81.8127
 30
0.000000
  70
    32
  0
VERTEX
  8
0
  5
445
 10
21.5145
 20
81.8339
 30
0.000000
  70
    32
  0
VERTEX
  8
0
  5
446
 10
21.4226
 20
81.8539
 30
0.000000
  70
    32
  0
VERTEX
  8
0
  5
447
 10
21.3302
 20
81.8726
 30
0.000000
  70
    32
  0
VERTEX
  8
0
  5
448
 10
21.2372
 20
81.8901
 30
0.000000
  70
    32
  0
VERTEX
  8
0
  5
449
 10
21.1438
 20
81.9062
 30
0.000000
  70
    32
  0
VERTEX
  8
0
  5
44A
 10
21.0500
 20
81.9212
 30
0.000000
  70
    32
  0
VERTEX
  8
0
  5
44B
 10
20.9558
 20
81.9348
 30
0.000000
  70
    32
  0
VERTEX
  8
0
  5
44C
 10
20.8612
 20
81.9472
 30
0.000000
  70
    32
  0
VERTEX
  8
0
  5
44D
 10
20.7663
 20
81.9582
 30
0.000000
  70
    32
  0
VERTEX
  8
0
  5
44E
 10
20.6711
 20
81.9680
 30
0.000000
  70
    32
  0
VERTEX
  8
0
  5
44F
 10
20.5757
 20
81.9765
 30
0.000000
  70
    32
  0
VERTEX
  8
0
  5
450
 10
20.4801
 20
81.9837
 30
0.000000
  70
    32
  0
VERTEX
  8
0
  5
451
 10
20.3843
 20
81.9895
 30
0.000000
  70
    32
  0
VERTEX
  8
0
  5
452
 10
20.2883
 20
81.9941
 30
0.000000
  70
    32
  0
VERTEX
  8
0
  5
453
 10
20.1923
 20
81.9974
 30
0.000000
  70
    32
  0
VERTEX
  8
0
  5
454
 10
20.0962
 20
81.9993
 30
0.000000
  70
    32
  0
VERTEX
  8
0
  5
455
 10
20.0000
 20
82.0000
 30
0.000000
  70
    32
  0
VERTEX
  8
0
  5
456
 10
19.9038
 20
81.9993
 30
0.000000
  70
    32
  0
VERTEX
  8
0
  5
457
 10
19.8077
 20
81.9974
 30
0.000000
  70
    32
  0
VERTEX
  8
0
  5
458
 10
19.7117
 20
81.9941
 30
0.000000
  70
    32
  0
VERTEX
  8
0
  5
459
 10
19.6157
 20
81.9895
 30
0.000000
  70
    32
  0
VERTEX
  8
0
  5
45A
 10
19.5199
 20
81.9837
 30
0.000000
  70
    32
  0
VERTEX
  8
0
  5
45B
 10
19.4243
 20
81.9765
 30
0.000000
  70
    32
  0
VERTEX
  8
0
  5
45C
 10
19.3289
 20
81.9680
 30
0.000000
  70
    32
  0
VERTEX
  8
0
  5
45D
 10
19.2337
 20
81.9582
 30
0.000000
  70
    32
  0
VERTEX
  8
0
  5
45E
 10
19.1388
 20
81.9472
 30
0.000000
  70
    32
  0
VERTEX
  8
0
  5
45F
 10
19.0442
 20
81.9348
 30
0.000000
  70
    32
  0
VERTEX
  8
0
  5
460
 10
18.9500
 20
81.9212
 30
0.000000
  70
    32
  0
VERTEX
  8
0
  5
461
 10
18.8562
 20
81.9062
 30
0.000000
  70
    32
  0
VERTEX
  8
0
  5
462
 10
18.7628
 20
81.8901
 30
0.000000
  70
    32
  0
VERTEX
  8
0
  5
463
 10
18.6698
 20
81.8726
 30
0.000000
  70
    32
  0
VERTEX
  8
0
  5
464
 10
18.5774
 20
81.8539
 30
0.000000
  70
    32
  0
VERTEX
  8
0
  5
465
 10
18.4855
 20
81.8339
 30
0.000000
  70
    32
  0
VERTEX
  8
0
  5
466
 10
18.3941
 20
81.8127
 30
0.000000
  70
    32
  0
VERTEX
  8
0
  5
467
 10
18.3033
 20
81.7902
 30
0.000000
  70
    32
  0
VERTEX
  8
0
  5
468
 10
18.2132
 20
81.7665
 30
0.000000
  70
    32
  0
VERTEX
  8
0
  5
469
 10
18.1237
 20
81.7416
 30
0.000000
  70
    32
  0
VERTEX
  8
0
  5
46A
 10
18.0349
 20
81.7155
 30
0.000000
  70
    32
  0
VERTEX
  8
0
  5
46B
 10
17.9469
 20
81.6882
 30
0.000000
  70
    32
  0
VERTEX
  8
0
  5
46C
 10
17.8596
 20
81.6597
 30
0.000000
  70
    32
  0
VERTEX
  8
0
  5
46D
 10
17.7731
 20
81.6300
 30
0.000000
  70
    32
  0
VERTEX
  8
0
  5
46E
 10
17.6874
 20
81.5991
 30
0.000000
  70
    32
  0
VERTEX
  8
0
  5
46F
 10
17.6025
 20
81.5671
 30
0.000000
  70
    32
  0
VERTEX
  8
0
  5
470
 10
17.5186
 20
81.5339
 30
0.000000
  70
    32
  0
VERTEX
  8
0
  5
471
 10
17.4356
 20
81.4996
 30
0.000000
  70
    32
  0
VERTEX
  8
0
  5
472
 10
17.3535
 20
81.4641
 30
0.000000
  70
    32
  0
VERTEX
  8
0
  5
473
 10
17.2724
 20
81.4276
 30
0.000000
  70
    32
  0
VERTEX
  8
0
  5
474
 10
17.1923
 20
81.3899
 30
0.000000
  70
    32
  0
VERTEX
  8
0
  5
475
 10
17.1132
 20
81.3512
 30
0.000000
  70
    32
  0
VERTEX
  8
0
  5
476
 10
17.0353
 20
81.3114
 30
0.000000
  70
    32
  0
VERTEX
  8
0
  5
477
 10
16.9584
 20
81.2706
 30
0.000000
  70
    32
  0
VERTEX
  8
0
  5
478
 10
16.8826
 20
81.2287
 30
0.000000
  70
    32
  0
VERTEX
  8
0
  5
479
 10
16.8080
 20
81.1858
 30
0.000000
  70
    32
  0
VERTEX
  8
0
  5
47A
 10
16.7346
 20
81.1419
 30
0.000000
  70
    32
  0
VERTEX
  8
0
  5
47B
 10
16.6624
 20
81.0970
 30
0.000000
  70
    32
  0
VERTEX
  8
0
  5
47C
 10
16.5914
 20
81.0511
 30
0.000000
  70
    32
  0
VERTEX
  8
0
  5
47D
 10
16.5217
 20
81.0043
 30
0.000000
  70
    32
  0
VERTEX
  8
0
  5
47E
 10
16.4532
 20
80.9565
 30
0.000000
  70
    32
  0
VERTEX
  8
0
  5
47F
 10
16.3861
 20
80.9078
 30
0.000000
  70
    32
  0
VERTEX
  8
0
  5
480
 10
16.3203
 20
80.8582
 30
0.000000
  70
    32
  0
VERTEX
  8
0
  5
481
 10
16.2559
 20
80.8077
 30
0.000000
  70
    32
  0
VERTEX
  8
0
  5
482
 10
16.1928
 20
80.7564
 30
0.000000
  70
    32
  0
VERTEX
  8
0
  5
483
 10
16.1312
 20
80.7042
 30
0.000000
  70
    32
  0
VERTEX
  8
0
  5
484
 10
16.0710
 20
80.6511
 30
0.000000
  70
    32
  0
VERTEX
  8
0
  5
485
 10
16.0123
 20
80.5973
 30
0.000000
  70
    32
  0
VERTEX
  8
0
  5
486
 10
15.9550
 20
80.5427
 30
0.000000
  70
    32
  0
VERTEX
  8
0
  5
487
 10
15.8992
 20
80.4873
 30
0.000000
  70
    32
  0
VERTEX
  8
0
  5
488
 10
15.8450
 20
80.4311
 30
0.000000
  70
    32
  0
VERTEX
  8
0
  5
489
 10
15.7922
 20
80.3743
 30
0.000000
  70
    32
  0
VERTEX
  8
0
  5
48A
 10
15.7411
 20
80.3167
 30
0.000000
  70
    32
  0
VERTEX
  8
0
  5
48B
 10
15.6915
 20
80.2584
 30
0.000000
  70
    32
  0
VERTEX
  8
0
  5
48C
 10
15.6435
 20
80.1995
 30
0.000000
  70
    32
  0
VERTEX
  8
0
  5
48D
 10
15.5971
 20
80.1399
 30
0.000000
  70
    32
  0
VERTEX
  8
0
  5
48E
 10
15.5523
 20
80.0797
 30
0.000000
  70
    32
  0
VERTEX
  8
0
  5
48F
 10
15.5092
 20
80.0190
 30
0.000000
  70
    32
  0
VERTEX
  8
0
  5
490
 10
15.4678
 20
79.9576
 30
0.000000
  70
    32
  0
VERTEX
  8
0
  5
491
 10
15.4280
 20
79.8957
 30
0.000000
  70
    32
  0
VERTEX
  8
0
  5
492
 10
15.3899
 20
79.8332
 30
0.000000
  70
    32
  0
VERTEX
  8
0
  5
493
 10
15.3535
 20
79.7703
 30
0.000000
  70
    32
  0
VERTEX
  8
0
  5
494
 10
15.3189
 20
79.7069
 30
0.000000
  70
    32
  0
VERTEX
  8
0
  5
495
 10
15.2860
 20
79.6430
 30
0.000000
  70
    32
  0
SEQEND
  8
0
  5
496
  0
LINE
  5
3C
  8
0
 10
30.00000000000011
 20
90.000000000000227
 30
0.0
 11
-29.99999999999989
 21
90.000000000000455
 31
0.0
  0
LINE
  5
3D
  8
0
 10
29.99999999999989
 20
22.839324117149548
 30
0.0
 11
30.00000000000011
 21
90.000000000000227
 31
0.0
  0
POLYLINE
  5
3E
  8
0
  6
HIDDEN
 62
     8
 10
-21.441103570184808
 20
40.229000000000326
 30
0.0
 66
     1
 70
     8
  0
VERTEX
  8
0
  5
497
 10
-21.4411
 20
40.2290
 30
0.000000
  70
    32
  0
VERTEX
  8
0
  5
498
 10
-21.5319
 20
40.1443
 30
0.000000
  70
    32
  0
VERTEX
  8
0
  5
499
 10
-21.6202
 20
40.0545
 30
0.000000
  70
    32
  0
VERTEX
  8
0
  5
49A
 10
-21.7059
 20
39.9597
 30
0.000000
  70
    32
  0
VERTEX
  8
0
  5
49B
 10
-21.7888
 20
39.8601
 30
0.000000
  70
    32
  0
VERTEX
  8
0
  5
49C
 10
-21.8688
 20
39.7559
 30
0.000000
  70
    32
  0
VERTEX
  8
0
  5
49D
 10
-21.9458
 20
39.6472
 30
0.000000
  70
    32
  0
VERTEX
  8
0
  5
49E
 10
-22.0196
 20
39.5342
 30
0.000000
  70
    32
  0
VERTEX
  8
0
  5
49F
 10
-22.0902
 20
39.4171
 30
0.000000
  70
    32
  0
VERTEX
  8
0
  5
4A0
 10
-22.1573
 20
39.2961
 30
0.000000
  70
    32
  0
VERTEX
  8
0
  5
4A1
 10
-22.2209
 20
39.1714
 30
0.000000
  70
    32
  0
VERTEX
  8
0
  5
4A2
 10
-22.2810
 20
39.0431
 30
0.000000
  70
    32
  0
VERTEX
  8
0
  5
4A3
 10
-22.3373
 20
38.9115
 30
0.000000
  70
    32
  0
VERTEX
  8
0
  5
4A4
 10
-22.3899
 20
38.7768
 30
0.000000
  70
    32
  0
VERTEX
  8
0
  5
4A5
 10
-22.4385
 20
38.6392
 30
0.000000
  70
    32
  0
VERTEX
  8
0
  5
4A6
 10
-22.4833
 20
38.4990
 30
0.000000
  70
    32
  0
VERTEX
  8
0
  5
4A7
 10
-22.5239
 20
38.3563
 30
0.000000
  70
    32
  0
VERTEX
  8
0
  5
4A8
 10
-22.5605
 20
38.2114
 30
0.000000
  70
    32
  0
VERTEX
  8
0
  5
4A9
 10
-22.5929
 20
38.0646
 30
0.000000
  70
    32
  0
VERTEX
  8
0
  5
4AA
 10
-22.6212
 20
37.9160
 30
0.000000
  70
    32
  0
VERTEX
  8
0
  5
4AB
 10
-22.6451
 20
37.7660
 30
0.000000
  70
    32
  0
VERTEX
  8
0
  5
4AC
 10
-22.6648
 20
37.6147
 30
0.000000
  70
    32
  0
VERTEX
  8
0
  5
4AD
 10
-22.6801
 20
37.4624
 30
0.000000
  70
    32
  0
VERTEX
  8
0
  5
4AE
 10
-22.6911
 20
37.3093
 30
0.000000
  70
    32
  0
VERTEX
  8
0
  5
4AF
 10
-22.6978
 20
37.1558
 30
0.000000
  70
    32
  0
VERTEX
  8
0
  5
4B0
 10
-22.7000
 20
37.0020
 30
0.000000
  70
    32
  0
VERTEX
  8
0
  5
4B1
 10
-22.6979
 20
36.8482
 30
0.000000
  70
    32
  0
VERTEX
  8
0
  5
4B2
 10
-22.6914
 20
36.6946
 30
0.000000
  70
    32
  0
VERTEX
  8
0
  5
4B3
 10
-22.6805
 20
36.5416
 30
0.000000
  70
    32
  0
VERTEX
  8
0
  5
4B4
 10
-22.6652
 20
36.3893
 30
0.000000
  70
    32
  0
VERTEX
  8
0
  5
4B5
 10
-22.6457
 20
36.2379
 30
0.000000
  70
    32
  0
VERTEX
  8
0
  5
4B6
 10
-22.6218
 20
36.0878
 30
0.000000
  70
    32
  0
VERTEX
  8
0
  5
4B7
 10
-22.5937
 20
35.9392
 30
0.000000
  70
    32
  0
VERTEX
  8
0
  5
4B8
 10
-22.5614
 20
35.7923
 30
0.000000
  70
    32
  0
VERTEX
  8
0
  5
4B9
 10
-22.5249
 20
35.6474
 30
0.000000
  70
    32
  0
VERTEX
  8
0
  5
4BA
 10
-22.4844
 20
35.5047
 30
0.000000
  70
    32
  0
VERTEX
  8
0
  5
4BB
 10
-22.4397
 20
35.3644
 30
0.000000
  70
    32
  0
VERTEX
  8
0
  5
4BC
 10
-22.3912
 20
35.2267
 30
0.000000
  70
    32
  0
VERTEX
  8
0
  5
4BD
 10
-22.3387
 20
35.0920
 30
0.000000
  70
    32
  0
VERTEX
  8
0
  5
4BE
 10
-22.2825
 20
34.9603
 30
0.000000
  70
    32
  0
VERTEX
  8
0
  5
4BF
 10
-22.2225
 20
34.8319
 30
0.000000
  70
    32
  0
VERTEX
  8
0
  5
4C0
 10
-22.1590
 20
34.7071
 30
0.000000
  70
    32
  0
VERTEX
  8
0
  5
4C1
 10
-22.0919
 20
34.5860
 30
0.000000
  70
    32
  0
VERTEX
  8
0
  5
4C2
 10
-22.0215
 20
34.4688
 30
0.000000
  70
    32
  0
VERTEX
  8
0
  5
4C3
 10
-21.9477
 20
34.3557
 30
0.000000
  70
    32
  0
VERTEX
  8
0
  5
4C4
 10
-21.8709
 20
34.2468
 30
0.000000
  70
    32
  0
VERTEX
  8
0
  5
4C5
 10
-21.7909
 20
34.1425
 30
0.000000
  70
    32
  0
VERTEX
  8
0
  5
4C6
 10
-21.7081
 20
34.0428
 30
0.000000
  70
    32
  0
VERTEX
  8
0
  5
4C7
 10
-21.6225
 20
33.9479
 30
0.000000
  70
    32
  0
VERTEX
  8
0
  5
4C8
 10
-21.5342
 20
33.8580
 30
0.000000
  70
    32
  0
VERTEX
  8
0
  5
4C9
 10
-21.4435
 20
33.7731
 30
0.000000
  70
    32
  0
VERTEX
  8
0
  5
4CA
 10
-21.3504
 20
33.6935
 30
0.000000
  70
    32
  0
VERTEX
  8
0
  5
4CB
 10
-21.2551
 20
33.6193
 30
0.000000
  70
    32
  0
VERTEX
  8
0
  5
4CC
 10
-21.1578
 20
33.5505
 30
0.000000
  70
    32
  0
VERTEX
  8
0
  5
4CD
 10
-21.0586
 20
33.4874
 30
0.000000
  70
    32
  0
VERTEX
  8
0
  5
4CE
 10
-20.9577
 20
33.4299
 30
0.000000
  70
    32
  0
VERTEX
  8
0
  5
4CF
 10
-20.8553
 20
33.3783
 30
0.000000
  70
    32
  0
VERTEX
  8
0
  5
4D0
 10
-20.7514
 20
33.3325
 30
0.000000
  70
    32
  0
VERTEX
  8
0
  5
4D1
 10
-20.6464
 20
33.2927
 30
0.000000
  70
    32
  0
VERTEX
  8
0
  5
4D2
 10
-20.5402
 20
33.2588
 30
0.000000
  70
    32
  0
VERTEX
  8
0
  5
4D3
 10
-20.4333
 20
33.2311
 30
0.000000
  70
    32
  0
VERTEX
  8
0
  5
4D4
 10
-20.3256
 20
33.2095
 30
0.000000
  70
    32
  0
VERTEX
  8
0
  5
4D5
 10
-20.2173
 20
33.1940
 30
0.000000
  70
    32
  0
VERTEX
  8
0
  5
4D6
 10
-20.1088
 20
33.1847
 30
0.000000
  70
    32
  0
VERTEX
  8
0
  5
4D7
 10
-20.0000
 20
33.1816
 30
0.000000
  70
    32
  0
VERTEX
  8
0
  5
4D8
 10
-19.8912
 20
33.1847
 30
0.000000
  70
    32
  0
VERTEX
  8
0
  5
4D9
 10
-19.7827
 20
33.1940
 30
0.000000
  70
    32
  0
VERTEX
  8
0
  5
4DA
 10
-19.6744
 20
33.2095
 30
0.000000
  70
    32
  0
VERTEX
  8
0
  5
4DB
 10
-19.5667
 20
33.2311
 30
0.000000
  70
    32
  0
VERTEX
  8
0
  5
4DC
 10
-19.4598
 20
33.2588
 30
0.000000
  70
    32
  0
VERTEX
  8
0
  5
4DD
 10
-19.3536
 20
33.2927
 30
0.000000
  70
    32
  0
VERTEX
  8
0
  5
4DE
 10
-19.2486
 20
33.3325
 30
0.000000
  70
    32
  0
VERTEX
  8
0
  5
4DF
 10
-19.1447
 20
33.3783
 30
0.000000
  70
    32
  0
VERTEX
  8
0
  5
4E0
 10
-19.0423
 20
33.4299
 30
0.000000
  70
    32
  0
VERTEX
  8
0
  5
4E1
 10
-18.9414
 20
33.4874
 30
0.000000
  70
    32
  0
VERTEX
  8
0
  5
4E2
 10
-18.8422
 20
33.5505
 30
0.000000
  70
    32
  0
VERTEX
  8
0
  5
4E3
 10
-18.7449
 20
33.6193
 30
0.000000
  70
    32
  0
VERTEX
  8
0
  5
4E4
 10
-18.6496
 20
33.6935
 30
0.000000
  70
    32
  0
VERTEX
  8
0
  5
4E5
 10
-18.5565
 20
33.7731
 30
0.000000
  70
    32
  0
VERTEX
  8
0
  5
4E6
 10
-18.4658
 20
33.8580
 30
0.000000
  70
    32
  0
VERTEX
  8
0
  5
4E7
 10
-18.3775
 20
33.9479
 30
0.000000
  70
    32
  0
VERTEX
  8
0
  5
4E8
 10
-18.2919
 20
34.0428
 30
0.000000
  70
    32
  0
VERTEX
  8
0
  5
4E9
 10
-18.2091
 20
34.1425
 30
0.000000
  70
    32
  0
VERTEX
  8
0
  5
4EA
 10
-18.1291
 20
34.2468
 30
0.000000
  70
    32
  0
VERTEX
  8
0
  5
4EB
 10
-18.0523
 20
34.3557
 30
0.000000
  70
    32
  0
VERTEX
  8
0
  5
4EC
 10
-17.9785
 20
34.4688
 30
0.000000
  70
    32
  0
VERTEX
  8
0
  5
4ED
 10
-17.9081
 20
34.5860
 30
0.000000
  70
    32
  0
VERTEX
  8
0
  5
4EE
 10
-17.8410
 20
34.7071
 30
0.000000
  70
    32
  0
VERTEX
  8
0
  5
4EF
 10
-17.7775
 20
34.8319
 30
0.000000
  70
    32
  0
VERTEX
  8
0
  5
4F0
 10
-17.7175
 20
34.9603
 30
0.000000
  70
    32
  0
VERTEX
  8
0
  5
4F1
 10
-17.6613
 20
35.0920
 30
0.000000
  70
    32
  0
VERTEX
  8
0
  5
4F2
 10
-17.6088
 20
35.2267
 30
0.000000
  70
    32
  0
VERTEX
  8
0
  5
4F3
 10
-17.5603
 20
35.3644
 30
0.000000
  70
    32
  0
VERTEX
  8
0
  5
4F4
 10
-17.5156
 20
35.5047
 30
0.000000
  70
    32
  0
VERTEX
  8
0
  5
4F5
 10
-17.4751
 20
35.6474
 30
0.000000
  70
    32
  0
VERTEX
  8
0
  5
4F6
 10
-17.4386
 20
35.7923
 30
0.000000
  70
    32
  0
VERTEX
  8
0
  5
4F7
 10
-17.4063
 20
35.9392
 30
0.000000
  70
    32
  0
VERTEX
  8
0
  5
4F8
 10
-17.3782
 20
36.0878
 30
0.000000
  70
    32
  0
VERTEX
  8
0
  5
4F9
 10
-17.3543
 20
36.2379
 30
0.000000
  70
    32
  0
VERTEX
  8
0
  5
4FA
 10
-17.3348
 20
36.3893
 30
0.000000
  70
    32
  0
VERTEX
  8
0
  5
4FB
 10
-17.3195
 20
36.5416
 30
0.000000
  70
    32
  0
VERTEX
  8
0
  5
4FC
 10
-17.3086
 20
36.6946
 30
0.000000
  70
    32
  0
VERTEX
  8
0
  5
4FD
 10
-17.3021
 20
36.8482
 30
0.000000
  70
    32
  0
VERTEX
  8
0
  5
4FE
 10
-17.3000
 20
37.0020
 30
0.000000
  70
    32
  0
VERTEX
  8
0
  5
4FF
 10
-17.3022
 20
37.1558
 30
0.000000
  70
    32
  0
VERTEX
  8
0
  5
500
 10
-17.3089
 20
37.3093
 30
0.000000
  70
    32
  0
VERTEX
  8
0
  5
501
 10
-17.3199
 20
37.4624
 30
0.000000
  70
    32
  0
VERTEX
  8
0
  5
502
 10
-17.3352
 20
37.6147
 30
0.000000
  70
    32
  0
VERTEX
  8
0
  5
503
 10
-17.3549
 20
37.7660
 30
0.000000
  70
    32
  0
VERTEX
  8
0
  5
504
 10
-17.3788
 20
37.9160
 30
0.000000
  70
    32
  0
VERTEX
  8
0
  5
505
 10
-17.4071
 20
38.0646
 30
0.000000
  70
    32
  0
VERTEX
  8
0
  5
506
 10
-17.4395
 20
38.2114
 30
0.000000
  70
    32
  0
VERTEX
  8
0
  5
507
 10
-17.4761
 20
38.3563
 30
0.000000
  70
    32
  0
VERTEX
  8
0
  5
508
 10
-17.5167
 20
38.4990
 30
0.000000
  70
    32
  0
VERTEX
  8
0
  5
509
 10
-17.5615
 20
38.6392
 30
0.000000
  70
    32
  0
VERTEX
  8
0
  5
50A
 10
-17.6101
 20
38.7768
 30
0.000000
  70
    32
  0
VERTEX
  8
0
  5
50B
 10
-17.6627
 20
38.9115
 30
0.000000
  70
    32
  0
VERTEX
  8
0
  5
50C
 10
-17.7190
 20
39.0431
 30
0.000000
  70
    32
  0
VERTEX
  8
0
  5
50D
 10
-17.7791
 20
39.1714
 30
0.000000
  70
    32
  0
VERTEX
  8
0
  5
50E
 10
-17.8427
 20
39.2961
 30
0.000000
  70
    32
  0
VERTEX
  8
0
  5
50F
 10
-17.9098
 20
39.4171
 30
0.000000
  70
    32
  0
VERTEX
  8
0
  5
510
 10
-17.9804
 20
39.5342
 30
0.000000
  70
    32
  0
VERTEX
  8
0
  5
511
 10
-18.0542
 20
39.6472
 30
0.000000
  70
    32
  0
VERTEX
  8
0
  5
512
 10
-18.1312
 20
39.7559
 30
0.000000
  70
    32
  0
VERTEX
  8
0
  5
513
 10
-18.2112
 20
39.8601
 30
0.000000
  70
    32
  0
VERTEX
  8
0
  5
514
 10
-18.2941
 20
39.9597
 30
0.000000
  70
    32
  0
VERTEX
  8
0
  5
515
 10
-18.3798
 20
40.0545
 30
0.000000
  70
    32
  0
VERTEX
  8
0
  5
516
 10
-18.4681
 20
40.1443
 30
0.000000
  70
    32
  0
VERTEX
  8
0
  5
517
 10
-18.5589
 20
40.2290
 30
0.000000
  70
    32
  0
SEQEND
  8
0
  5
518
  0
POLYLINE
  5
3F
  8
0
 10
-19.999999999999879
 20
54.071067811865746
 30
0.0
 66
     1
 70
     8
  0
VERTEX
  8
0
  5
519
 10
-20.0000
 20
54.0711
 30
0.000000
  70
    32
  0
VERTEX
  8
0
  5
51A
 10
-20.2453
 20
54.0626
 30
0.000000
  70
    32
  0
VERTEX
  8
0
  5
51B
 10
-20.4901
 20
54.0370
 30
0.000000
  70
    32
  0
VERTEX
  8
0
  5
51C
 10
-20.7337
 20
53.9945
 30
0.000000
  70
    32
  0
VERTEX
  8
0
  5
51D
 10
-20.9755
 20
53.9352
 30
0.000000
  70
    32
  0
VERTEX
  8
0
  5
51E
 10
-21.2149
 20
53.8592
 30
0.000000
  70
    32
  0
VERTEX
  8
0
  5
51F
 10
-21.4514
 20
53.7666
 30
0.000000
  70
    32
  0
VERTEX
  8
0
  5
520
 10
-21.6844
 20
53.6577
 30
0.000000
  70
    32
  0
VERTEX
  8
0
  5
521
 10
-21.9134
 20
53.5328
 30
0.000000
  70
    32
  0
VERTEX
  8
0
  5
522
 10
-22.1378
 20
53.3922
 30
0.000000
  70
    32
  0
VERTEX
  8
0
  5
523
 10
-22.3570
 20
53.2361
 30
0.000000
  70
    32
  0
VERTEX
  8
0
  5
524
 10
-22.5705
 20
53.0651
 30
0.000000
  70
    32
  0
VERTEX
  8
0
  5
525
 10
-22.7779
 20
52.8794
 30
0.000000
  70
    32
  0
VERTEX
  8
0
  5
526
 10
-22.9785
 20
52.6795
 30
0.000000
  70
    32
  0
VERTEX
  8
0
  5
527
 10
-23.1720
 20
52.4660
 30
0.000000
  70
    32
  0
VERTEX
  8
0
  5
528
 10
-23.3578
 20
52.2393
 30
0.000000
  70
    32
  0
VERTEX
  8
0
  5
529
 10
-23.5355
 20
52.0000
 30
0.000000
  70
    32
  0
VERTEX
  8
0
  5
52A
 10
-23.7048
 20
51.7486
 30
0.000000
  70
    32
  0
VERTEX
  8
0
  5
52B
 10
-23.8651
 20
51.4858
 30
0.000000
  70
    32
  0
VERTEX
  8
0
  5
52C
 10
-24.0160
 20
51.2122
 30
0.000000
  70
    32
  0
VERTEX
  8
0
  5
52D
 10
-24.1573
 20
50.9285
 30
0.000000
  70
    32
  0
VERTEX
  8
0
  5
52E
 10
-24.2886
 20
50.6353
 30
0.000000
  70
    32
  0
VERTEX
  8
0
  5
52F
 10
-24.4096
 20
50.3333
 30
0.000000
  70
    32
  0
VERTEX
  8
0
  5
530
 10
-24.5199
 20
50.0233
 30
0.000000
  70
    32
  0
VERTEX
  8
0
  5
531
 10
-24.6194
 20
49.7060
 30
0.000000
  70
    32
  0
VERTEX
  8
0
  5
532
 10
-24.7077
 20
49.3822
 30
0.000000
  70
    32
  0
VERTEX
  8
0
  5
533
 10
-24.7847
 20
49.0526
 30
0.000000
  70
    32
  0
VERTEX
  8
0
  5
534
 10
-24.8502
 20
48.7181
 30
0.000000
  70
    32
  0
VERTEX
  8
0
  5
535
 10
-24.9039
 20
48.3795
 30
0.000000
  70
    32
  0
VERTEX
  8
0
  5
536
 10
-24.9459
 20
48.0375
 30
0.000000
  70
    32
  0
VERTEX
  8
0
  5
537
 10
-24.9759
 20
47.6931
 30
0.000000
  70
    32
  0
VERTEX
  8
0
  5
538
 10
-24.9940
 20
47.3470
 30
0.000000
  70
    32
  0
VERTEX
  8
0
  5
539
 10
-25.0000
 20
47.0000
 30
0.000000
  70
    32
  0
VERTEX
  8
0
  5
53A
 10
-24.9940
 20
46.6530
 30
0.000000
  70
    32
  0
VERTEX
  8
0
  5
53B
 10
-24.9759
 20
46.3069
 30
0.000000
  70
    32
  0
VERTEX
  8
0
  5
53C
 10
-24.9459
 20
45.9625
 30
0.000000
  70
    32
  0
VERTEX
  8
0
  5
53D
 10
-24.9039
 20
45.6205
 30
0.000000
  70
    32
  0
VERTEX
  8
0
  5
53E
 10
-24.8502
 20
45.2819
 30
0.000000
  70
    32
  0
VERTEX
  8
0
  5
53F
 10
-24.7847
 20
44.9474
 30
0.000000
  70
    32
  0
VERTEX
  8
0
  5
540
 10
-24.7077
 20
44.6178
 30
0.000000
  70
    32
  0
VERTEX
  8
0
  5
541
 10
-24.6194
 20
44.2940
 30
0.000000
  70
    32
  0
VERTEX
  8
0
  5
542
 10
-24.5199
 20
43.9767
 30
0.000000
  70
    32
  0
VERTEX
  8
0
  5
543
 10
-24.4096
 20
43.6667
 30
0.000000
  70
    32
  0
VERTEX
  8
0
  5
544
 10
-24.2886
 20
43.3647
 30
0.000000
  70
    32
  0
VERTEX
  8
0
  5
545
 10
-24.1573
 20
43.0715
 30
0.000000
  70
    32
  0
VERTEX
  8
0
  5
546
 10
-24.0160
 20
42.7878
 30
0.000000
  70
    32
  0
VERTEX
  8
0
  5
547
 10
-23.8651
 20
42.5142
 30
0.000000
  70
    32
  0
VERTEX
  8
0
  5
548
 10
-23.7048
 20
42.2514
 30
0.000000
  70
    32
  0
VERTEX
  8
0
  5
549
 10
-23.5355
 20
42.0000
 30
0.000000
  70
    32
  0
VERTEX
  8
0
  5
54A
 10
-23.3578
 20
41.7607
 30
0.000000
  70
    32
  0
VERTEX
  8
0
  5
54B
 10
-23.1720
 20
41.5340
 30
0.000000
  70
    32
  0
VERTEX
  8
0
  5
54C
 10
-22.9785
 20
41.3205
 30
0.000000
  70
    32
  0
VERTEX
  8
0
  5
54D
 10
-22.7779
 20
41.1206
 30
0.000000
  70
    32
  0
VERTEX
  8
0
  5
54E
 10
-22.5705
 20
40.9349
 30
0.000000
  70
    32
  0
VERTEX
  8
0
  5
54F
 10
-22.3570
 20
40.7639
 30
0.000000
  70
    32
  0
VERTEX
  8
0
  5
550
 10
-22.1378
 20
40.6078
 30
0.000000
  70
    32
  0
VERTEX
  8
0
  5
551
 10
-21.9134
 20
40.4672
 30
0.000000
  70
    32
  0
VERTEX
  8
0
  5
552
 10
-21.6844
 20
40.3423
 30
0.000000
  70
    32
  0
VERTEX
  8
0
  5
553
 10
-21.4514
 20
40.2334
 30
0.000000
  70
    32
  0
VERTEX
  8
0
  5
554
 10
-21.2149
 20
40.1408
 30
0.000000
  70
    32
  0
VERTEX
  8
0
  5
555
 10
-20.9755
 20
40.0648
 30
0.000000
  70
    32
  0
VERTEX
  8
0
  5
556
 10
-20.7337
 20
40.0055
 30
0.000000
  70
    32
  0
VERTEX
  8
0
  5
557
 10
-20.4901
 20
39.9630
 30
0.000000
  70
    32
  0
VERTEX
  8
0
  5
558
 10
-20.2453
 20
39.9374
 30
0.000000
  70
    32
  0
VERTEX
  8
0
  5
559
 10
-20.0000
 20
39.9289
 30
0.000000
  70
    32
  0
VERTEX
  8
0
  5
55A
 10
-19.7547
 20
39.9374
 30
0.000000
  70
    32
  0
VERTEX
  8
0
  5
55B
 10
-19.5099
 20
39.9630
 30
0.000000
  70
    32
  0
VERTEX
  8
0
  5
55C
 10
-19.2663
 20
40.0055
 30
0.000000
  70
    32
  0
VERTEX
  8
0
  5
55D
 10
-19.0245
 20
40.0648
 30
0.000000
  70
    32
  0
VERTEX
  8
0
  5
55E
 10
-18.7851
 20
40.1408
 30
0.000000
  70
    32
  0
VERTEX
  8
0
  5
55F
 10
-18.5486
 20
40.2334
 30
0.000000
  70
    32
  0
VERTEX
  8
0
  5
560
 10
-18.3156
 20
40.3423
 30
0.000000
  70
    32
  0
VERTEX
  8
0
  5
561
 10
-18.0866
 20
40.4672
 30
0.000000
  70
    32
  0
VERTEX
  8
0
  5
562
 10
-17.8622
 20
40.6078
 30
0.000000
  70
    32
  0
VERTEX
  8
0
  5
563
 10
-17.6430
 20
40.7639
 30
0.000000
  70
    32
  0
VERTEX
  8
0
  5
564
 10
-17.4295
 20
40.9349
 30
0.000000
  70
    32
  0
VERTEX
  8
0
  5
565
 10
-17.2221
 20
41.1206
 30
0.000000
  70
    32
  0
VERTEX
  8
0
  5
566
 10
-17.0215
 20
41.3205
 30
0.000000
  70
    32
  0
VERTEX
  8
0
  5
567
 10
-16.8280
 20
41.5340
 30
0.000000
  70
    32
  0
VERTEX
  8
0
  5
568
 10
-16.6422
 20
41.7607
 30
0.000000
  70
    32
  0
VERTEX
  8
0
  5
569
 10
-16.4645
 20
42.0000
 30
0.000000
  70
    32
  0
VERTEX
  8
0
  5
56A
 10
-16.2952
 20
42.2514
 30
0.000000
  70
    32
  0
VERTEX
  8
0
  5
56B
 10
-16.1349
 20
42.5142
 30
0.000000
  70
    32
  0
VERTEX
  8
0
  5
56C
 10
-15.9840
 20
42.7878
 30
0.000000
  70
    32
  0
VERTEX
  8
0
  5
56D
 10
-15.8427
 20
43.0715
 30
0.000000
  70
    32
  0
VERTEX
  8
0
  5
56E
 10
-15.7114
 20
43.3647
 30
0.000000
  70
    32
  0
VERTEX
  8
0
  5
56F
 10
-15.5904
 20
43.6667
 30
0.000000
  70
    32
  0
VERTEX
  8
0
  5
570
 10
-15.4801
 20
43.9767
 30
0.000000
  70
    32
  0
VERTEX
  8
0
  5
571
 10
-15.3806
 20
44.2940
 30
0.000000
  70
    32
  0
VERTEX
  8
0
  5
572
 10
-15.2923
 20
44.6178
 30
0.000000
  70
    32
  0
VERTEX
  8
0
  5
573
 10
-15.2153
 20
44.9474
 30
0.000000
  70
    32
  0
VERTEX
  8
0
  5
574
 10
-15.1498
 20
45.2819
 30
0.000000
  70
    32
  0
VERTEX
  8
0
  5
575
 10
-15.0961
 20
45.6205
 30
0.000000
  70
    32
  0
VERTEX
  8
0
  5
576
 10
-15.0541
 20
45.9625
 30
0.000000
  70
    32
  0
VERTEX
  8
0
  5
577
 10
-15.0241
 20
46.3069
 30
0.000000
  70
    32
  0
VERTEX
  8
0
  5
578
 10
-15.0060
 20
46.6530
 30
0.000000
  70
    32
  0
VERTEX
  8
0
  5
579
 10
-15.0000
 20
47.0000
 30
0.000000
  70
    32
  0
VERTEX
  8
0
  5
57A
 10
-15.0060
 20
47.3470
 30
0.000000
  70
    32
  0
VERTEX
  8
0
  5
57B
 10
-15.0241
 20
47.6931
 30
0.000000
  70
    32
  0
VERTEX
  8
0
  5
57C
 10
-15.0541
 20
48.0375
 30
0.000000
  70
    32
  0
VERTEX
  8
0
  5
57D
 10
-15.0961
 20
48.3795
 30
0.000000
  70
    32
  0
VERTEX
  8
0
  5
57E
 10
-15.1498
 20
48.7181
 30
0.000000
  70
    32
  0
VERTEX
  8
0
  5
57F
 10
-15.2153
 20
49.0526
 30
0.000000
  70
    32
  0
VERTEX
  8
0
  5
580
 10
-15.2923
 20
49.3822
 30
0.000000
  70
    32
  0
VERTEX
  8
0
  5
581
 10
-15.3806
 20
49.7060
 30
0.000000
  70
    32
  0
VERTEX
  8
0
  5
582
 10
-15.4801
 20
50.0233
 30
0.000000
  70
    32
  0
VERTEX
  8
0
  5
583
 10
-15.5904
 20
50.3333
 30
0.000000
  70
    32
  0
VERTEX
  8
0
  5
584
 10
-15.7114
 20
50.6353
 30
0.000000
  70
    32
  0
VERTEX
  8
0
  5
585
 10
-15.8427
 20
50.9285
 30
0.000000
  70
    32
  0
VERTEX
  8
0
  5
586
 10
-15.9840
 20
51.2122
 30
0.000000
  70
    32
  0
VERTEX
  8
0
  5
587
 10
-16.1349
 20
51.4858
 30
0.000000
  70
    32
  0
VERTEX
  8
0
  5
588
 10
-16.2952
 20
51.7486
 30
0.000000
  70
    32
  0
VERTEX
  8
0
  5
589
 10
-16.4645
 20
52.0000
 30
0.000000
  70
    32
  0
VERTEX
  8
0
  5
58A
 10
-16.6422
 20
52.2393
 30
0.000000
  70
    32
  0
VERTEX
  8
0
  5
58B
 10
-16.8280
 20
52.4660
 30
0.000000
  70
    32
  0
VERTEX
  8
0
  5
58C
 10
-17.0215
 20
52.6795
 30
0.000000
  70
    32
  0
VERTEX
  8
0
  5
58D
 10
-17.2221
 20
52.8794
 30
0.000000
  70
    32
  0
VERTEX
  8
0
  5
58E
 10
-17.4295
 20
53.0651
 30
0.000000
  70
    32
  0
VERTEX
  8
0
  5
58F
 10
-17.6430
 20
53.2361
 30
0.000000
  70
    32
  0
VERTEX
  8
0
  5
590
 10
-17.8622
 20
53.3922
 30
0.000000
  70
    32
  0
VERTEX
  8
0
  5
591
 10
-18.0866
 20
53.5328
 30
0.000000
  70
    32
  0
VERTEX
  8
0
  5
592
 10
-18.3156
 20
53.6577
 30
0.000000
  70
    32
  0
VERTEX
  8
0
  5
593
 10
-18.5486
 20
53.7666
 30
0.000000
  70
    32
  0
VERTEX
  8
0
  5
594
 10
-18.7851
 20
53.8592
 30
0.000000
  70
    32
  0
VERTEX
  8
0
  5
595
 10
-19.0245
 20
53.9352
 30
0.000000
  70
    32
  0
VERTEX
  8
0
  5
596
 10
-19.2663
 20
53.9945
 30
0.000000
  70
    32
  0
VERTEX
  8
0
  5
597
 10
-19.5099
 20
54.0370
 30
0.000000
  70
    32
  0
VERTEX
  8
0
  5
598
 10
-19.7547
 20
54.0626
 30
0.000000
  70
    32
  0
VERTEX
  8
0
  5
599
 10
-20.0000
 20
54.0711
 30
0.000000
  70
    32
  0
SEQEND
  8
0
  5
59A
  0
POLYLINE
  5
40
  8
0
 10
-17.499999999999879
 20
41.696699141101099
 30
0.0
 66
     1
 70
     8
  0
VERTEX
  8
0
  5
59B
 10
-17.5000
 20
41.6967
 30
0.000000
  70
    32
  0
VERTEX
  8
0
  5
59C
 10
-17.5030
 20
41.7834
 30
0.000000
  70
    32
  0
VERTEX
  8
0
  5
59D
 10
-17.5120
 20
41.8700
 30
0.000000
  70
    32
  0
VERTEX
  8
0
  5
59E
 10
-17.5271
 20
41.9561
 30
0.000000
  70
    32
  0
VERTEX
  8
0
  5
59F
 10
-17.5480
 20
42.0416
 30
0.000000
  70
    32
  0
VERTEX
  8
0
  5
5A0
 10
-17.5749
 20
42.1262
 30
0.000000
  70
    32
  0
VERTEX
  8
0
  5
5A1
 10
-17.6076
 20
42.2099
 30
0.000000
  70
    32
  0
VERTEX
  8
0
  5
5A2
 10
-17.6461
 20
42.2922
 30
0.000000
  70
    32
  0
VERTEX
  8
0
  5
5A3
 10
-17.6903
 20
42.3732
 30
0.000000
  70
    32
  0
VERTEX
  8
0
  5
5A4
 10
-17.7400
 20
42.4525
 30
0.000000
  70
    32
  0
VERTEX
  8
0
  5
5A5
 10
-17.7952
 20
42.5300
 30
0.000000
  70
    32
  0
VERTEX
  8
0
  5
5A6
 10
-17.8557
 20
42.6055
 30
0.000000
  70
    32
  0
VERTEX
  8
0
  5
5A7
 10
-17.9213
 20
42.6788
 30
0.000000
  70
    32
  0
VERTEX
  8
0
  5
5A8
 10
-17.9920
 20
42.7498
 30
0.000000
  70
    32
  0
VERTEX
  8
0
  5
5A9
 10
-18.0675
 20
42.8182
 30
0.000000
  70
    32
  0
VERTEX
  8
0
  5
5AA
 10
-18.1476
 20
42.8839
 30
0.000000
  70
    32
  0
VERTEX
  8
0
  5
5AB
 10
-18.2322
 20
42.9467
 30
0.000000
  70
    32
  0
VERTEX
  8
0
  5
5AC
 10
-18.3211
 20
43.0065
 30
0.000000
  70
    32
  0
VERTEX
  8
0
  5
5AD
 10
-18.4140
 20
43.0632
 30
0.000000
  70
    32
  0
VERTEX
  8
0
  5
5AE
 10
-18.5108
 20
43.1166
 30
0.000000
  70
    32
  0
VERTEX
  8
0
  5
5AF
 10
-18.6111
 20
43.1665
 30
0.000000
  70
    32
  0
VERTEX
  8
0
  5
5B0
 10
-18.7147
 20
43.2130
 30
0.000000
  70
    32
  0
VERTEX
  8
0
  5
5B1
 10
-18.8215
 20
43.2557
 30
0.000000
  70
    32
  0
VERTEX
  8
0
  5
5B2
 10
-18.9311
 20
43.2947
 30
0.000000
  70
    32
  0
VERTEX
  8
0
  5
5B3
 10
-19.0433
 20
43.3299
 30
0.000000
  70
    32
  0
VERTEX
  8
0
  5
5B4
 10
-19.1578
 20
43.3611
 30
0.000000
  70
    32
  0
VERTEX
  8
0
  5
5B5
 10
-19.2743
 20
43.3883
 30
0.000000
  70
    32
  0
VERTEX
  8
0
  5
5B6
 10
-19.3925
 20
43.4115
 30
0.000000
  70
    32
  0
VERTEX
  8
0
  5
5B7
 10
-19.5123
 20
43.4305
 30
0.000000
  70
    32
  0
VERTEX
  8
0
  5
5B8
 10
-19.6332
 20
43.4453
 30
0.000000
  70
    32
  0
VERTEX
  8
0
  5
5B9
 10
-19.7550
 20
43.4560
 30
0.000000
  70
    32
  0
VERTEX
  8
0
  5
5BA
 10
-19.8773
 20
43.4623
 30
0.000000
  70
    32
  0
VERTEX
  8
0
  5
5BB
 10
-20.0000
 20
43.4645
 30
0.000000
  70
    32
  0
VERTEX
  8
0
  5
5BC
 10
-20.1227
 20
43.4623
 30
0.000000
  70
    32
  0
VERTEX
  8
0
  5
5BD
 10
-20.2450
 20
43.4560
 30
0.000000
  70
    32
  0
VERTEX
  8
0
  5
5BE
 10
-20.3668
 20
43.4453
 30
0.000000
  70
    32
  0
VERTEX
  8
0
  5
5BF
 10
-20.4877
 20
43.4305
 30
0.000000
  70
    32
  0
VERTEX
  8
0
  5
5C0
 10
-20.6075
 20
43.4115
 30
0.000000
  70
    32
  0
VERTEX
  8
0
  5
5C1
 10
-20.7257
 20
43.3883
 30
0.000000
  70
    32
  0
VERTEX
  8
0
  5
5C2
 10
-20.8422
 20
43.3611
 30
0.000000
  70
    32
  0
VERTEX
  8
0
  5
5C3
 10
-20.9567
 20
43.3299
 30
0.000000
  70
    32
  0
VERTEX
  8
0
  5
5C4
 10
-21.0689
 20
43.2947
 30
0.000000
  70
    32
  0
VERTEX
  8
0
  5
5C5
 10
-21.1785
 20
43.2557
 30
0.000000
  70
    32
  0
VERTEX
  8
0
  5
5C6
 10
-21.2853
 20
43.2130
 30
0.000000
  70
    32
  0
VERTEX
  8
0
  5
5C7
 10
-21.3889
 20
43.1665
 30
0.000000
  70
    32
  0
VERTEX
  8
0
  5
5C8
 10
-21.4892
 20
43.1166
 30
0.000000
  70
    32
  0
VERTEX
  8
0
  5
5C9
 10
-21.5860
 20
43.0632
 30
0.000000
  70
    32
  0
VERTEX
  8
0
  5
5CA
 10
-21.6789
 20
43.0065
 30
0.000000
  70
    32
  0
VERTEX
  8
0
  5
5CB
 10
-21.7678
 20
42.9467
 30
0.000000
  70
    32
  0
VERTEX
  8
0
  5
5CC
 10
-21.8524
 20
42.8839
 30
0.000000
  70
    32
  0
VERTEX
  8
0
  5
5CD
 10
-21.9325
 20
42.8182
 30
0.000000
  70
    32
  0
VERTEX
  8
0
  5
5CE
 10
-22.0080
 20
42.7498
 30
0.000000
  70
    32
  0
VERTEX
  8
0
  5
5CF
 10
-22.0787
 20
42.6788
 30
0.000000
  70
    32
  0
VERTEX
  8
0
  5
5D0
 10
-22.1443
 20
42.6055
 30
0.000000
  70
    32
  0
VERTEX
  8
0
  5
5D1
 10
-22.2048
 20
42.5300
 30
0.000000
  70
    32
  0
VERTEX
  8
0
  5
5D2
 10
-22.2600
 20
42.4525
 30
0.000000
  70
    32
  0
VERTEX
  8
0
  5
5D3
 10
-22.3097
 20
42.3732
 30
0.000000
  70
    32
  0
VERTEX
  8
0
  5
5D4
 10
-22.3539
 20
42.2922
 30
0.000000
  70
    32
  0
VERTEX
  8
0
  5
5D5
 10
-22.3924
 20
42.2099
 30
0.000000
  70
    32
  0
VERTEX
  8
0
  5
5D6
 10
-22.4251
 20
42.1262
 30
0.000000
  70
    32
  0
VERTEX
  8
0
  5
5D7
 10
-22.4520
 20
42.0416
 30
0.000000
  70
    32
  0
VERTEX
  8
0
  5
5D8
 10
-22.4729
 20
41.9561
 30
0.000000
  70
    32
  0
VERTEX
  8
0
  5
5D9
 10
-22.4880
 20
41.8700
 30
0.000000
  70
    32
  0
VERTEX
  8
0
  5
5DA
 10
-22.4970
 20
41.7834
 30
0.000000
  70
    32
  0
VERTEX
  8
0
  5
5DB
 10
-22.5000
 20
41.6967
 30
0.000000
  70
    32
  0
VERTEX
  8
0
  5
5DC
 10
-22.4970
 20
41.6100
 30
0.000000
  70
    32
  0
VERTEX
  8
0
  5
5DD
 10
-22.4880
 20
41.5234
 30
0.000000
  70
    32
  0
VERTEX
  8
0
  5
5DE
 10
-22.4729
 20
41.4373
 30
0.000000
  70
    32
  0
VERTEX
  8
0
  5
5DF
 10
-22.4520
 20
41.3518
 30
0.000000
  70
    32
  0
VERTEX
  8
0
  5
5E0
 10
-22.4251
 20
41.2672
 30
0.000000
  70
    32
  0
VERTEX
  8
0
  5
5E1
 10
-22.3924
 20
41.1835
 30
0.000000
  70
    32
  0
VERTEX
  8
0
  5
5E2
 10
-22.3539
 20
41.1012
 30
0.000000
  70
    32
  0
VERTEX
  8
0
  5
5E3
 10
-22.3097
 20
41.0202
 30
0.000000
  70
    32
  0
VERTEX
  8
0
  5
5E4
 10
-22.2600
 20
40.9409
 30
0.000000
  70
    32
  0
VERTEX
  8
0
  5
5E5
 10
-22.2048
 20
40.8634
 30
0.000000
  70
    32
  0
VERTEX
  8
0
  5
5E6
 10
-22.1443
 20
40.7879
 30
0.000000
  70
    32
  0
VERTEX
  8
0
  5
5E7
 10
-22.0787
 20
40.7146
 30
0.000000
  70
    32
  0
VERTEX
  8
0
  5
5E8
 10
-22.0080
 20
40.6436
 30
0.000000
  70
    32
  0
VERTEX
  8
0
  5
5E9
 10
-21.9325
 20
40.5752
 30
0.000000
  70
    32
  0
VERTEX
  8
0
  5
5EA
 10
-21.8524
 20
40.5095
 30
0.000000
  70
    32
  0
VERTEX
  8
0
  5
5EB
 10
-21.7678
 20
40.4467
 30
0.000000
  70
    32
  0
VERTEX
  8
0
  5
5EC
 10
-21.6789
 20
40.3869
 30
0.000000
  70
    32
  0
VERTEX
  8
0
  5
5ED
 10
-21.5860
 20
40.3302
 30
0.000000
  70
    32
  0
VERTEX
  8
0
  5
5EE
 10
-21.4892
 20
40.2768
 30
0.000000
  70
    32
  0
VERTEX
  8
0
  5
5EF
 10
-21.3889
 20
40.2269
 30
0.000000
  70
    32
  0
VERTEX
  8
0
  5
5F0
 10
-21.2853
 20
40.1804
 30
0.000000
  70
    32
  0
VERTEX
  8
0
  5
5F1
 10
-21.1785
 20
40.1377
 30
0.000000
  70
    32
  0
VERTEX
  8
0
  5
5F2
 10
-21.0689
 20
40.0987
 30
0.000000
  70
    32
  0
VERTEX
  8
0
  5
5F3
 10
-20.9567
 20
40.0635
 30
0.000000
  70
    32
  0
VERTEX
  8
0
  5
5F4
 10
-20.8422
 20
40.0323
 30
0.000000
  70
    32
  0
VERTEX
  8
0
  5
5F5
 10
-20.7257
 20
40.0051
 30
0.000000
  70
    32
  0
VERTEX
  8
0
  5
5F6
 10
-20.6075
 20
39.9819
 30
0.000000
  70
    32
  0
VERTEX
  8
0
  5
5F7
 10
-20.4877
 20
39.9629
 30
0.000000
  70
    32
  0
VERTEX
  8
0
  5
5F8
 10
-20.3668
 20
39.9481
 30
0.000000
  70
    32
  0
VERTEX
  8
0
  5
5F9
 10
-20.2450
 20
39.9374
 30
0.000000
  70
    32
  0
VERTEX
  8
0
  5
5FA
 10
-20.1227
 20
39.9311
 30
0.000000
  70
    32
  0
VERTEX
  8
0
  5
5FB
 10
-20.0000
 20
39.9289
 30
0.000000
  70
    32
  0
VERTEX
  8
0
  5
5FC
 10
-19.8773
 20
39.9311
 30
0.000000
  70
    32
  0
VERTEX
  8
0
  5
5FD
 10
-19.7550
 20
39.9374
 30
0.000000
  70
    32
  0
VERTEX
  8
0
  5
5FE
 10
-19.6332
 20
39.9481
 30
0.000000
  70
    32
  0
VERTEX
  8
0
  5
5FF
 10
-19.5123
 20
39.9629
 30
0.000000
  70
    32
  0
VERTEX
  8
0
  5
600
 10
-19.3925
 20
39.9819
 30
0.000000
  70
    32
  0
VERTEX
  8
0
  5
601
 10
-19.2743
 20
40.0051
 30
0.000000
  70
    32
  0
VERTEX
  8
0
  5
602
 10
-19.1578
 20
40.0323
 30
0.000000
  70
    32
  0
VERTEX
  8
0
  5
603
 10
-19.0433
 20
40.0635
 30
0.000000
  70
    32
  0
VERTEX
  8
0
  5
604
 10
-18.9311
 20
40.0987
 30
0.000000
  70
    32
  0
VERTEX
  8
0
  5
605
 10
-18.8215
 20
40.1377
 30
0.000000
  70
    32
  0
VERTEX
  8
0
  5
606
 10
-18.7147
 20
40.1804
 30
0.000000
  70
    32
  0
VERTEX
  8
0
  5
607
 10
-18.6111
 20
40.2269
 30
0.000000
  70
    32
  0
VERTEX
  8
0
  5
608
 10
-18.5108
 20
40.2768
 30
0.000000
  70
    32
  0
VERTEX
  8
0
  5
609
 10
-18.4140
 20
40.3302
 30
0.000000
  70
    32
  0
VERTEX
  8
0
  5
60A
 10
-18.3211
 20
40.3869
 30
0.000000
  70
    32
  0
VERTEX
  8
0
  5
60B
 10
-18.2322
 20
40.4467
 30
0.000000
  70
    32
  0
VERTEX
  8
0
  5
60C
 10
-18.1476
 20
40.5095
 30
0.000000
  70
    32
  0
VERTEX
  8
0
  5
60D
 10
-18.0675
 20
40.5752
 30
0.000000
  70
    32
  0
VERTEX
  8
0
  5
60E
 10
-17.9920
 20
40.6436
 30
0.000000
  70
    32
  0
VERTEX
  8
0
  5
60F
 10
-17.9213
 20
40.7146
 30
0.000000
  70
    32
  0
VERTEX
  8
0
  5
610
 10
-17.8557
 20
40.7879
 30
0.000000
  70
    32
  0
VERTEX
  8
0
  5
611
 10
-17.7952
 20
40.8634
 30
0.000000
  70
    32
  0
VERTEX
  8
0
  5
612
 10
-17.7400
 20
40.9409
 30
0.000000
  70
    32
  0
VERTEX
  8
0
  5
613
 10
-17.6903
 20
41.0202
 30
0.000000
  70
    32
  0
VERTEX
  8
0
  5
614
 10
-17.6461
 20
41.1012
 30
0.000000
  70
    32
  0
VERTEX
  8
0
  5
615
 10
-17.6076
 20
41.1835
 30
0.000000
  70
    32
  0
VERTEX
  8
0
  5
616
 10
-17.5749
 20
41.2672
 30
0.000000
  70
    32
  0
VERTEX
  8
0
  5
617
 10
-17.5480
 20
41.3518
 30
0.000000
  70
    32
  0
VERTEX
  8
0
  5
618
 10
-17.5271
 20
41.4373
 30
0.000000
  70
    32
  0
VERTEX
  8
0
  5
619
 10
-17.5120
 20
41.5234
 30
0.000000
  70
    32
  0
VERTEX
  8
0
  5
61A
 10
-17.5030
 20
41.6100
 30
0.000000
  70
    32
  0
VERTEX
  8
0
  5
61B
 10
-17.5000
 20
41.6967
 30
0.000000
  70
    32
  0
SEQEND
  8
0
  5
61C
  0
POLYLINE
  5
41
  8
0
 10
-15.285954792089676
 20
44.642977396045147
 30
0.0
 66
     1
 70
     8
  0
VERTEX
  8
0
  5
61D
 10
-15.2860
 20
44.6430
 30
0.000000
  70
    32
  0
VERTEX
  8
0
  5
61E
 10
-15.3189
 20
44.7069
 30
0.000000
  70
    32
  0
VERTEX
  8
0
  5
61F
 10
-15.3535
 20
44.7703
 30
0.000000
  70
    32
  0
VERTEX
  8
0
  5
620
 10
-15.3899
 20
44.8332
 30
0.000000
  70
    32
  0
VERTEX
  8
0
  5
621
 10
-15.4280
 20
44.8957
 30
0.000000
  70
    32
  0
VERTEX
  8
0
  5
622
 10
-15.4678
 20
44.9576
 30
0.000000
  70
    32
  0
VERTEX
  8
0
  5
623
 10
-15.5092
 20
45.0190
 30
0.000000
  70
    32
  0
VERTEX
  8
0
  5
624
 10
-15.5523
 20
45.0797
 30
0.000000
  70
    32
  0
VERTEX
  8
0
  5
625
 10
-15.5971
 20
45.1399
 30
0.000000
  70
    32
  0
VERTEX
  8
0
  5
626
 10
-15.6435
 20
45.1995
 30
0.000000
  70
    32
  0
VERTEX
  8
0
  5
627
 10
-15.6915
 20
45.2584
 30
0.000000
  70
    32
  0
VERTEX
  8
0
  5
628
 10
-15.7411
 20
45.3167
 30
0.000000
  70
    32
  0
VERTEX
  8
0
  5
629
 10
-15.7922
 20
45.3743
 30
0.000000
  70
    32
  0
VERTEX
  8
0
  5
62A
 10
-15.8450
 20
45.4311
 30
0.000000
  70
    32
  0
VERTEX
  8
0
  5
62B
 10
-15.8992
 20
45.4873
 30
0.000000
  70
    32
  0
VERTEX
  8
0
  5
62C
 10
-15.9550
 20
45.5427
 30
0.000000
  70
    32
  0
VERTEX
  8
0
  5
62D
 10
-16.0123
 20
45.5973
 30
0.000000
  70
    32
  0
VERTEX
  8
0
  5
62E
 10
-16.0710
 20
45.6511
 30
0.000000
  70
    32
  0
VERTEX
  8
0
  5
62F
 10
-16.1312
 20
45.7042
 30
0.000000
  70
    32
  0
VERTEX
  8
0
  5
630
 10
-16.1928
 20
45.7564
 30
0.000000
  70
    32
  0
VERTEX
  8
0
  5
631
 10
-16.2559
 20
45.8077
 30
0.000000
  70
    32
  0
VERTEX
  8
0
  5
632
 10
-16.3203
 20
45.8582
 30
0.000000
  70
    32
  0
VERTEX
  8
0
  5
633
 10
-16.3861
 20
45.9078
 30
0.000000
  70
    32
  0
VERTEX
  8
0
  5
634
 10
-16.4532
 20
45.9565
 30
0.000000
  70
    32
  0
VERTEX
  8
0
  5
635
 10
-16.5217
 20
46.0043
 30
0.000000
  70
    32
  0
VERTEX
  8
0
  5
636
 10
-16.5914
 20
46.0511
 30
0.000000
  70
    32
  0
VERTEX
  8
0
  5
637
 10
-16.6624
 20
46.0970
 30
0.000000
  70
    32
  0
VERTEX
  8
0
  5
638
 10
-16.7346
 20
46.1419
 30
0.000000
  70
    32
  0
VERTEX
  8
0
  5
639
 10
-16.8080
 20
46.1858
 30
0.000000
  70
    32
  0
VERTEX
  8
0
  5
63A
 10
-16.8826
 20
46.2287
 30
0.000000
  70
    32
  0
VERTEX
  8
0
  5
63B
 10
-16.9584
 20
46.2706
 30
0.000000
  70
    32
  0
VERTEX
  8
0
  5
63C
 10
-17.0353
 20
46.3114
 30
0.000000
  70
    32
  0
VERTEX
  8
0
  5
63D
 10
-17.1132
 20
46.3512
 30
0.000000
  70
    32
  0
VERTEX
  8
0
  5
63E
 10
-17.1923
 20
46.3899
 30
0.000000
  70
    32
  0
VERTEX
  8
0
  5
63F
 10
-17.2724
 20
46.4276
 30
0.000000
  70
    32
  0
VERTEX
  8
0
  5
640
 10
-17.3535
 20
46.4641
 30
0.000000
  70
    32
  0
VERTEX
  8
0
  5
641
 10
-17.4356
 20
46.4996
 30
0.000000
  70
    32
  0
VERTEX
  8
0
  5
642
 10
-17.5186
 20
46.5339
 30
0.000000
  70
    32
  0
VERTEX
  8
0
  5
643
 10
-17.6025
 20
46.5671
 30
0.000000
  70
    32
  0
VERTEX
  8
0
  5
644
 10
-17.6874
 20
46.5991
 30
0.000000
  70
    32
  0
VERTEX
  8
0
  5
645
 10
-17.7731
 20
46.6300
 30
0.000000
  70
    32
  0
VERTEX
  8
0
  5
646
 10
-17.8596
 20
46.6597
 30
0.000000
  70
    32
  0
VERTEX
  8
0
  5
647
 10
-17.9469
 20
46.6882
 30
0.000000
  70
    32
  0
VERTEX
  8
0
  5
648
 10
-18.0349
 20
46.7155
 30
0.000000
  70
    32
  0
VERTEX
  8
0
  5
649
 10
-18.1237
 20
46.7416
 30
0.000000
  70
    32
  0
VERTEX
  8
0
  5
64A
 10
-18.2132
 20
46.7665
 30
0.000000
  70
    32
  0
VERTEX
  8
0
  5
64B
 10
-18.3033
 20
46.7902
 30
0.000000
  70
    32
  0
VERTEX
  8
0
  5
64C
 10
-18.3941
 20
46.8127
 30
0.000000
  70
    32
  0
VERTEX
  8
0
  5
64D
 10
-18.4855
 20
46.8339
 30
0.000000
  70
    32
  0
VERTEX
  8
0
  5
64E
 10
-18.5774
 20
46.8539
 30
0.000000
  70
    32
  0
VERTEX
  8
0
  5
64F
 10
-18.6698
 20
46.8726
 30
0.000000
  70
    32
  0
VERTEX
  8
0
  5
650
 10
-18.7628
 20
46.8901
 30
0.000000
  70
    32
  0
VERTEX
  8
0
  5
651
 10
-18.8562
 20
46.9062
 30
0.000000
  70
    32
  0
VERTEX
  8
0
  5
652
 10
-18.9500
 20
46.9212
 30
0.000000
  70
    32
  0
VERTEX
  8
0
  5
653
 10
-19.0442
 20
46.9348
 30
0.000000
  70
    32
  0
VERTEX
  8
0
  5
654
 10
-19.1388
 20
46.9472
 30
0.000000
  70
    32
  0
VERTEX
  8
0
  5
655
 10
-19.2337
 20
46.9582
 30
0.000000
  70
    32
  0
VERTEX
  8
0
  5
656
 10
-19.3289
 20
46.9680
 30
0.000000
  70
    32
  0
VERTEX
  8
0
  5
657
 10
-19.4243
 20
46.9765
 30
0.000000
  70
    32
  0
VERTEX
  8
0
  5
658
 10
-19.5199
 20
46.9837
 30
0.000000
  70
    32
  0
VERTEX
  8
0
  5
659
 10
-19.6157
 20
46.9895
 30
0.000000
  70
    32
  0
VERTEX
  8
0
  5
65A
 10
-19.7117
 20
46.9941
 30
0.000000
  70
    32
  0
VERTEX
  8
0
  5
65B
 10
-19.8077
 20
46.9974
 30
0.000000
  70
    32
  0
VERTEX
  8
0
  5
65C
 10
-19.9038
 20
46.9993
 30
0.000000
  70
    32
  0
VERTEX
  8
0
  5
65D
 10
-20.0000
 20
47.0000
 30
0.000000
  70
    32
  0
VERTEX
  8
0
  5
65E
 10
-20.0962
 20
46.9993
 30
0.000000
  70
    32
  0
VERTEX
  8
0
  5
65F
 10
-20.1923
 20
46.9974
 30
0.000000
  70
    32
  0
VERTEX
  8
0
  5
660
 10
-20.2883
 20
46.9941
 30
0.000000
  70
    32
  0
VERTEX
  8
0
  5
661
 10
-20.3843
 20
46.9895
 30
0.000000
  70
    32
  0
VERTEX
  8
0
  5
662
 10
-20.4801
 20
46.9837
 30
0.000000
  70
    32
  0
VERTEX
  8
0
  5
663
 10
-20.5757
 20
46.9765
 30
0.000000
  70
    32
  0
VERTEX
  8
0
  5
664
 10
-20.6711
 20
46.9680
 30
0.000000
  70
    32
  0
VERTEX
  8
0
  5
665
 10
-20.7663
 20
46.9582
 30
0.000000
  70
    32
  0
VERTEX
  8
0
  5
666
 10
-20.8612
 20
46.9472
 30
0.000000
  70
    32
  0
VERTEX
  8
0
  5
667
 10
-20.9558
 20
46.9348
 30
0.000000
  70
    32
  0
VERTEX
  8
0
  5
668
 10
-21.0500
 20
46.9212
 30
0.000000
  70
    32
  0
VERTEX
  8
0
  5
669
 10
-21.1438
 20
46.9062
 30
0.000000
  70
    32
  0
VERTEX
  8
0
  5
66A
 10
-21.2372
 20
46.8901
 30
0.000000
  70
    32
  0
VERTEX
  8
0
  5
66B
 10
-21.3302
 20
46.8726
 30
0.000000
  70
    32
  0
VERTEX
  8
0
  5
66C
 10
-21.4226
 20
46.8539
 30
0.000000
  70
    32
  0
VERTEX
  8
0
  5
66D
 10
-21.5145
 20
46.8339
 30
0.000000
  70
    32
  0
VERTEX
  8
0
  5
66E
 10
-21.6059
 20
46.8127
 30
0.000000
  70
    32
  0
VERTEX
  8
0
  5
66F
 10
-21.6967
 20
46.7902
 30
0.000000
  70
    32
  0
VERTEX
  8
0
  5
670
 10
-21.7868
 20
46.7665
 30
0.000000
  70
    32
  0
VERTEX
  8
0
  5
671
 10
-21.8763
 20
46.7416
 30
0.000000
  70
    32
  0
VERTEX
  8
0
  5
672
 10
-21.9651
 20
46.7155
 30
0.000000
  70
    32
  0
VERTEX
  8
0
  5
673
 10
-22.0531
 20
46.6882
 30
0.000000
  70
    32
  0
VERTEX
  8
0
  5
674
 10
-22.1404
 20
46.6597
 30
0.000000
  70
    32
  0
VERTEX
  8
0
  5
675
 10
-22.2269
 20
46.6300
 30
0.000000
  70
    32
  0
VERTEX
  8
0
  5
676
 10
-22.3126
 20
46.5991
 30
0.000000
  70
    32
  0
VERTEX
  8
0
  5
677
 10
-22.3975
 20
46.5671
 30
0.000000
  70
    32
  0
VERTEX
  8
0
  5
678
 10
-22.4814
 20
46.5339
 30
0.000000
  70
    32
  0
VERTEX
  8
0
  5
679
 10
-22.5644
 20
46.4996
 30
0.000000
  70
    32
  0
VERTEX
  8
0
  5
67A
 10
-22.6465
 20
46.4641
 30
0.000000
  70
    32
  0
VERTEX
  8
0
  5
67B
 10
-22.7276
 20
46.4276
 30
0.000000
  70
    32
  0
VERTEX
  8
0
  5
67C
 10
-22.8077
 20
46.3899
 30
0.000000
  70
    32
  0
VERTEX
  8
0
  5
67D
 10
-22.8868
 20
46.3512
 30
0.000000
  70
    32
  0
VERTEX
  8
0
  5
67E
 10
-22.9647
 20
46.3114
 30
0.000000
  70
    32
  0
VERTEX
  8
0
  5
67F
 10
-23.0416
 20
46.2706
 30
0.000000
  70
    32
  0
VERTEX
  8
0
  5
680
 10
-23.1174
 20
46.2287
 30
0.000000
  70
    32
  0
VERTEX
  8
0
  5
681
 10
-23.1920
 20
46.1858
 30
0.000000
  70
    32
  0
VERTEX
  8
0
  5
682
 10
-23.2654
 20
46.1419
 30
0.000000
  70
    32
  0
VERTEX
  8
0
  5
683
 10
-23.3376
 20
46.0970
 30
0.000000
  70
    32
  0
VERTEX
  8
0
  5
684
 10
-23.4086
 20
46.0511
 30
0.000000
  70
    32
  0
VERTEX
  8
0
  5
685
 10
-23.4783
 20
46.0043
 30
0.000000
  70
    32
  0
VERTEX
  8
0
  5
686
 10
-23.5468
 20
45.9565
 30
0.000000
  70
    32
  0
VERTEX
  8
0
  5
687
 10
-23.6139
 20
45.9078
 30
0.000000
  70
    32
  0
VERTEX
  8
0
  5
688
 10
-23.6797
 20
45.8582
 30
0.000000
  70
    32
  0
VERTEX
  8
0
  5
689
 10
-23.7441
 20
45.8077
 30
0.000000
  70
    32
  0
VERTEX
  8
0
  5
68A
 10
-23.8072
 20
45.7564
 30
0.000000
  70
    32
  0
VERTEX
  8
0
  5
68B
 10
-23.8688
 20
45.7042
 30
0.000000
  70
    32
  0
VERTEX
  8
0
  5
68C
 10
-23.9290
 20
45.6511
 30
0.000000
  70
    32
  0
VERTEX
  8
0
  5
68D
 10
-23.9877
 20
45.5973
 30
0.000000
  70
    32
  0
VERTEX
  8
0
  5
68E
 10
-24.0450
 20
45.5427
 30
0.000000
  70
    32
  0
VERTEX
  8
0
  5
68F
 10
-24.1008
 20
45.4873
 30
0.000000
  70
    32
  0
VERTEX
  8
0
  5
690
 10
-24.1550
 20
45.4311
 30
0.000000
  70
    32
  0
VERTEX
  8
0
  5
691
 10
-24.2078
 20
45.3743
 30
0.000000
  70
    32
  0
VERTEX
  8
0
  5
692
 10
-24.2589
 20
45.3167
 30
0.000000
  70
    32
  0
VERTEX
  8
0
  5
693
 10
-24.3085
 20
45.2584
 30
0.000000
  70
    32
  0
VERTEX
  8
0
  5
694
 10
-24.3565
 20
45.1995
 30
0.000000
  70
    32
  0
VERTEX
  8
0
  5
695
 10
-24.4029
 20
45.1399
 30
0.000000
  70
    32
  0
VERTEX
  8
0
  5
696
 10
-24.4477
 20
45.0797
 30
0.000000
  70
    32
  0
VERTEX
  8
0
  5
697
 10
-24.4908
 20
45.0190
 30
0.000000
  70
    32
  0
VERTEX
  8
0
  5
698
 10
-24.5322
 20
44.9576
 30
0.000000
  70
    32
  0
VERTEX
  8
0
  5
699
 10
-24.5720
 20
44.8957
 30
0.000000
  70
    32
  0
VERTEX
  8
0
  5
69A
 10
-24.6101
 20
44.8332
 30
0.000000
  70
    32
  0
VERTEX
  8
0
  5
69B
 10
-24.6465
 20
44.7703
 30
0.000000
  70
    32
  0
VERTEX
  8
0
  5
69C
 10
-24.6811
 20
44.7069
 30
0.000000
  70
    32
  0
VERTEX
  8
0
  5
69D
 10
-24.7140
 20
44.6430
 30
0.000000
  70
    32
  0
SEQEND
  8
0
  5
69E
  0
LINE
  5
42
  8
0
 10
-10.218313667550539
 20
20.760185102911919
 30
0.0
 11
-5.9653188754886051
 21
60.14418220538721
 31
0.0
  0
ARC
  5
43
  8
0
 10
0.0000000000001137
 20
59.499999999999879
 30
0.0
 40
6.0
 50
6.1633666548292974
 51
173.8366333451707
  0
LINE
  5
44
  8
0
 10
10.21831366755077
 20
20.760185102911919
 30
0.0
 11
5.9653188754888333
 21
60.14418220538721
 31
0.0
  0
LINE
  5
45
  8
0
 10
10.21831366755066
 20
20.760185102911919
 30
0.0
 11
30.000000000000231
 21
22.839324117149658
 31
0.0
  0
POLYLINE
  5
46
  8
0
 10
24.714045207910313
 20
44.642977396045147
 30
0.0
 66
     1
 70
     8
  0
VERTEX
  8
0
  5
69F
 10
24.7140
 20
44.6430
 30
0.000000
  70
    32
  0
VERTEX
  8
0
  5
6A0
 10
24.6811
 20
44.7069
 30
0.000000
  70
    32
  0
VERTEX
  8
0
  5
6A1
 10
24.6465
 20
44.7703
 30
0.000000
  70
    32
  0
VERTEX
  8
0
  5
6A2
 10
24.6101
 20
44.8332
 30
0.000000
  70
    32
  0
VERTEX
  8
0
  5
6A3
 10
24.5720
 20
44.8957
 30
0.000000
  70
    32
  0
VERTEX
  8
0
  5
6A4
 10
24.5322
 20
44.9576
 30
0.000000
  70
    32
  0
VERTEX
  8
0
  5
6A5
 10
24.4908
 20
45.0190
 30
0.000000
  70
    32
  0
VERTEX
  8
0
  5
6A6
 10
24.4477
 20
45.0797
 30
0.000000
  70
    32
  0
VERTEX
  8
0
  5
6A7
 10
24.4029
 20
45.1399
 30
0.000000
  70
    32
  0
VERTEX
  8
0
  5
6A8
 10
24.3565
 20
45.1995
 30
0.000000
  70
    32
  0
VERTEX
  8
0
  5
6A9
 10
24.3085
 20
45.2584
 30
0.000000
  70
    32
  0
VERTEX
  8
0
  5
6AA
 10
24.2589
 20
45.3167
 30
0.000000
  70
    32
  0
VERTEX
  8
0
  5
6AB
 10
24.2078
 20
45.3743
 30
0.000000
  70
    32
  0
VERTEX
  8
0
  5
6AC
 10
24.1550
 20
45.4311
 30
0.000000
  70
    32
  0
VERTEX
  8
0
  5
6AD
 10
24.1008
 20
45.4873
 30
0.000000
  70
    32
  0
VERTEX
  8
0
  5
6AE
 10
24.0450
 20
45.5427
 30
0.000000
  70
    32
  0
VERTEX
  8
0
  5
6AF
 10
23.9877
 20
45.5973
 30
0.000000
  70
    32
  0
VERTEX
  8
0
  5
6B0
 10
23.9290
 20
45.6511
 30
0.000000
  70
    32
  0
VERTEX
  8
0
  5
6B1
 10
23.8688
 20
45.7042
 30
0.000000
  70
    32
  0
VERTEX
  8
0
  5
6B2
 10
23.8072
 20
45.7564
 30
0.000000
  70
    32
  0
VERTEX
  8
0
  5
6B3
 10
23.7441
 20
45.8077
 30
0.000000
  70
    32
  0
VERTEX
  8
0
  5
6B4
 10
23.6797
 20
45.8582
 30
0.000000
  70
    32
  0
VERTEX
  8
0
  5
6B5
 10
23.6139
 20
45.9078
 30
0.000000
  70
    32
  0
VERTEX
  8
0
  5
6B6
 10
23.5468
 20
45.9565
 30
0.000000
  70
    32
  0
VERTEX
  8
0
  5
6B7
 10
23.4783
 20
46.0043
 30
0.000000
  70
    32
  0
VERTEX
  8
0
  5
6B8
 10
23.4086
 20
46.0511
 30
0.000000
  70
    32
  0
VERTEX
  8
0
  5
6B9
 10
23.3376
 20
46.0970
 30
0.000000
  70
    32
  0
VERTEX
  8
0
  5
6BA
 10
23.2654
 20
46.1419
 30
0.000000
  70
    32
  0
VERTEX
  8
0
  5
6BB
 10
23.1920
 20
46.1858
 30
0.000000
  70
    32
  0
VERTEX
  8
0
  5
6BC
 10
23.1174
 20
46.2287
 30
0.000000
  70
    32
  0
VERTEX
  8
0
  5
6BD
 10
23.0416
 20
46.2706
 30
0.000000
  70
    32
  0
VERTEX
  8
0
  5
6BE
 10
22.9647
 20
46.3114
 30
0.000000
  70
    32
  0
VERTEX
  8
0
  5
6BF
 10
22.8868
 20
46.3512
 30
0.000000
  70
    32
  0
VERTEX
  8
0
  5
6C0
 10
22.8077
 20
46.3899
 30
0.000000
  70
    32
  0
VERTEX
  8
0
  5
6C1
 10
22.7276
 20
46.4276
 30
0.000000
  70
    32
  0
VERTEX
  8
0
  5
6C2
 10
22.6465
 20
46.4641
 30
0.000000
  70
    32
  0
VERTEX
  8
0
  5
6C3
 10
22.5644
 20
46.4996
 30
0.000000
  70
    32
  0
VERTEX
  8
0
  5
6C4
 10
22.4814
 20
46.5339
 30
0.000000
  70
    32
  0
VERTEX
  8
0
  5
6C5
 10
22.3975
 20
46.5671
 30
0.000000
  70
    32
  0
VERTEX
  8
0
  5
6C6
 10
22.3126
 20
46.5991
 30
0.000000
  70
    32
  0
VERTEX
  8
0
  5
6C7
 10
22.2269
 20
46.6300
 30
0.000000
  70
    32
  0
VERTEX
  8
0
  5
6C8
 10
22.1404
 20
46.6597
 30
0.000000
  70
    32
  0
VERTEX
  8
0
  5
6C9
 10
22.0531
 20
46.6882
 30
0.000000
  70
    32
  0
VERTEX
  8
0
  5
6CA
 10
21.9651
 20
46.7155
 30
0.000000
  70
    32
  0
VERTEX
  8
0
  5
6CB
 10
21.8763
 20
46.7416
 30
0.000000
  70
    32
  0
VERTEX
  8
0
  5
6CC
 10
21.7868
 20
46.7665
 30
0.000000
  70
    32
  0
VERTEX
  8
0
  5
6CD
 10
21.6967
 20
46.7902
 30
0.000000
  70
    32
  0
VERTEX
  8
0
  5
6CE
 10
21.6059
 20
46.8127
 30
0.000000
  70
    32
  0
VERTEX
  8
0
  5
6CF
 10
21.5145
 20
46.8339
 30
0.000000
  70
    32
  0
VERTEX
  8
0
  5
6D0
 10
21.4226
 20
46.8539
 30
0.000000
  70
    32
  0
VERTEX
  8
0
  5
6D1
 10
21.3302
 20
46.8726
 30
0.000000
  70
    32
  0
VERTEX
  8
0
  5
6D2
 10
21.2372
 20
46.8901
 30
0.000000
  70
    32
  0
VERTEX
  8
0
  5
6D3
 10
21.1438
 20
46.9062
 30
0.000000
  70
    32
  0
VERTEX
  8
0
  5
6D4
 10
21.0500
 20
46.9212
 30
0.000000
  70
    32
  0
VERTEX
  8
0
  5
6D5
 10
20.9558
 20
46.9348
 30
0.000000
  70
    32
  0
VERTEX
  8
0
  5
6D6
 10
20.8612
 20
46.9472
 30
0.000000
  70
    32
  0
VERTEX
  8
0
  5
6D7
 10
20.7663
 20
46.9582
 30
0.000000
  70
    32
  0
VERTEX
  8
0
  5
6D8
 10
20.6711
 20
46.9680
 30
0.000000
  70
    32
  0
VERTEX
  8
0
  5
6D9
 10
20.5757
 20
46.9765
 30
0.000000
  70
    32
  0
VERTEX
  8
0
  5
6DA
 10
20.4801
 20
46.9837
 30
0.000000
  70
    32
  0
VERTEX
  8
0
  5
6DB
 10
20.3843
 20
46.9895
 30
0.000000
  70
    32
  0
VERTEX
  8
0
  5
6DC
 10
20.2883
 20
46.9941
 30
0.000000
  70
    32
  0
VERTEX
  8
0
  5
6DD
 10
20.1923
 20
46.9974
 30
0.000000
  70
    32
  0
VERTEX
  8
0
  5
6DE
 10
20.0962
 20
46.9993
 30
0.000000
  70
    32
  0
VERTEX
  8
0
  5
6DF
 10
20.0000
 20
47.0000
 30
0.000000
  70
    32
  0
VERTEX
  8
0
  5
6E0
 10
19.9038
 20
46.9993
 30
0.000000
  70
    32
  0
VERTEX
  8
0
  5
6E1
 10
19.8077
 20
46.9974
 30
0.000000
  70
    32
  0
VERTEX
  8
0
  5
6E2
 10
19.7117
 20
46.9941
 30
0.000000
  70
    32
  0
VERTEX
  8
0
  5
6E3
 10
19.6157
 20
46.9895
 30
0.000000
  70
    32
  0
VERTEX
  8
0
  5
6E4
 10
19.5199
 20
46.9837
 30
0.000000
  70
    32
  0
VERTEX
  8
0
  5
6E5
 10
19.4243
 20
46.9765
 30
0.000000
  70
    32
  0
VERTEX
  8
0
  5
6E6
 10
19.3289
 20
46.9680
 30
0.000000
  70
    32
  0
VERTEX
  8
0
  5
6E7
 10
19.2337
 20
46.9582
 30
0.000000
  70
    32
  0
VERTEX
  8
0
  5
6E8
 10
19.1388
 20
46.9472
 30
0.000000
  70
    32
  0
VERTEX
  8
0
  5
6E9
 10
19.0442
 20
46.9348
 30
0.000000
  70
    32
  0
VERTEX
  8
0
  5
6EA
 10
18.9500
 20
46.9212
 30
0.000000
  70
    32
  0
VERTEX
  8
0
  5
6EB
 10
18.8562
 20
46.9062
 30
0.000000
  70
    32
  0
VERTEX
  8
0
  5
6EC
 10
18.7628
 20
46.8901
 30
0.000000
  70
    32
  0
VERTEX
  8
0
  5
6ED
 10
18.6698
 20
46.8726
 30
0.000000
  70
    32
  0
VERTEX
  8
0
  5
6EE
 10
18.5774
 20
46.8539
 30
0.000000
  70
    32
  0
VERTEX
  8
0
  5
6EF
 10
18.4855
 20
46.8339
 30
0.000000
  70
    32
  0
VERTEX
  8
0
  5
6F0
 10
18.3941
 20
46.8127
 30
0.000000
  70
    32
  0
VERTEX
  8
0
  5
6F1
 10
18.3033
 20
46.7902
 30
0.000000
  70
    32
  0
VERTEX
  8
0
  5
6F2
 10
18.2132
 20
46.7665
 30
0.000000
  70
    32
  0
VERTEX
  8
0
  5
6F3
 10
18.1237
 20
46.7416
 30
0.000000
  70
    32
  0
VERTEX
  8
0
  5
6F4
 10
18.0349
 20
46.7155
 30
0.000000
  70
    32
  0
VERTEX
  8
0
  5
6F5
 10
17.9469
 20
46.6882
 30
0.000000
  70
    32
  0
VERTEX
  8
0
  5
6F6
 10
17.8596
 20
46.6597
 30
0.000000
  70
    32
  0
VERTEX
  8
0
  5
6F7
 10
17.7731
 20
46.6300
 30
0.000000
  70
    32
  0
VERTEX
  8
0
  5
6F8
 10
17.6874
 20
46.5991
 30
0.000000
  70
    32
  0
VERTEX
  8
0
  5
6F9
 10
17.6025
 20
46.5671
 30
0.000000
  70
    32
  0
VERTEX
  8
0
  5
6FA
 10
17.5186
 20
46.5339
 30
0.000000
  70
    32
  0
VERTEX
  8
0
  5
6FB
 10
17.4356
 20
46.4996
 30
0.000000
  70
    32
  0
VERTEX
  8
0
  5
6FC
 10
17.3535
 20
46.4641
 30
0.000000
  70
    32
  0
VERTEX
  8
0
  5
6FD
 10
17.2724
 20
46.4276
 30
0.000000
  70
    32
  0
VERTEX
  8
0
  5
6FE
 10
17.1923
 20
46.3899
 30
0.000000
  70
    32
  0
VERTEX
  8
0
  5
6FF
 10
17.1132
 20
46.3512
 30
0.000000
  70
    32
  0
VERTEX
  8
0
  5
700
 10
17.0353
 20
46.3114
 30
0.000000
  70
    32
  0
VERTEX
  8
0
  5
701
 10
16.9584
 20
46.2706
 30
0.000000
  70
    32
  0
VERTEX
  8
0
  5
702
 10
16.8826
 20
46.2287
 30
0.000000
  70
    32
  0
VERTEX
  8
0
  5
703
 10
16.8080
 20
46.1858
 30
0.000000
  70
    32
  0
VERTEX
  8
0
  5
704
 10
16.7346
 20
46.1419
 30
0.000000
  70
    32
  0
VERTEX
  8
0
  5
705
 10
16.6624
 20
46.0970
 30
0.000000
  70
    32
  0
VERTEX
  8
0
  5
706
 10
16.5914
 20
46.0511
 30
0.000000
  70
    32
  0
VERTEX
  8
0
  5
707
 10
16.5217
 20
46.0043
 30
0.000000
  70
    32
  0
VERTEX
  8
0
  5
708
 10
16.4532
 20
45.9565
 30
0.000000
  70
    32
  0
VERTEX
  8
0
  5
709
 10
16.3861
 20
45.9078
 30
0.000000
  70
    32
  0
VERTEX
  8
0
  5
70A
 10
16.3203
 20
45.8582
 30
0.000000
  70
    32
  0
VERTEX
  8
0
  5
70B
 10
16.2559
 20
45.8077
 30
0.000000
  70
    32
  0
VERTEX
  8
0
  5
70C
 10
16.1928
 20
45.7564
 30
0.000000
  70
    32
  0
VERTEX
  8
0
  5
70D
 10
16.1312
 20
45.7042
 30
0.000000
  70
    32
  0
VERTEX
  8
0
  5
70E
 10
16.0710
 20
45.6511
 30
0.000000
  70
    32
  0
VERTEX
  8
0
  5
70F
 10
16.0123
 20
45.5973
 30
0.000000
  70
    32
  0
VERTEX
  8
0
  5
710
 10
15.9550
 20
45.5427
 30
0.000000
  70
    32
  0
VERTEX
  8
0
  5
711
 10
15.8992
 20
45.4873
 30
0.000000
  70
    32
  0
VERTEX
  8
0
  5
712
 10
15.8450
 20
45.4311
 30
0.000000
  70
    32
  0
VERTEX
  8
0
  5
713
 10
15.7922
 20
45.3743
 30
0.000000
  70
    32
  0
VERTEX
  8
0
  5
714
 10
15.7411
 20
45.3167
 30
0.000000
  70
    32
  0
VERTEX
  8
0
  5
715
 10
15.6915
 20
45.2584
 30
0.000000
  70
    32
  0
VERTEX
  8
0
  5
716
 10
15.6435
 20
45.1995
 30
0.000000
  70
    32
  0
VERTEX
  8
0
  5
717
 10
15.5971
 20
45.1399
 30
0.000000
  70
    32
  0
VERTEX
  8
0
  5
718
 10
15.5523
 20
45.0797
 30
0.000000
  70
    32
  0
VERTEX
  8
0
  5
719
 10
15.5092
 20
45.0190
 30
0.000000
  70
    32
  0
VERTEX
  8
0
  5
71A
 10
15.4678
 20
44.9576
 30
0.000000
  70
    32
  0
VERTEX
  8
0
  5
71B
 10
15.4280
 20
44.8957
 30
0.000000
  70
    32
  0
VERTEX
  8
0
  5
71C
 10
15.3899
 20
44.8332
 30
0.000000
  70
    32
  0
VERTEX
  8
0
  5
71D
 10
15.3535
 20
44.7703
 30
0.000000
  70
    32
  0
VERTEX
  8
0
  5
71E
 10
15.3189
 20
44.7069
 30
0.000000
  70
    32
  0
VERTEX
  8
0
  5
71F
 10
15.2860
 20
44.6430
 30
0.000000
  70
    32
  0
SEQEND
  8
0
  5
720
  0
POLYLINE
  5
47
  8
0
 10
22.50000000000011
 20
41.696699141101099
 30
0.0
 66
     1
 70
     8
  0
VERTEX
  8
0
  5
721
 10
22.5000
 20
41.6967
 30
0.000000
  70
    32
  0
VERTEX
  8
0
  5
722
 10
22.4970
 20
41.7834
 30
0.000000
  70
    32
  0
VERTEX
  8
0
  5
723
 10
22.4880
 20
41.8700
 30
0.000000
  70
    32
  0
VERTEX
  8
0
  5
724
 10
22.4729
 20
41.9561
 30
0.000000
  70
    32
  0
VERTEX
  8
0
  5
725
 10
22.4520
 20
42.0416
 30
0.000000
  70
    32
  0
VERTEX
  8
0
  5
726
 10
22.4251
 20
42.1262
 30
0.000000
  70
    32
  0
VERTEX
  8
0
  5
727
 10
22.3924
 20
42.2099
 30
0.000000
  70
    32
  0
VERTEX
  8
0
  5
728
 10
22.3539
 20
42.2922
 30
0.000000
  70
    32
  0
VERTEX
  8
0
  5
729
 10
22.3097
 20
42.3732
 30
0.000000
  70
    32
  0
VERTEX
  8
0
  5
72A
 10
22.2600
 20
42.4525
 30
0.000000
  70
    32
  0
VERTEX
  8
0
  5
72B
 10
22.2048
 20
42.5300
 30
0.000000
  70
    32
  0
VERTEX
  8
0
  5
72C
 10
22.1443
 20
42.6055
 30
0.000000
  70
    32
  0
VERTEX
  8
0
  5
72D
 10
22.0787
 20
42.6788
 30
0.000000
  70
    32
  0
VERTEX
  8
0
  5
72E
 10
22.0080
 20
42.7498
 30
0.000000
  70
    32
  0
VERTEX
  8
0
  5
72F
 10
21.9325
 20
42.8182
 30
0.000000
  70
    32
  0
VERTEX
  8
0
  5
730
 10
21.8524
 20
42.8839
 30
0.000000
  70
    32
  0
VERTEX
  8
0
  5
731
 10
21.7678
 20
42.9467
 30
0.000000
  70
    32
  0
VERTEX
  8
0
  5
732
 10
21.6789
 20
43.0065
 30
0.000000
  70
    32
  0
VERTEX
  8
0
  5
733
 10
21.5860
 20
43.0632
 30
0.000000
  70
    32
  0
VERTEX
  8
0
  5
734
 10
21.4892
 20
43.1166
 30
0.000000
  70
    32
  0
VERTEX
  8
0
  5
735
 10
21.3889
 20
43.1665
 30
0.000000
  70
    32
  0
VERTEX
  8
0
  5
736
 10
21.2853
 20
43.2130
 30
0.000000
  70
    32
  0
VERTEX
  8
0
  5
737
 10
21.1785
 20
43.2557
 30
0.000000
  70
    32
  0
VERTEX
  8
0
  5
738
 10
21.0689
 20
43.2947
 30
0.000000
  70
    32
  0
VERTEX
  8
0
  5
739
 10
20.9567
 20
43.3299
 30
0.000000
  70
    32
  0
VERTEX
  8
0
  5
73A
 10
20.8422
 20
43.3611
 30
0.000000
  70
    32
  0
VERTEX
  8
0
  5
73B
 10
20.7257
 20
43.3883
 30
0.000000
  70
    32
  0
VERTEX
  8
0
  5
73C
 10
20.6075
 20
43.4115
 30
0.000000
  70
    32
  0
VERTEX
  8
0
  5
73D
 10
20.4877
 20
43.4305
 30
0.000000
  70
    32
  0
VERTEX
  8
0
  5
73E
 10
20.3668
 20
43.4453
 30
0.000000
  70
    32
  0
VERTEX
  8
0
  5
73F
 10
20.2450
 20
43.4560
 30
0.000000
  70
    32
  0
VERTEX
  8
0
  5
740
 10
20.1227
 20
43.4623
 30
0.000000
  70
    32
  0
VERTEX
  8
0
  5
741
 10
20.0000
 20
43.4645
 30
0.000000
  70
    32
  0
VERTEX
  8
0
  5
742
 10
19.8773
 20
43.4623
 30
0.000000
  70
    32
  0
VERTEX
  8
0
  5
743
 10
19.7550
 20
43.4560
 30
0.000000
  70
    32
  0
VERTEX
  8
0
  5
744
 10
19.6332
 20
43.4453
 30
0.000000
  70
    32
  0
VERTEX
  8
0
  5
745
 10
19.5123
 20
43.4305
 30
0.000000
  70
    32
  0
VERTEX
  8
0
  5
746
 10
19.3925
 20
43.4115
 30
0.000000
  70
    32
  0
VERTEX
  8
0
  5
747
 10
19.2743
 20
43.3883
 30
0.000000
  70
    32
  0
VERTEX
  8
0
  5
748
 10
19.1578
 20
43.3611
 30
0.000000
  70
    32
  0
VERTEX
  8
0
  5
749
 10
19.0433
 20
43.3299
 30
0.000000
  70
    32
  0
VERTEX
  8
0
  5
74A
 10
18.9311
 20
43.2947
 30
0.000000
  70
    32
  0
VERTEX
  8
0
  5
74B
 10
18.8215
 20
43.2557
 30
0.000000
  70
    32
  0
VERTEX
  8
0
  5
74C
 10
18.7147
 20
43.2130
 30
0.000000
  70
    32
  0
VERTEX
  8
0
  5
74D
 10
18.6111
 20
43.1665
 30
0.000000
  70
    32
  0
VERTEX
  8
0
  5
74E
 10
18.5108
 20
43.1166
 30
0.000000
  70
    32
  0
VERTEX
  8
0
  5
74F
 10
18.4140
 20
43.0632
 30
0.000000
  70
    32
  0
VERTEX
  8
0
  5
750
 10
18.3211
 20
43.0065
 30
0.000000
  70
    32
  0
VERTEX
  8
0
  5
751
 10
18.2322
 20
42.9467
 30
0.000000
  70
    32
  0
VERTEX
  8
0
  5
752
 10
18.1476
 20
42.8839
 30
0.000000
  70
    32
  0
VERTEX
  8
0
  5
753
 10
18.0675
 20
42.8182
 30
0.000000
  70
    32
  0
VERTEX
  8
0
  5
754
 10
17.9920
 20
42.7498
 30
0.000000
  70
    32
  0
VERTEX
  8
0
  5
755
 10
17.9213
 20
42.6788
 30
0.000000
  70
    32
  0
VERTEX
  8
0
  5
756
 10
17.8557
 20
42.6055
 30
0.000000
  70
    32
  0
VERTEX
  8
0
  5
757
 10
17.7952
 20
42.5300
 30
0.000000
  70
    32
  0
VERTEX
  8
0
  5
758
 10
17.7400
 20
42.4525
 30
0.000000
  70
    32
  0
VERTEX
  8
0
  5
759
 10
17.6903
 20
42.3732
 30
0.000000
  70
    32
  0
VERTEX
  8
0
  5
75A
 10
17.6461
 20
42.2922
 30
0.000000
  70
    32
  0
VERTEX
  8
0
  5
75B
 10
17.6076
 20
42.2099
 30
0.000000
  70
    32
  0
VERTEX
  8
0
  5
75C
 10
17.5749
 20
42.1262
 30
0.000000
  70
    32
  0
VERTEX
  8
0
  5
75D
 10
17.5480
 20
42.0416
 30
0.000000
  70
    32
  0
VERTEX
  8
0
  5
75E
 10
17.5271
 20
41.9561
 30
0.000000
  70
    32
  0
VERTEX
  8
0
  5
75F
 10
17.5120
 20
41.8700
 30
0.000000
  70
    32
  0
VERTEX
  8
0
  5
760
 10
17.5030
 20
41.7834
 30
0.000000
  70
    32
  0
VERTEX
  8
0
  5
761
 10
17.5000
 20
41.6967
 30
0.000000
  70
    32
  0
VERTEX
  8
0
  5
762
 10
17.5030
 20
41.6100
 30
0.000000
  70
    32
  0
VERTEX
  8
0
  5
763
 10
17.5120
 20
41.5234
 30
0.000000
  70
    32
  0
VERTEX
  8
0
  5
764
 10
17.5271
 20
41.4373
 30
0.000000
  70
    32
  0
VERTEX
  8
0
  5
765
 10
17.5480
 20
41.3518
 30
0.000000
  70
    32
  0
VERTEX
  8
0
  5
766
 10
17.5749
 20
41.2672
 30
0.000000
  70
    32
  0
VERTEX
  8
0
  5
767
 10
17.6076
 20
41.1835
 30
0.000000
  70
    32
  0
VERTEX
  8
0
  5
768
 10
17.6461
 20
41.1012
 30
0.000000
  70
    32
  0
VERTEX
  8
0
  5
769
 10
17.6903
 20
41.0202
 30
0.000000
  70
    32
  0
VERTEX
  8
0
  5
76A
 10
17.7400
 20
40.9409
 30
0.000000
  70
    32
  0
VERTEX
  8
0
  5
76B
 10
17.7952
 20
40.8634
 30
0.000000
  70
    32
  0
VERTEX
  8
0
  5
76C
 10
17.8557
 20
40.7879
 30
0.000000
  70
    32
  0
VERTEX
  8
0
  5
76D
 10
17.9213
 20
40.7146
 30
0.000000
  70
    32
  0
VERTEX
  8
0
  5
76E
 10
17.9920
 20
40.6436
 30
0.000000
  70
    32
  0
VERTEX
  8
0
  5
76F
 10
18.0675
 20
40.5752
 30
0.000000
  70
    32
  0
VERTEX
  8
0
  5
770
 10
18.1476
 20
40.5095
 30
0.000000
  70
    32
  0
VERTEX
  8
0
  5
771
 10
18.2322
 20
40.4467
 30
0.000000
  70
    32
  0
VERTEX
  8
0
  5
772
 10
18.3211
 20
40.3869
 30
0.000000
  70
    32
  0
VERTEX
  8
0
  5
773
 10
18.4140
 20
40.3302
 30
0.000000
  70
    32
  0
VERTEX
  8
0
  5
774
 10
18.5108
 20
40.2768
 30
0.000000
  70
    32
  0
VERTEX
  8
0
  5
775
 10
18.6111
 20
40.2269
 30
0.000000
  70
    32
  0
VERTEX
  8
0
  5
776
 10
18.7147
 20
40.1804
 30
0.000000
  70
    32
  0
VERTEX
  8
0
  5
777
 10
18.8215
 20
40.1377
 30
0.000000
  70
    32
  0
VERTEX
  8
0
  5
778
 10
18.9311
 20
40.0987
 30
0.000000
  70
    32
  0
VERTEX
  8
0
  5
779
 10
19.0433
 20
40.0635
 30
0.000000
  70
    32
  0
VERTEX
  8
0
  5
77A
 10
19.1578
 20
40.0323
 30
0.000000
  70
    32
  0
VERTEX
  8
0
  5
77B
 10
19.2743
 20
40.0051
 30
0.000000
  70
    32
  0
VERTEX
  8
0
  5
77C
 10
19.3925
 20
39.9819
 30
0.000000
  70
    32
  0
VERTEX
  8
0
  5
77D
 10
19.5123
 20
39.9629
 30
0.000000
  70
    32
  0
VERTEX
  8
0
  5
77E
 10
19.6332
 20
39.9481
 30
0.000000
  70
    32
  0
VERTEX
  8
0
  5
77F
 10
19.7550
 20
39.9374
 30
0.000000
  70
    32
  0
VERTEX
  8
0
  5
780
 10
19.8773
 20
39.9311
 30
0.000000
  70
    32
  0
VERTEX
  8
0
  5
781
 10
20.0000
 20
39.9289
 30
0.000000
  70
    32
  0
VERTEX
  8
0
  5
782
 10
20.1227
 20
39.9311
 30
0.000000
  70
    32
  0
VERTEX
  8
0
  5
783
 10
20.2450
 20
39.9374
 30
0.000000
  70
    32
  0
VERTEX
  8
0
  5
784
 10
20.3668
 20
39.9481
 30
0.000000
  70
    32
  0
VERTEX
  8
0
  5
785
 10
20.4877
 20
39.9629
 30
0.000000
  70
    32
  0
VERTEX
  8
0
  5
786
 10
20.6075
 20
39.9819
 30
0.000000
  70
    32
  0
VERTEX
  8
0
  5
787
 10
20.7257
 20
40.0051
 30
0.000000
  70
    32
  0
VERTEX
  8
0
  5
788
 10
20.8422
 20
40.0323
 30
0.000000
  70
    32
  0
VERTEX
  8
0
  5
789
 10
20.9567
 20
40.0635
 30
0.000000
  70
    32
  0
VERTEX
  8
0
  5
78A
 10
21.0689
 20
40.0987
 30
0.000000
  70
    32
  0
VERTEX
  8
0
  5
78B
 10
21.1785
 20
40.1377
 30
0.000000
  70
    32
  0
VERTEX
  8
0
  5
78C
 10
21.2853
 20
40.1804
 30
0.000000
  70
    32
  0
VERTEX
  8
0
  5
78D
 10
21.3889
 20
40.2269
 30
0.000000
  70
    32
  0
VERTEX
  8
0
  5
78E
 10
21.4892
 20
40.2768
 30
0.000000
  70
    32
  0
VERTEX
  8
0
  5
78F
 10
21.5860
 20
40.3302
 30
0.000000
  70
    32
  0
VERTEX
  8
0
  5
790
 10
21.6789
 20
40.3869
 30
0.000000
  70
    32
  0
VERTEX
  8
0
  5
791
 10
21.7678
 20
40.4467
 30
0.000000
  70
    32
  0
VERTEX
  8
0
  5
792
 10
21.8524
 20
40.5095
 30
0.000000
  70
    32
  0
VERTEX
  8
0
  5
793
 10
21.9325
 20
40.5752
 30
0.000000
  70
    32
  0
VERTEX
  8
0
  5
794
 10
22.0080
 20
40.6436
 30
0.000000
  70
    32
  0
VERTEX
  8
0
  5
795
 10
22.0787
 20
40.7146
 30
0.000000
  70
    32
  0
VERTEX
  8
0
  5
796
 10
22.1443
 20
40.7879
 30
0.000000
  70
    32
  0
VERTEX
  8
0
  5
797
 10
22.2048
 20
40.8634
 30
0.000000
  70
    32
  0
VERTEX
  8
0
  5
798
 10
22.2600
 20
40.9409
 30
0.000000
  70
    32
  0
VERTEX
  8
0
  5
799
 10
22.3097
 20
41.0202
 30
0.000000
  70
    32
  0
VERTEX
  8
0
  5
79A
 10
22.3539
 20
41.1012
 30
0.000000
  70
    32
  0
VERTEX
  8
0
  5
79B
 10
22.3924
 20
41.1835
 30
0.000000
  70
    32
  0
VERTEX
  8
0
  5
79C
 10
22.4251
 20
41.2672
 30
0.000000
  70
    32
  0
VERTEX
  8
0
  5
79D
 10
22.4520
 20
41.3518
 30
0.000000
  70
    32
  0
VERTEX
  8
0
  5
79E
 10
22.4729
 20
41.4373
 30
0.000000
  70
    32
  0
VERTEX
  8
0
  5
79F
 10
22.4880
 20
41.5234
 30
0.000000
  70
    32
  0
VERTEX
  8
0
  5
7A0
 10
22.4970
 20
41.6100
 30
0.000000
  70
    32
  0
VERTEX
  8
0
  5
7A1
 10
22.5000
 20
41.6967
 30
0.000000
  70
    32
  0
SEQEND
  8
0
  5
7A2
  0
POLYLINE
  5
48
  8
0
 10
20.00000000000011
 20
54.071067811865746
 30
0.0
 66
     1
 70
     8
  0
VERTEX
  8
0
  5
7A3
 10
20.0000
 20
54.0711
 30
0.000000
  70
    32
  0
VERTEX
  8
0
  5
7A4
 10
19.7547
 20
54.0626
 30
0.000000
  70
    32
  0
VERTEX
  8
0
  5
7A5
 10
19.5099
 20
54.0370
 30
0.000000
  70
    32
  0
VERTEX
  8
0
  5
7A6
 10
19.2663
 20
53.9945
 30
0.000000
  70
    32
  0
VERTEX
  8
0
  5
7A7
 10
19.0245
 20
53.9352
 30
0.000000
  70
    32
  0
VERTEX
  8
0
  5
7A8
 10
18.7851
 20
53.8592
 30
0.000000
  70
    32
  0
VERTEX
  8
0
  5
7A9
 10
18.5486
 20
53.7666
 30
0.000000
  70
    32
  0
VERTEX
  8
0
  5
7AA
 10
18.3156
 20
53.6577
 30
0.000000
  70
    32
  0
VERTEX
  8
0
  5
7AB
 10
18.0866
 20
53.5328
 30
0.000000
  70
    32
  0
VERTEX
  8
0
  5
7AC
 10
17.8622
 20
53.3922
 30
0.000000
  70
    32
  0
VERTEX
  8
0
  5
7AD
 10
17.6430
 20
53.2361
 30
0.000000
  70
    32
  0
VERTEX
  8
0
  5
7AE
 10
17.4295
 20
53.0651
 30
0.000000
  70
    32
  0
VERTEX
  8
0
  5
7AF
 10
17.2221
 20
52.8794
 30
0.000000
  70
    32
  0
VERTEX
  8
0
  5
7B0
 10
17.0215
 20
52.6795
 30
0.000000
  70
    32
  0
VERTEX
  8
0
  5
7B1
 10
16.8280
 20
52.4660
 30
0.000000
  70
    32
  0
VERTEX
  8
0
  5
7B2
 10
16.6422
 20
52.2393
 30
0.000000
  70
    32
  0
VERTEX
  8
0
  5
7B3
 10
16.4645
 20
52.0000
 30
0.000000
  70
    32
  0
VERTEX
  8
0
  5
7B4
 10
16.2952
 20
51.7486
 30
0.000000
  70
    32
  0
VERTEX
  8
0
  5
7B5
 10
16.1349
 20
51.4858
 30
0.000000
  70
    32
  0
VERTEX
  8
0
  5
7B6
 10
15.9840
 20
51.2122
 30
0.000000
  70
    32
  0
VERTEX
  8
0
  5
7B7
 10
15.8427
 20
50.9285
 30
0.000000
  70
    32
  0
VERTEX
  8
0
  5
7B8
 10
15.7114
 20
50.6353
 30
0.000000
  70
    32
  0
VERTEX
  8
0
  5
7B9
 10
15.5904
 20
50.3333
 30
0.000000
  70
    32
  0
VERTEX
  8
0
  5
7BA
 10
15.4801
 20
50.0233
 30
0.000000
  70
    32
  0
VERTEX
  8
0
  5
7BB
 10
15.3806
 20
49.7060
 30
0.000000
  70
    32
  0
VERTEX
  8
0
  5
7BC
 10
15.2923
 20
49.3822
 30
0.000000
  70
    32
  0
VERTEX
  8
0
  5
7BD
 10
15.2153
 20
49.0526
 30
0.000000
  70
    32
  0
VERTEX
  8
0
  5
7BE
 10
15.1498
 20
48.7181
 30
0.000000
  70
    32
  0
VERTEX
  8
0
  5
7BF
 10
15.0961
 20
48.3795
 30
0.000000
  70
    32
  0
VERTEX
  8
0
  5
7C0
 10
15.0541
 20
48.0375
 30
0.000000
  70
    32
  0
VERTEX
  8
0
  5
7C1
 10
15.0241
 20
47.6931
 30
0.000000
  70
    32
  0
VERTEX
  8
0
  5
7C2
 10
15.0060
 20
47.3470
 30
0.000000
  70
    32
  0
VERTEX
  8
0
  5
7C3
 10
15.0000
 20
47.0000
 30
0.000000
  70
    32
  0
VERTEX
  8
0
  5
7C4
 10
15.0060
 20
46.6530
 30
0.000000
  70
    32
  0
VERTEX
  8
0
  5
7C5
 10
15.0241
 20
46.3069
 30
0.000000
  70
    32
  0
VERTEX
  8
0
  5
7C6
 10
15.0541
 20
45.9625
 30
0.000000
  70
    32
  0
VERTEX
  8
0
  5
7C7
 10
15.0961
 20
45.6205
 30
0.000000
  70
    32
  0
VERTEX
  8
0
  5
7C8
 10
15.1498
 20
45.2819
 30
0.000000
  70
    32
  0
VERTEX
  8
0
  5
7C9
 10
15.2153
 20
44.9474
 30
0.000000
  70
    32
  0
VERTEX
  8
0
  5
7CA
 10
15.2923
 20
44.6178
 30
0.000000
  70
    32
  0
VERTEX
  8
0
  5
7CB
 10
15.3806
 20
44.2940
 30
0.000000
  70
    32
  0
VERTEX
  8
0
  5
7CC
 10
15.4801
 20
43.9767
 30
0.000000
  70
    32
  0
VERTEX
  8
0
  5
7CD
 10
15.5904
 20
43.6667
 30
0.000000
  70
    32
  0
VERTEX
  8
0
  5
7CE
 10
15.7114
 20
43.3647
 30
0.000000
  70
    32
  0
VERTEX
  8
0
  5
7CF
 10
15.8427
 20
43.0715
 30
0.000000
  70
    32
  0
VERTEX
  8
0
  5
7D0
 10
15.9840
 20
42.7878
 30
0.000000
  70
    32
  0
VERTEX
  8
0
  5
7D1
 10
16.1349
 20
42.5142
 30
0.000000
  70
    32
  0
VERTEX
  8
0
  5
7D2
 10
16.2952
 20
42.2514
 30
0.000000
  70
    32
  0
VERTEX
  8
0
  5
7D3
 10
16.4645
 20
42.0000
 30
0.000000
  70
    32
  0
VERTEX
  8
0
  5
7D4
 10
16.6422
 20
41.7607
 30
0.000000
  70
    32
  0
VERTEX
  8
0
  5
7D5
 10
16.8280
 20
41.5340
 30
0.000000
  70
    32
  0
VERTEX
  8
0
  5
7D6
 10
17.0215
 20
41.3205
 30
0.000000
  70
    32
  0
VERTEX
  8
0
  5
7D7
 10
17.2221
 20
41.1206
 30
0.000000
  70
    32
  0
VERTEX
  8
0
  5
7D8
 10
17.4295
 20
40.9349
 30
0.000000
  70
    32
  0
VERTEX
  8
0
  5
7D9
 10
17.6430
 20
40.7639
 30
0.000000
  70
    32
  0
VERTEX
  8
0
  5
7DA
 10
17.8622
 20
40.6078
 30
0.000000
  70
    32
  0
VERTEX
  8
0
  5
7DB
 10
18.0866
 20
40.4672
 30
0.000000
  70
    32
  0
VERTEX
  8
0
  5
7DC
 10
18.3156
 20
40.3423
 30
0.000000
  70
    32
  0
VERTEX
  8
0
  5
7DD
 10
18.5486
 20
40.2334
 30
0.000000
  70
    32
  0
VERTEX
  8
0
  5
7DE
 10
18.7851
 20
40.1408
 30
0.000000
  70
    32
  0
VERTEX
  8
0
  5
7DF
 10
19.0245
 20
40.0648
 30
0.000000
  70
    32
  0
VERTEX
  8
0
  5
7E0
 10
19.2663
 20
40.0055
 30
0.000000
  70
    32
  0
VERTEX
  8
0
  5
7E1
 10
19.5099
 20
39.9630
 30
0.000000
  70
    32
  0
VERTEX
  8
0
  5
7E2
 10
19.7547
 20
39.9374
 30
0.000000
  70
    32
  0
VERTEX
  8
0
  5
7E3
 10
20.0000
 20
39.9289
 30
0.000000
  70
    32
  0
VERTEX
  8
0
  5
7E4
 10
20.2453
 20
39.9374
 30
0.000000
  70
    32
  0
VERTEX
  8
0
  5
7E5
 10
20.4901
 20
39.9630
 30
0.000000
  70
    32
  0
VERTEX
  8
0
  5
7E6
 10
20.7337
 20
40.0055
 30
0.000000
  70
    32
  0
VERTEX
  8
0
  5
7E7
 10
20.9755
 20
40.0648
 30
0.000000
  70
    32
  0
VERTEX
  8
0
  5
7E8
 10
21.2149
 20
40.1408
 30
0.000000
  70
    32
  0
VERTEX
  8
0
  5
7E9
 10
21.4514
 20
40.2334
 30
0.000000
  70
    32
  0
VERTEX
  8
0
  5
7EA
 10
21.6844
 20
40.3423
 30
0.000000
  70
    32
  0
VERTEX
  8
0
  5
7EB
 10
21.9134
 20
40.4672
 30
0.000000
  70
    32
  0
VERTEX
  8
0
  5
7EC
 10
22.1378
 20
40.6078
 30
0.000000
  70
    32
  0
VERTEX
  8
0
  5
7ED
 10
22.3570
 20
40.7639
 30
0.000000
  70
    32
  0
VERTEX
  8
0
  5
7EE
 10
22.5705
 20
40.9349
 30
0.000000
  70
    32
  0
VERTEX
  8
0
  5
7EF
 10
22.7779
 20
41.1206
 30
0.000000
  70
    32
  0
VERTEX
  8
0
  5
7F0
 10
22.9785
 20
41.3205
 30
0.000000
  70
    32
  0
VERTEX
  8
0
  5
7F1
 10
23.1720
 20
41.5340
 30
0.000000
  70
    32
  0
VERTEX
  8
0
  5
7F2
 10
23.3578
 20
41.7607
 30
0.000000
  70
    32
  0
VERTEX
  8
0
  5
7F3
 10
23.5355
 20
42.0000
 30
0.000000
  70
    32
  0
VERTEX
  8
0
  5
7F4
 10
23.7048
 20
42.2514
 30
0.000000
  70
    32
  0
VERTEX
  8
0
  5
7F5
 10
23.8651
 20
42.5142
 30
0.000000
  70
    32
  0
VERTEX
  8
0
  5
7F6
 10
24.0160
 20
42.7878
 30
0.000000
  70
    32
  0
VERTEX
  8
0
  5
7F7
 10
24.1573
 20
43.0715
 30
0.000000
  70
    32
  0
VERTEX
  8
0
  5
7F8
 10
24.2886
 20
43.3647
 30
0.000000
  70
    32
  0
VERTEX
  8
0
  5
7F9
 10
24.4096
 20
43.6667
 30
0.000000
  70
    32
  0
VERTEX
  8
0
  5
7FA
 10
24.5199
 20
43.9767
 30
0.000000
  70
    32
  0
VERTEX
  8
0
  5
7FB
 10
24.6194
 20
44.2940
 30
0.000000
  70
    32
  0
VERTEX
  8
0
  5
7FC
 10
24.7077
 20
44.6178
 30
0.000000
  70
    32
  0
VERTEX
  8
0
  5
7FD
 10
24.7847
 20
44.9474
 30
0.000000
  70
    32
  0
VERTEX
  8
0
  5
7FE
 10
24.8502
 20
45.2819
 30
0.000000
  70
    32
  0
VERTEX
  8
0
  5
7FF
 10
24.9039
 20
45.6205
 30
0.000000
  70
    32
  0
VERTEX
  8
0
  5
800
 10
24.9459
 20
45.9625
 30
0.000000
  70
    32
  0
VERTEX
  8
0
  5
801
 10
24.9759
 20
46.3069
 30
0.000000
  70
    32
  0
VERTEX
  8
0
  5
802
 10
24.9940
 20
46.6530
 30
0.000000
  70
    32
  0
VERTEX
  8
0
  5
803
 10
25.0000
 20
47.0000
 30
0.000000
  70
    32
  0
VERTEX
  8
0
  5
804
 10
24.9940
 20
47.3470
 30
0.000000
  70
    32
  0
VERTEX
  8
0
  5
805
 10
24.9759
 20
47.6931
 30
0.000000
  70
    32
  0
VERTEX
  8
0
  5
806
 10
24.9459
 20
48.0375
 30
0.000000
  70
    32
  0
VERTEX
  8
0
  5
807
 10
24.9039
 20
48.3795
 30
0.000000
  70
    32
  0
VERTEX
  8
0
  5
808
 10
24.8502
 20
48.7181
 30
0.000000
  70
    32
  0
VERTEX
  8
0
  5
809
 10
24.7847
 20
49.0526
 30
0.000000
  70
    32
  0
VERTEX
  8
0
  5
80A
 10
24.7077
 20
49.3822
 30
0.000000
  70
    32
  0
VERTEX
  8
0
  5
80B
 10
24.6194
 20
49.7060
 30
0.000000
  70
    32
  0
VERTEX
  8
0
  5
80C
 10
24.5199
 20
50.0233
 30
0.000000
  70
    32
  0
VERTEX
  8
0
  5
80D
 10
24.4096
 20
50.3333
 30
0.000000
  70
    32
  0
VERTEX
  8
0
  5
80E
 10
24.2886
 20
50.6353
 30
0.000000
  70
    32
  0
VERTEX
  8
0
  5
80F
 10
24.1573
 20
50.9285
 30
0.000000
  70
    32
  0
VERTEX
  8
0
  5
810
 10
24.0160
 20
51.2122
 30
0.000000
  70
    32
  0
VERTEX
  8
0
  5
811
 10
23.8651
 20
51.4858
 30
0.000000
  70
    32
  0
VERTEX
  8
0
  5
812
 10
23.7048
 20
51.7486
 30
0.000000
  70
    32
  0
VERTEX
  8
0
  5
813
 10
23.5355
 20
52.0000
 30
0.000000
  70
    32
  0
VERTEX
  8
0
  5
814
 10
23.3578
 20
52.2393
 30
0.000000
  70
    32
  0
VERTEX
  8
0
  5
815
 10
23.1720
 20
52.4660
 30
0.000000
  70
    32
  0
VERTEX
  8
0
  5
816
 10
22.9785
 20
52.6795
 30
0.000000
  70
    32
  0
VERTEX
  8
0
  5
817
 10
22.7779
 20
52.8794
 30
0.000000
  70
    32
  0
VERTEX
  8
0
  5
818
 10
22.5705
 20
53.0651
 30
0.000000
  70
    32
  0
VERTEX
  8
0
  5
819
 10
22.3570
 20
53.2361
 30
0.000000
  70
    32
  0
VERTEX
  8
0
  5
81A
 10
22.1378
 20
53.3922
 30
0.000000
  70
    32
  0
VERTEX
  8
0
  5
81B
 10
21.9134
 20
53.5328
 30
0.000000
  70
    32
  0
VERTEX
  8
0
  5
81C
 10
21.6844
 20
53.6577
 30
0.000000
  70
    32
  0
VERTEX
  8
0
  5
81D
 10
21.4514
 20
53.7666
 30
0.000000
  70
    32
  0
VERTEX
  8
0
  5
81E
 10
21.2149
 20
53.8592
 30
0.000000
  70
    32
  0
VERTEX
  8
0
  5
81F
 10
20.9755
 20
53.9352
 30
0.000000
  70
    32
  0
VERTEX
  8
0
  5
820
 10
20.7337
 20
53.9945
 30
0.000000
  70
    32
  0
VERTEX
  8
0
  5
821
 10
20.4901
 20
54.0370
 30
0.000000
  70
    32
  0
VERTEX
  8
0
  5
822
 10
20.2453
 20
54.0626
 30
0.000000
  70
    32
  0
VERTEX
  8
0
  5
823
 10
20.0000
 20
54.0711
 30
0.000000
  70
    32
  0
SEQEND
  8
0
  5
824
  0
POLYLINE
  5
49
  8
0
  6
HIDDEN
 62
     8
 10
18.558896429815182
 20
40.229000000000326
 30
0.0
 66
     1
 70
     8
  0
VERTEX
  8
0
  5
825
 10
18.5589
 20
40.2290
 30
0.000000
  70
    32
  0
VERTEX
  8
0
  5
826
 10
18.4681
 20
40.1443
 30
0.000000
  70
    32
  0
VERTEX
  8
0
  5
827
 10
18.3798
 20
40.0545
 30
0.000000
  70
    32
  0
VERTEX
  8
0
  5
828
 10
18.2941
 20
39.9597
 30
0.000000
  70
    32
  0
VERTEX
  8
0
  5
829
 10
18.2112
 20
39.8601
 30
0.000000
  70
    32
  0
VERTEX
  8
0
  5
82A
 10
18.1312
 20
39.7559
 30
0.000000
  70
    32
  0
VERTEX
  8
0
  5
82B
 10
18.0542
 20
39.6472
 30
0.000000
  70
    32
  0
VERTEX
  8
0
  5
82C
 10
17.9804
 20
39.5342
 30
0.000000
  70
    32
  0
VERTEX
  8
0
  5
82D
 10
17.9098
 20
39.4171
 30
0.000000
  70
    32
  0
VERTEX
  8
0
  5
82E
 10
17.8427
 20
39.2961
 30
0.000000
  70
    32
  0
VERTEX
  8
0
  5
82F
 10
17.7791
 20
39.1714
 30
0.000000
  70
    32
  0
VERTEX
  8
0
  5
830
 10
17.7190
 20
39.0431
 30
0.000000
  70
    32
  0
VERTEX
  8
0
  5
831
 10
17.6627
 20
38.9115
 30
0.000000
  70
    32
  0
VERTEX
  8
0
  5
832
 10
17.6101
 20
38.7768
 30
0.000000
  70
    32
  0
VERTEX
  8
0
  5
833
 10
17.5615
 20
38.6392
 30
0.000000
  70
    32
  0
VERTEX
  8
0
  5
834
 10
17.5167
 20
38.4990
 30
0.000000
  70
    32
  0
VERTEX
  8
0
  5
835
 10
17.4761
 20
38.3563
 30
0.000000
  70
    32
  0
VERTEX
  8
0
  5
836
 10
17.4395
 20
38.2114
 30
0.000000
  70
    32
  0
VERTEX
  8
0
  5
837
 10
17.4071
 20
38.0646
 30
0.000000
  70
    32
  0
VERTEX
  8
0
  5
838
 10
17.3788
 20
37.9160
 30
0.000000
  70
    32
  0
VERTEX
  8
0
  5
839
 10
17.3549
 20
37.7660
 30
0.000000
  70
    32
  0
VERTEX
  8
0
  5
83A
 10
17.3352
 20
37.6147
 30
0.000000
  70
    32
  0
VERTEX
  8
0
  5
83B
 10
17.3199
 20
37.4624
 30
0.000000
  70
    32
  0
VERTEX
  8
0
  5
83C
 10
17.3089
 20
37.3093
 30
0.000000
  70
    32
  0
VERTEX
  8
0
  5
83D
 10
17.3022
 20
37.1558
 30
0.000000
  70
    32
  0
VERTEX
  8
0
  5
83E
 10
17.3000
 20
37.0020
 30
0.000000
  70
    32
  0
VERTEX
  8
0
  5
83F
 10
17.3021
 20
36.8482
 30
0.000000
  70
    32
  0
VERTEX
  8
0
  5
840
 10
17.3086
 20
36.6946
 30
0.000000
  70
    32
  0
VERTEX
  8
0
  5
841
 10
17.3195
 20
36.5416
 30
0.000000
  70
    32
  0
VERTEX
  8
0
  5
842
 10
17.3348
 20
36.3893
 30
0.000000
  70
    32
  0
VERTEX
  8
0
  5
843
 10
17.3543
 20
36.2379
 30
0.000000
  70
    32
  0
VERTEX
  8
0
  5
844
 10
17.3782
 20
36.0878
 30
0.000000
  70
    32
  0
VERTEX
  8
0
  5
845
 10
17.4063
 20
35.9392
 30
0.000000
  70
    32
  0
VERTEX
  8
0
  5
846
 10
17.4386
 20
35.7923
 30
0.000000
  70
    32
  0
VERTEX
  8
0
  5
847
 10
17.4751
 20
35.6474
 30
0.000000
  70
    32
  0
VERTEX
  8
0
  5
848
 10
17.5156
 20
35.5047
 30
0.000000
  70
    32
  0
VERTEX
  8
0
  5
849
 10
17.5603
 20
35.3644
 30
0.000000
  70
    32
  0
VERTEX
  8
0
  5
84A
 10
17.6088
 20
35.2267
 30
0.000000
  70
    32
  0
VERTEX
  8
0
  5
84B
 10
17.6613
 20
35.0920
 30
0.000000
  70
    32
  0
VERTEX
  8
0
  5
84C
 10
17.7175
 20
34.9603
 30
0.000000
  70
    32
  0
VERTEX
  8
0
  5
84D
 10
17.7775
 20
34.8319
 30
0.000000
  70
    32
  0
VERTEX
  8
0
  5
84E
 10
17.8410
 20
34.7071
 30
0.000000
  70
    32
  0
VERTEX
  8
0
  5
84F
 10
17.9081
 20
34.5860
 30
0.000000
  70
    32
  0
VERTEX
  8
0
  5
850
 10
17.9785
 20
34.4688
 30
0.000000
  70
    32
  0
VERTEX
  8
0
  5
851
 10
18.0523
 20
34.3557
 30
0.000000
  70
    32
  0
VERTEX
  8
0
  5
852
 10
18.1291
 20
34.2468
 30
0.000000
  70
    32
  0
VERTEX
  8
0
  5
853
 10
18.2091
 20
34.1425
 30
0.000000
  70
    32
  0
VERTEX
  8
0
  5
854
 10
18.2919
 20
34.0428
 30
0.000000
  70
    32
  0
VERTEX
  8
0
  5
855
 10
18.3775
 20
33.9479
 30
0.000000
  70
    32
  0
VERTEX
  8
0
  5
856
 10
18.4658
 20
33.8580
 30
0.000000
  70
    32
  0
VERTEX
  8
0
  5
857
 10
18.5565
 20
33.7731
 30
0.000000
  70
    32
  0
VERTEX
  8
0
  5
858
 10
18.6496
 20
33.6935
 30
0.000000
  70
    32
  0
VERTEX
  8
0
  5
859
 10
18.7449
 20
33.6193
 30
0.000000
  70
    32
  0
VERTEX
  8
0
  5
85A
 10
18.8422
 20
33.5505
 30
0.000000
  70
    32
  0
VERTEX
  8
0
  5
85B
 10
18.9414
 20
33.4874
 30
0.000000
  70
    32
  0
VERTEX
  8
0
  5
85C
 10
19.0423
 20
33.4299
 30
0.000000
  70
    32
  0
VERTEX
  8
0
  5
85D
 10
19.1447
 20
33.3783
 30
0.000000
  70
    32
  0
VERTEX
  8
0
  5
85E
 10
19.2486
 20
33.3325
 30
0.000000
  70
    32
  0
VERTEX
  8
0
  5
85F
 10
19.3536
 20
33.2927
 30
0.000000
  70
    32
  0
VERTEX
  8
0
  5
860
 10
19.4598
 20
33.2588
 30
0.000000
  70
    32
  0
VERTEX
  8
0
  5
861
 10
19.5667
 20
33.2311
 30
0.000000
  70
    32
  0
VERTEX
  8
0
  5
862
 10
19.6744
 20
33.2095
 30
0.000000
  70
    32
  0
VERTEX
  8
0
  5
863
 10
19.7827
 20
33.1940
 30
0.000000
  70
    32
  0
VERTEX
  8
0
  5
864
 10
19.8912
 20
33.1847
 30
0.000000
  70
    32
  0
VERTEX
  8
0
  5
865
 10
20.0000
 20
33.1816
 30
0.000000
  70
    32
  0
VERTEX
  8
0
  5
866
 10
20.1088
 20
33.1847
 30
0.000000
  70
    32
  0
VERTEX
  8
0
  5
867
 10
20.2173
 20
33.1940
 30
0.000000
  70
    32
  0
VERTEX
  8
0
  5
868
 10
20.3256
 20
33.2095
 30
0.000000
  70
    32
  0
VERTEX
  8
0
  5
869
 10
20.4333
 20
33.2311
 30
0.000000
  70
    32
  0
VERTEX
  8
0
  5
86A
 10
20.5402
 20
33.2588
 30
0.000000
  70
    32
  0
VERTEX
  8
0
  5
86B
 10
20.6464
 20
33.2927
 30
0.000000
  70
    32
  0
VERTEX
  8
0
  5
86C
 10
20.7514
 20
33.3325
 30
0.000000
  70
    32
  0
VERTEX
  8
0
  5
86D
 10
20.8553
 20
33.3783
 30
0.000000
  70
    32
  0
VERTEX
  8
0
  5
86E
 10
20.9577
 20
33.4299
 30
0.000000
  70
    32
  0
VERTEX
  8
0
  5
86F
 10
21.0586
 20
33.4874
 30
0.000000
  70
    32
  0
VERTEX
  8
0
  5
870
 10
21.1578
 20
33.5505
 30
0.000000
  70
    32
  0
VERTEX
  8
0
  5
871
 10
21.2551
 20
33.6193
 30
0.000000
  70
    32
  0
VERTEX
  8
0
  5
872
 10
21.3504
 20
33.6935
 30
0.000000
  70
    32
  0
VERTEX
  8
0
  5
873
 10
21.4435
 20
33.7731
 30
0.000000
  70
    32
  0
VERTEX
  8
0
  5
874
 10
21.5342
 20
33.8580
 30
0.000000
  70
    32
  0
VERTEX
  8
0
  5
875
 10
21.6225
 20
33.9479
 30
0.000000
  70
    32
  0
VERTEX
  8
0
  5
876
 10
21.7081
 20
34.0428
 30
0.000000
  70
    32
  0
VERTEX
  8
0
  5
877
 10
21.7909
 20
34.1425
 30
0.000000
  70
    32
  0
VERTEX
  8
0
  5
878
 10
21.8709
 20
34.2468
 30
0.000000
  70
    32
  0
VERTEX
  8
0
  5
879
 10
21.9477
 20
34.3557
 30
0.000000
  70
    32
  0
VERTEX
  8
0
  5
87A
 10
22.0215
 20
34.4688
 30
0.000000
  70
    32
  0
VERTEX
  8
0
  5
87B
 10
22.0919
 20
34.5860
 30
0.000000
  70
    32
  0
VERTEX
  8
0
  5
87C
 10
22.1590
 20
34.7071
 30
0.000000
  70
    32
  0
VERTEX
  8
0
  5
87D
 10
22.2225
 20
34.8319
 30
0.000000
  70
    32
  0
VERTEX
  8
0
  5
87E
 10
22.2825
 20
34.9603
 30
0.000000
  70
    32
  0
VERTEX
  8
0
  5
87F
 10
22.3387
 20
35.0920
 30
0.000000
  70
    32
  0
VERTEX
  8
0
  5
880
 10
22.3912
 20
35.2267
 30
0.000000
  70
    32
  0
VERTEX
  8
0
  5
881
 10
22.4397
 20
35.3644
 30
0.000000
  70
    32
  0
VERTEX
  8
0
  5
882
 10
22.4844
 20
35.5047
 30
0.000000
  70
    32
  0
VERTEX
  8
0
  5
883
 10
22.5249
 20
35.6474
 30
0.000000
  70
    32
  0
VERTEX
  8
0
  5
884
 10
22.5614
 20
35.7923
 30
0.000000
  70
    32
  0
VERTEX
  8
0
  5
885
 10
22.5937
 20
35.9392
 30
0.000000
  70
    32
  0
VERTEX
  8
0
  5
886
 10
22.6218
 20
36.0878
 30
0.000000
  70
    32
  0
VERTEX
  8
0
  5
887
 10
22.6457
 20
36.2379
 30
0.000000
  70
    32
  0
VERTEX
  8
0
  5
888
 10
22.6652
 20
36.3893
 30
0.000000
  70
    32
  0
VERTEX
  8
0
  5
889
 10
22.6805
 20
36.5416
 30
0.000000
  70
    32
  0
VERTEX
  8
0
  5
88A
 10
22.6914
 20
36.6946
 30
0.000000
  70
    32
  0
VERTEX
  8
0
  5
88B
 10
22.6979
 20
36.8482
 30
0.000000
  70
    32
  0
VERTEX
  8
0
  5
88C
 10
22.7000
 20
37.0020
 30
0.000000
  70
    32
  0
VERTEX
  8
0
  5
88D
 10
22.6978
 20
37.1558
 30
0.000000
  70
    32
  0
VERTEX
  8
0
  5
88E
 10
22.6911
 20
37.3093
 30
0.000000
  70
    32
  0
VERTEX
  8
0
  5
88F
 10
22.6801
 20
37.4624
 30
0.000000
  70
    32
  0
VERTEX
  8
0
  5
890
 10
22.6648
 20
37.6147
 30
0.000000
  70
    32
  0
VERTEX
  8
0
  5
891
 10
22.6451
 20
37.7660
 30
0.000000
  70
    32
  0
VERTEX
  8
0
  5
892
 10
22.6212
 20
37.9160
 30
0.000000
  70
    32
  0
VERTEX
  8
0
  5
893
 10
22.5929
 20
38.0646
 30
0.000000
  70
    32
  0
VERTEX
  8
0
  5
894
 10
22.5605
 20
38.2114
 30
0.000000
  70
    32
  0
VERTEX
  8
0
  5
895
 10
22.5239
 20
38.3563
 30
0.000000
  70
    32
  0
VERTEX
  8
0
  5
896
 10
22.4833
 20
38.4990
 30
0.000000
  70
    32
  0
VERTEX
  8
0
  5
897
 10
22.4385
 20
38.6392
 30
0.000000
  70
    32
  0
VERTEX
  8
0
  5
898
 10
22.3899
 20
38.7768
 30
0.000000
  70
    32
  0
VERTEX
  8
0
  5
899
 10
22.3373
 20
38.9115
 30
0.000000
  70
    32
  0
VERTEX
  8
0
  5
89A
 10
22.2810
 20
39.0431
 30
0.000000
  70
    32
  0
VERTEX
  8
0
  5
89B
 10
22.2209
 20
39.1714
 30
0.000000
  70
    32
  0
VERTEX
  8
0
  5
89C
 10
22.1573
 20
39.2961
 30
0.000000
  70
    32
  0
VERTEX
  8
0
  5
89D
 10
22.0902
 20
39.4171
 30
0.000000
  70
    32
  0
VERTEX
  8
0
  5
89E
 10
22.0196
 20
39.5342
 30
0.000000
  70
    32
  0
VERTEX
  8
0
  5
89F
 10
21.9458
 20
39.6472
 30
0.000000
  70
    32
  0
VERTEX
  8
0
  5
8A0
 10
21.8688
 20
39.7559
 30
0.000000
  70
    32
  0
VERTEX
  8
0
  5
8A1
 10
21.7888
 20
39.8601
 30
0.000000
  70
    32
  0
VERTEX
  8
0
  5
8A2
 10
21.7059
 20
39.9597
 30
0.000000
  70
    32
  0
VERTEX
  8
0
  5
8A3
 10
21.6202
 20
40.0545
 30
0.000000
  70
    32
  0
VERTEX
  8
0
  5
8A4
 10
21.5319
 20
40.1443
 30
0.000000
  70
    32
  0
VERTEX
  8
0
  5
8A5
 10
21.4411
 20
40.2290
 30
0.000000
  70
    32
  0
SEQEND
  8
0
  5
8A6
  0
ARC
  5
4A
  8
0
  6
HIDDEN
 62
     8
 10
0.0000000000001137
 20
59.499999999999879
 30
0.0
 40
11.77350269189628
 50
6.2093060181963811
 51
173.7906939818036
  0
LINE
  5
4B
  8
0
  6
HIDDEN
 62
     8
 10
-15.991816359446711
 20
21.367004688147968
 30
0.0
 11
-11.70443237323968
 21
60.77343176352133
 31
0.0
  0
LINE
  5
4C
  8
0
  6
HIDDEN
 62
     8
 10
15.99181635944694
 20
21.367004688147968
 30
0.0
 11
11.704432373239911
 21
60.77343176352133
 31
0.0
  0
INSERT
  5
4D
  8
0
  2
SIMPSON-STRONG-TIE
 10
-19.616254033204449
 20
61.701367822988971
 30
0.0
  0
ENDBLK
  5
53
  8
0
  0
BLOCK
  8
0
  2
SIMPSON-STRONG-TIE
 70
     0
 10
0.0
 20
0.0
 30
0.0
  3
SIMPSON-STRONG-TIE
  1

  0
TEXT
  5
50
  8
0
  6
CONTINUOUS
 10
-4.7318727780691416
 20
4.4215860385237811
 30
0.0
 40
2.0
  1
SIMPSON
 50
316.94148639091338
  7
SST
 72
     1
 11
0.0
 21
0.0
 31
0.0
  0
TEXT
  5
51
  8
0
  6
CONTINUOUS
 10
-7.9648409725863862
 20
3.4769825481547749
 30
0.0
 40
2.0
  1
Strong-Tie
 50
316.94148639091338
  7
SST
 72
     1
 11
-2.0499999999999541
 21
-2.0499999999999541
 31
0.0
  0
ENDBLK
  5
52
  8
0
  0
ENDSEC
  0
SECTION
  2
ENTITIES
  0
INSERT
  5
2C
  8
0
  2
34709-P2-F
 10
0.0
 20
0.0
 30
0.0
  0
INSERT
  5
54
  8
0
  2
34709-P1-F
 10
0.0
 20
0.0
 30
0.0
  0
ENDSEC
  0
EOF
