  0
SECTION
  2
HEADER
  9
$ACADVER
  1
AC1009
  9
$INSBASE
 10
0.0
 20
0.0
 30
0.0
  9
$EXTMIN
 10
-32.071067811865447
 20
-2.0710678118654751
 30
0.0
  9
$EXTMAX
 10
32.071067811865483
 20
166.00000000000011
 30
0.0
  9
$LIMMIN
 10
0.0
 20
0.0
  9
$LIMMAX
 10
420.0
 20
297.0
  9
$ORTHOMODE
 70
     1
  9
$REGENMODE
 70
     1
  9
$FILLMODE
 70
     1
  9
$QTEXTMODE
 70
     0
  9
$MIRRTEXT
 70
     1
  9
$DRAGMODE
 70
     2
  9
$LTSCALE
 40
1.0
  9
$OSMODE
 70
    47
  9
$ATTMODE
 70
     1
  9
$TEXTSIZE
 40
3.5
  9
$TRACEWID
 40
0.05
  9
$TEXTSTYLE
  7
SST
  9
$CLAYER
  8
0
  9
$CELTYPE
  6
BYLAYER
  9
$CECOLOR
 62
   256
  9
$DIMSCALE
 40
2.0
  9
$DIMASZ
 40
2.0
  9
$DIMEXO
 40
1.0
  9
$DIMDLI
 40
10.0
  9
$DIMRND
 40
0.0
  9
$DIMDLE
 40
0.0
  9
$DIMEXE
 40
1.0
  9
$DIMTP
 40
0.0
  9
$DIMTM
 40
0.0
  9
$DIMTXT
 40
3.5
  9
$DIMCEN
 40
2.5
  9
$DIMTSZ
 40
0.0
  9
$DIMTOL
 70
     0
  9
$DIMLIM
 70
     0
  9
$DIMTIH
 70
     0
  9
$DIMTOH
 70
     0
  9
$DIMSE1
 70
     0
  9
$DIMSE2
 70
     0
  9
$DIMTAD
 70
     1
  9
$DIMZIN
 70
     8
  9
$DIMBLK
  1

  9
$DIMASO
 70
     1
  9
$DIMSHO
 70
     1
  9
$DIMPOST
  1

  9
$DIMAPOST
  1

  9
$DIMALT
 70
     0
  9
$DIMALTD
 70
     2
  9
$DIMALTF
 40
25.399999999999999
  9
$DIMLFAC
 40
1.0
  9
$DIMTOFL
 70
     1
  9
$DIMTVP
 40
0.0
  9
$DIMTIX
 70
     0
  9
$DIMSOXD
 70
     0
  9
$DIMSAH
 70
     0
  9
$DIMBLK1
  1

  9
$DIMBLK2
  1

  9
$DIMSTYLE
  2
STANDARD
  9
$DIMCLRD
 70
     0
  9
$DIMCLRE
 70
     0
  9
$DIMCLRT
 70
     0
  9
$DIMTFAC
 40
1.0
  9
$DIMGAP
 40
1.0
  9
$LUNITS
 70
     2
  9
$LUPREC
 70
     4
  9
$SKETCHINC
 40
0.1
  9
$FILLETRAD
 40
0.0
  9
$AUNITS
 70
     0
  9
$AUPREC
 70
     2
  9
$MENU
  1
acad
  9
$ELEVATION
 40
0.0
  9
$PELEVATION
 40
0.0
  9
$THICKNESS
 40
0.0
  9
$LIMCHECK
 70
     0
  9
$BLIPMODE
 70
     0
  9
$CHAMFERA
 40
10.0
  9
$CHAMFERB
 40
10.0
  9
$SKPOLY
 70
     0
  9
$TDCREATE
 40
2449450.3780568289
  9
$TDUPDATE
 40
2453443.5690227081
  9
$TDINDWG
 40
1.5585007985999999
  9
$TDUSRTIMER
 40
1.5585007985999999
  9
$USRTIMER
 70
     1
  9
$ANGBASE
 50
0.0
  9
$ANGDIR
 70
     0
  9
$PDMODE
 70
     0
  9
$PDSIZE
 40
0.0
  9
$PLINEWID
 40
0.0
  9
$COORDS
 70
     1
  9
$SPLFRAME
 70
     0
  9
$SPLINETYPE
 70
     6
  9
$SPLINESEGS
 70
     8
  9
$ATTDIA
 70
     0
  9
$ATTREQ
 70
     1
  9
$HANDLING
 70
     1
  9
$HANDSEED
  5
10DE
  9
$SURFTAB1
 70
     6
  9
$SURFTAB2
 70
     6
  9
$SURFTYPE
 70
     6
  9
$SURFU
 70
     6
  9
$SURFV
 70
     6
  9
$UCSNAME
  2

  9
$UCSORG
 10
0.0
 20
0.0
 30
0.0
  9
$UCSXDIR
 10
1.0
 20
0.0
 30
0.0
  9
$UCSYDIR
 10
0.0
 20
1.0
 30
0.0
  9
$PUCSNAME
  2

  9
$PUCSORG
 10
0.0
 20
0.0
 30
0.0
  9
$PUCSXDIR
 10
1.0
 20
0.0
 30
0.0
  9
$PUCSYDIR
 10
0.0
 20
1.0
 30
0.0
  9
$USERI1
 70
     0
  9
$USERI2
 70
     0
  9
$USERI3
 70
     0
  9
$USERI4
 70
     0
  9
$USERI5
 70
     0
  9
$USERR1
 40
0.0
  9
$USERR2
 40
0.0
  9
$USERR3
 40
0.0
  9
$USERR4
 40
0.0
  9
$USERR5
 40
0.0
  9
$WORLDVIEW
 70
     1
  9
$SHADEDGE
 70
     3
  9
$SHADEDIF
 70
    70
  9
$TILEMODE
 70
     1
  9
$MAXACTVP
 70
    16
  9
$PLIMCHECK
 70
     0
  9
$PEXTMIN
 10
1.0000000000000000E+020
 20
1.0000000000000000E+020
 30
1.0000000000000000E+020
  9
$PEXTMAX
 10
-1.0000000000000000E+020
 20
-1.0000000000000000E+020
 30
-1.0000000000000000E+020
  9
$PLIMMIN
 10
0.0
 20
0.0
  9
$PLIMMAX
 10
420.0
 20
297.0
  9
$UNITMODE
 70
     0
  9
$VISRETAIN
 70
     0
  9
$PLINEGEN
 70
     0
  9
$PSLTSCALE
 70
     1
  0
ENDSEC
  0
SECTION
  2
TABLES
  0
TABLE
  2
VPORT
 70
     2
  0
VPORT
  2
*ACTIVE
 70
     0
 10
0.0
 20
0.0
 11
1.0
 21
1.0
 12
0.9875305225901058
 22
76.642726193181034
 13
0.0
 23
0.0
 14
0.1
 24
0.1
 15
10.0
 25
10.0
 16
0.0
 26
0.0
 36
1.0
 17
0.0
 27
0.0
 37
0.0
 40
310.95236693760211
 41
1.4993646759847521
 42
50.0
 43
0.0
 44
0.0
 50
0.0
 51
0.0
 71
     0
 72
   100
 73
     1
 74
     1
 75
     1
 76
     0
 77
     0
 78
     0
  0
ENDTAB
  0
TABLE
  2
LTYPE
 70
     2
  0
LTYPE
  2
CONTINUOUS
 70
     0
  3
Solid line
 72
    65
 73
     0
 40
0.0
  0
LTYPE
  2
HIDDEN
 70
     0
  3
__ __ __ __ __ __ __ __ __ __ __ __ __ __ __ __
 72
    65
 73
     2
 40
0.375
 49
0.25
 49
-0.125
  0
ENDTAB
  0
TABLE
  2
LAYER
 70
     1
  0
LAYER
  2
0
 70
     0
 62
     7
  6
CONTINUOUS
  0
ENDTAB
  0
TABLE
  2
STYLE
 70
     2
  0
STYLE
  2
STANDARD
 70
     0
 40
0.0
 41
1.0
 50
0.0
 71
     0
 42
3.0
  3
txt
  4

  0
STYLE
  2
SST
 70
     0
 40
0.0
 41
1.0
 50
0.0
 71
     0
 42
3.5
  3
romans.shx
  4

  0
ENDTAB
  0
TABLE
  2
VIEW
 70
     0
  0
ENDTAB
  0
TABLE
  2
UCS
 70
     0
  0
ENDTAB
  0
TABLE
  2
APPID
 70
     2
  0
APPID
  2
ACAD
 70
     0
  0
APPID
  2
CONTENTBLOCKICON
 70
     0
  0
ENDTAB
  0
TABLE
  2
DIMSTYLE
 70
     2
  0
DIMSTYLE
  2
NORDIC
 70
     0
  3

  4

  5

  6

  7

 40
2.0
 41
2.0
 42
1.0
 43
10.0
 44
1.0
 45
0.0
 46
0.0
 47
0.0
 48
0.0
140
3.5
141
2.5
142
0.0
143
25.399999999999999
144
1.0
145
0.0
146
1.0
147
1.0
 71
     0
 72
     0
 73
     0
 74
     0
 75
     0
 76
     0
 77
     1
 78
     8
170
     0
171
     2
172
     1
173
     0
174
     0
175
     0
176
     0
177
     0
178
     0
  0
DIMSTYLE
  2
STANDARD
 70
     0
  3

  4

  5

  6

  7

 40
2.0
 41
2.0
 42
1.0
 43
10.0
 44
1.0
 45
0.0
 46
0.0
 47
0.0
 48
0.0
140
3.5
141
2.5
142
0.0
143
25.399999999999999
144
1.0
145
0.0
146
1.0
147
1.0
 71
     0
 72
     0
 73
     0
 74
     0
 75
     0
 76
     0
 77
     1
 78
     8
170
     0
171
     2
172
     1
173
     0
174
     0
175
     0
176
     0
177
     0
178
     0
  0
ENDTAB
  0
ENDSEC
  0
SECTION
  2
BLOCKS
  0
BLOCK
  8
0
  2
$MODEL_SPACE
 70
     0
 10
0.0
 20
0.0
 30
0.0
  3
$MODEL_SPACE
  1

  0
ENDBLK
  5
B
  8
0
  0
BLOCK
 67
     1
  8
0
  2
$PAPER_SPACE
 70
     0
 10
0.0
 20
0.0
 30
0.0
  3
$PAPER_SPACE
  1

  0
ENDBLK
  5
10
 67
     1
  8
0
  0
BLOCK
  8
0
  2
SIMPSON-STRONG-TIE
 70
     0
 10
0.0
 20
0.0
 30
0.0
  3
SIMPSON-STRONG-TIE
  1

  0
TEXT
  5
62
  8
0
  6
CONTINUOUS
 10
-4.7318727780691416
 20
4.4215860385237811
 30
0.0
 40
2.0
  1
SIMPSON
 50
316.94148639091338
  7
SST
 72
     1
 11
0.0
 21
0.0
 31
0.0
  0
TEXT
  5
63
  8
0
  6
CONTINUOUS
 10
-7.9648409725863862
 20
3.4769825481547749
 30
0.0
 40
2.0
  1
Strong-Tie
 50
316.94148639091338
  7
SST
 72
     1
 11
-2.0499999999999541
 21
-2.0499999999999541
 31
0.0
  0
ENDBLK
  5
64
  8
0
  0
BLOCK
  8
0
  2
34716-P1-F
 70
     0
 10
0.0
 20
0.0
 30
0.0
  3
34716-P1-F
  1

  0
LINE
  5
69
  8
0
 10
-30.0
 20
37.83932411714953
 30
0.0
 11
-29.999999999999972
 21
10.0
 31
0.0
  0
LINE
  5
6A
  8
0
 10
30.0
 20
9.9999999999999716
 30
0.0
 11
30.00000000000011
 21
37.839324117149133
 31
0.0
  0
CIRCLE
  5
6B
  8
0
 10
24.0
 20
17.499999999999979
 30
0.0
 40
2.5
  0
CIRCLE
  5
6C
  8
0
 10
-24.0
 20
17.499999999999979
 30
0.0
 40
2.5
  0
LINE
  5
6D
  8
0
 10
-19.999999999999972
 20
0.0
 30
0.0
 11
20.0
 21
0.0
 31
0.0
  0
CIRCLE
  5
6E
  8
0
 10
-14.0
 20
7.4999999999999849
 30
0.0
 40
2.5
  0
CIRCLE
  5
6F
  8
0
 10
14.0
 20
7.4999999999999849
 30
0.0
 40
2.5
  0
LINE
  5
70
  8
0
 10
-10.475400743966929
 20
40.814747441292617
 30
0.0
 11
-14.8952345100779
 21
41.27929068928124
 31
0.0
  0
LINE
  5
71
  8
0
 10
-14.8952345100779
 20
41.279290689281119
 30
0.0
 11
-9.1065886131232219
 21
94.999999999999915
 31
0.0
  0
LINE
  5
72
  8
0
 10
-11.469926054143791
 20
40.91927626347119
 30
0.0
 11
-5.6424869979857704
 21
94.999999999999872
 31
0.0
  0
ARC
  5
73
  8
0
 10
-10.74323737200859
 20
38.329127506350332
 30
0.0
 40
2.5
 50
263.84985425762812
 51
83.849854257628124
  0
LINE
  5
74
  8
0
 10
-11.011074000050369
 20
35.84350757140804
 30
0.0
 11
-30.0
 21
37.839324117149467
 31
0.0
  0
ARC
  5
75
  8
0
 10
-14.16854582794269
 20
38.689141932160382
 30
0.0
 40
2.5
 50
263.84985425762812
 51
83.849854257628124
  0
CIRCLE
  5
76
  8
0
 10
-14.0
 20
27.499999999999989
 30
0.0
 40
2.5
  0
LINE
  5
77
  8
0
 10
29.99999999999989
 20
37.839324117149133
 30
0.0
 11
11.011074000050369
 21
35.843507571407933
 31
0.0
  0
CIRCLE
  5
78
  8
0
 10
14.0
 20
27.499999999999989
 30
0.0
 40
2.5
  0
LINE
  5
79
  8
0
 10
14.89523451007824
 20
41.279290689281183
 30
0.0
 11
9.1065886131236766
 21
94.999999999999872
 31
0.0
  0
LINE
  5
7A
  8
0
 10
11.469926054143681
 20
40.91927626347119
 30
0.0
 11
5.642486997985884
 21
94.999999999999872
 31
0.0
  0
CIRCLE
  5
7B
  8
0
 10
-5.0
 20
62.499999999999993
 30
0.0
 40
2.5
  0
CIRCLE
  5
7C
  8
0
 10
5.0
 20
52.499999999999993
 30
0.0
 40
2.5
  0
CIRCLE
  5
7D
  8
0
 10
0.0
 20
37.499999999999993
 30
0.0
 40
2.5
  0
ARC
  5
7E
  8
0
 10
10.74323737200848
 20
38.329127506350282
 30
0.0
 40
2.5
 50
96.150145742368665
 51
276.15014574237517
  0
LINE
  5
7F
  8
0
 10
14.89523451007835
 20
41.279290689281119
 30
0.0
 11
10.47540074396681
 21
40.814747441292617
 31
0.0
  0
LINE
  5
80
  8
0
 10
-9.1065886131232219
 20
94.999999999999915
 30
0.0
 11
9.1065886131236766
 21
94.999999999999915
 31
0.0
  0
CIRCLE
  5
81
  8
0
 10
5.0
 20
72.499999999999915
 30
0.0
 40
2.5
  0
CIRCLE
  5
82
  8
0
 10
0.0
 20
87.499999999999915
 30
0.0
 40
2.5
  0
ARC
  5
83
  8
0
 10
14.16854582794269
 20
38.689141932160382
 30
0.0
 40
2.5
 50
96.15014574237189
 51
276.15014574237188
  0
ARC
  5
84
  8
0
 10
-19.999999999999972
 20
10.0
 30
0.0
 40
10.0
 50
180.0
 51
270.0
  0
ARC
  5
85
  8
0
 10
20.0
 20
10.0
 30
0.0
 40
10.0
 50
270.0
 51
0.0
  0
INSERT
  5
86
  8
0
  2
SIMPSON-STRONG-TIE
 10
0.9574933315373073
 20
16.673499999999951
 30
0.0
  0
ENDBLK
  5
87
  8
0
  0
BLOCK
  8
0
  2
34716-P2-F
 70
     0
 10
0.0
 20
0.0
 30
0.0
  3
34716-P2-F
  1

  0
LINE
  5
2F
  8
0
 10
-29.999999999999769
 20
166.00000000000011
 30
0.0
 11
-29.999999999999801
 21
37.839324117149559
 31
0.0
  0
LINE
  5
30
  8
0
 10
30.00000000000011
 20
37.839324117149161
 30
0.0
 11
30.000000000000231
 21
165.99999999999989
 31
0.0
  0
CIRCLE
  5
31
  8
0
 10
0.0000000000002842
 20
143.99999999999989
 30
0.0
 40
2.5
  0
CIRCLE
  5
32
  8
0
 10
0.0000000000002842
 20
143.99999999999989
 30
0.0
 40
5.0
  0
LINE
  5
33
  8
0
 10
30.00000000000011
 20
37.839324117149161
 30
0.0
 11
12.500000000000281
 21
35.999999999999837
 31
0.0
  0
ARC
  5
34
  8
0
 10
0.0000000000003979
 20
95.999999999999901
 30
0.0
 40
6.0
 50
6.1501457423719037
 51
173.8498542576281
  0
LINE
  5
35
  8
0
 10
-12.49999999999971
 20
35.999999999999837
 30
0.0
 11
-5.9654673607229247
 21
96.642805700150717
 31
0.0
  0
LINE
  5
36
  8
0
 10
12.500000000000281
 20
35.999999999999837
 30
0.0
 11
5.965467360723494
 21
96.642805700150717
 31
0.0
  0
LINE
  5
37
  8
0
 10
-12.49999999999971
 20
35.999999999999957
 30
0.0
 11
-29.999999999999801
 21
37.839324117149502
 31
0.0
  0
LINE
  5
38
  8
0
  6
HIDDEN
 62
     8
 10
-18.241891878306198
 20
36.603497154847631
 30
0.0
 11
-11.70573832857877
 21
97.261345485120643
 31
0.0
  0
ARC
  5
3A
  8
0
  6
HIDDEN
 62
     8
 10
0.0000000000003979
 20
95.999999999999901
 30
0.0
 40
11.7735
 50
6.1501457423719037
 51
173.8498542576281
  0
LINE
  5
3B
  8
0
  6
HIDDEN
 62
     8
 10
18.241891878306799
 20
36.603497154847403
 30
0.0
 11
11.70573832857934
 21
97.261345485120643
 31
0.0
  0
CIRCLE
  5
3C
  8
0
 10
0.0000000000002842
 20
118.9999999999999
 30
0.0
 40
5.0
  0
CIRCLE
  5
3D
  8
0
 10
0.0000000000002842
 20
118.9999999999999
 30
0.0
 40
2.5
  0
POLYLINE
  5
3E
  8
0
 10
-19.999999999999709
 20
60.071067811865426
 30
0.0
 66
     1
 70
     8
  0
VERTEX
  8
0
  5
9E
 10
-20.0000
 20
60.0711
 30
0.000000
  70
    32
  0
VERTEX
  8
0
  5
9F
 10
-20.2453
 20
60.0626
 30
0.000000
  70
    32
  0
VERTEX
  8
0
  5
A0
 10
-20.4901
 20
60.0370
 30
0.000000
  70
    32
  0
VERTEX
  8
0
  5
A1
 10
-20.7337
 20
59.9945
 30
0.000000
  70
    32
  0
VERTEX
  8
0
  5
A2
 10
-20.9755
 20
59.9352
 30
0.000000
  70
    32
  0
VERTEX
  8
0
  5
A3
 10
-21.2149
 20
59.8592
 30
0.000000
  70
    32
  0
VERTEX
  8
0
  5
A4
 10
-21.4514
 20
59.7666
 30
0.000000
  70
    32
  0
VERTEX
  8
0
  5
A5
 10
-21.6844
 20
59.6577
 30
0.000000
  70
    32
  0
VERTEX
  8
0
  5
A6
 10
-21.9134
 20
59.5328
 30
0.000000
  70
    32
  0
VERTEX
  8
0
  5
A7
 10
-22.1378
 20
59.3922
 30
0.000000
  70
    32
  0
VERTEX
  8
0
  5
A8
 10
-22.3570
 20
59.2361
 30
0.000000
  70
    32
  0
VERTEX
  8
0
  5
A9
 10
-22.5705
 20
59.0651
 30
0.000000
  70
    32
  0
VERTEX
  8
0
  5
AA
 10
-22.7779
 20
58.8794
 30
0.000000
  70
    32
  0
VERTEX
  8
0
  5
AB
 10
-22.9785
 20
58.6795
 30
0.000000
  70
    32
  0
VERTEX
  8
0
  5
AC
 10
-23.1720
 20
58.4660
 30
0.000000
  70
    32
  0
VERTEX
  8
0
  5
AD
 10
-23.3578
 20
58.2393
 30
0.000000
  70
    32
  0
VERTEX
  8
0
  5
AE
 10
-23.5355
 20
58.0000
 30
0.000000
  70
    32
  0
VERTEX
  8
0
  5
AF
 10
-23.7048
 20
57.7486
 30
0.000000
  70
    32
  0
VERTEX
  8
0
  5
B0
 10
-23.8651
 20
57.4858
 30
0.000000
  70
    32
  0
VERTEX
  8
0
  5
B1
 10
-24.0160
 20
57.2122
 30
0.000000
  70
    32
  0
VERTEX
  8
0
  5
B2
 10
-24.1573
 20
56.9285
 30
0.000000
  70
    32
  0
VERTEX
  8
0
  5
B3
 10
-24.2886
 20
56.6353
 30
0.000000
  70
    32
  0
VERTEX
  8
0
  5
B4
 10
-24.4096
 20
56.3333
 30
0.000000
  70
    32
  0
VERTEX
  8
0
  5
B5
 10
-24.5199
 20
56.0233
 30
0.000000
  70
    32
  0
VERTEX
  8
0
  5
B6
 10
-24.6194
 20
55.7060
 30
0.000000
  70
    32
  0
VERTEX
  8
0
  5
B7
 10
-24.7077
 20
55.3822
 30
0.000000
  70
    32
  0
VERTEX
  8
0
  5
B8
 10
-24.7847
 20
55.0526
 30
0.000000
  70
    32
  0
VERTEX
  8
0
  5
B9
 10
-24.8502
 20
54.7181
 30
0.000000
  70
    32
  0
VERTEX
  8
0
  5
BA
 10
-24.9039
 20
54.3795
 30
0.000000
  70
    32
  0
VERTEX
  8
0
  5
BB
 10
-24.9459
 20
54.0375
 30
0.000000
  70
    32
  0
VERTEX
  8
0
  5
BC
 10
-24.9759
 20
53.6931
 30
0.000000
  70
    32
  0
VERTEX
  8
0
  5
BD
 10
-24.9940
 20
53.3470
 30
0.000000
  70
    32
  0
VERTEX
  8
0
  5
BE
 10
-25.0000
 20
53.0000
 30
0.000000
  70
    32
  0
VERTEX
  8
0
  5
BF
 10
-24.9940
 20
52.6530
 30
0.000000
  70
    32
  0
VERTEX
  8
0
  5
C0
 10
-24.9759
 20
52.3069
 30
0.000000
  70
    32
  0
VERTEX
  8
0
  5
C1
 10
-24.9459
 20
51.9625
 30
0.000000
  70
    32
  0
VERTEX
  8
0
  5
C2
 10
-24.9039
 20
51.6205
 30
0.000000
  70
    32
  0
VERTEX
  8
0
  5
C3
 10
-24.8502
 20
51.2819
 30
0.000000
  70
    32
  0
VERTEX
  8
0
  5
C4
 10
-24.7847
 20
50.9474
 30
0.000000
  70
    32
  0
VERTEX
  8
0
  5
C5
 10
-24.7077
 20
50.6178
 30
0.000000
  70
    32
  0
VERTEX
  8
0
  5
C6
 10
-24.6194
 20
50.2940
 30
0.000000
  70
    32
  0
VERTEX
  8
0
  5
C7
 10
-24.5199
 20
49.9767
 30
0.000000
  70
    32
  0
VERTEX
  8
0
  5
C8
 10
-24.4096
 20
49.6667
 30
0.000000
  70
    32
  0
VERTEX
  8
0
  5
C9
 10
-24.2886
 20
49.3647
 30
0.000000
  70
    32
  0
VERTEX
  8
0
  5
CA
 10
-24.1573
 20
49.0715
 30
0.000000
  70
    32
  0
VERTEX
  8
0
  5
CB
 10
-24.0160
 20
48.7878
 30
0.000000
  70
    32
  0
VERTEX
  8
0
  5
CC
 10
-23.8651
 20
48.5142
 30
0.000000
  70
    32
  0
VERTEX
  8
0
  5
CD
 10
-23.7048
 20
48.2514
 30
0.000000
  70
    32
  0
VERTEX
  8
0
  5
CE
 10
-23.5355
 20
48.0000
 30
0.000000
  70
    32
  0
VERTEX
  8
0
  5
CF
 10
-23.3578
 20
47.7607
 30
0.000000
  70
    32
  0
VERTEX
  8
0
  5
D0
 10
-23.1720
 20
47.5340
 30
0.000000
  70
    32
  0
VERTEX
  8
0
  5
D1
 10
-22.9785
 20
47.3205
 30
0.000000
  70
    32
  0
VERTEX
  8
0
  5
D2
 10
-22.7779
 20
47.1206
 30
0.000000
  70
    32
  0
VERTEX
  8
0
  5
D3
 10
-22.5705
 20
46.9349
 30
0.000000
  70
    32
  0
VERTEX
  8
0
  5
D4
 10
-22.3570
 20
46.7639
 30
0.000000
  70
    32
  0
VERTEX
  8
0
  5
D5
 10
-22.1378
 20
46.6078
 30
0.000000
  70
    32
  0
VERTEX
  8
0
  5
D6
 10
-21.9134
 20
46.4672
 30
0.000000
  70
    32
  0
VERTEX
  8
0
  5
D7
 10
-21.6844
 20
46.3423
 30
0.000000
  70
    32
  0
VERTEX
  8
0
  5
D8
 10
-21.4514
 20
46.2334
 30
0.000000
  70
    32
  0
VERTEX
  8
0
  5
D9
 10
-21.2149
 20
46.1408
 30
0.000000
  70
    32
  0
VERTEX
  8
0
  5
DA
 10
-20.9755
 20
46.0648
 30
0.000000
  70
    32
  0
VERTEX
  8
0
  5
DB
 10
-20.7337
 20
46.0055
 30
0.000000
  70
    32
  0
VERTEX
  8
0
  5
DC
 10
-20.4901
 20
45.9630
 30
0.000000
  70
    32
  0
VERTEX
  8
0
  5
DD
 10
-20.2453
 20
45.9374
 30
0.000000
  70
    32
  0
VERTEX
  8
0
  5
DE
 10
-20.0000
 20
45.9289
 30
0.000000
  70
    32
  0
VERTEX
  8
0
  5
DF
 10
-19.7547
 20
45.9374
 30
0.000000
  70
    32
  0
VERTEX
  8
0
  5
E0
 10
-19.5099
 20
45.9630
 30
0.000000
  70
    32
  0
VERTEX
  8
0
  5
E1
 10
-19.2663
 20
46.0055
 30
0.000000
  70
    32
  0
VERTEX
  8
0
  5
E2
 10
-19.0245
 20
46.0648
 30
0.000000
  70
    32
  0
VERTEX
  8
0
  5
E3
 10
-18.7851
 20
46.1408
 30
0.000000
  70
    32
  0
VERTEX
  8
0
  5
E4
 10
-18.5486
 20
46.2334
 30
0.000000
  70
    32
  0
VERTEX
  8
0
  5
E5
 10
-18.3156
 20
46.3423
 30
0.000000
  70
    32
  0
VERTEX
  8
0
  5
E6
 10
-18.0866
 20
46.4672
 30
0.000000
  70
    32
  0
VERTEX
  8
0
  5
E7
 10
-17.8622
 20
46.6078
 30
0.000000
  70
    32
  0
VERTEX
  8
0
  5
E8
 10
-17.6430
 20
46.7639
 30
0.000000
  70
    32
  0
VERTEX
  8
0
  5
E9
 10
-17.4295
 20
46.9349
 30
0.000000
  70
    32
  0
VERTEX
  8
0
  5
EA
 10
-17.2221
 20
47.1206
 30
0.000000
  70
    32
  0
VERTEX
  8
0
  5
EB
 10
-17.0215
 20
47.3205
 30
0.000000
  70
    32
  0
VERTEX
  8
0
  5
EC
 10
-16.8280
 20
47.5340
 30
0.000000
  70
    32
  0
VERTEX
  8
0
  5
ED
 10
-16.6422
 20
47.7607
 30
0.000000
  70
    32
  0
VERTEX
  8
0
  5
EE
 10
-16.4645
 20
48.0000
 30
0.000000
  70
    32
  0
VERTEX
  8
0
  5
EF
 10
-16.2952
 20
48.2514
 30
0.000000
  70
    32
  0
VERTEX
  8
0
  5
F0
 10
-16.1349
 20
48.5142
 30
0.000000
  70
    32
  0
VERTEX
  8
0
  5
F1
 10
-15.9840
 20
48.7878
 30
0.000000
  70
    32
  0
VERTEX
  8
0
  5
F2
 10
-15.8427
 20
49.0715
 30
0.000000
  70
    32
  0
VERTEX
  8
0
  5
F3
 10
-15.7114
 20
49.3647
 30
0.000000
  70
    32
  0
VERTEX
  8
0
  5
F4
 10
-15.5904
 20
49.6667
 30
0.000000
  70
    32
  0
VERTEX
  8
0
  5
F5
 10
-15.4801
 20
49.9767
 30
0.000000
  70
    32
  0
VERTEX
  8
0
  5
F6
 10
-15.3806
 20
50.2940
 30
0.000000
  70
    32
  0
VERTEX
  8
0
  5
F7
 10
-15.2923
 20
50.6178
 30
0.000000
  70
    32
  0
VERTEX
  8
0
  5
F8
 10
-15.2153
 20
50.9474
 30
0.000000
  70
    32
  0
VERTEX
  8
0
  5
F9
 10
-15.1498
 20
51.2819
 30
0.000000
  70
    32
  0
VERTEX
  8
0
  5
FA
 10
-15.0961
 20
51.6205
 30
0.000000
  70
    32
  0
VERTEX
  8
0
  5
FB
 10
-15.0541
 20
51.9625
 30
0.000000
  70
    32
  0
VERTEX
  8
0
  5
FC
 10
-15.0241
 20
52.3069
 30
0.000000
  70
    32
  0
VERTEX
  8
0
  5
FD
 10
-15.0060
 20
52.6530
 30
0.000000
  70
    32
  0
VERTEX
  8
0
  5
FE
 10
-15.0000
 20
53.0000
 30
0.000000
  70
    32
  0
VERTEX
  8
0
  5
FF
 10
-15.0060
 20
53.3470
 30
0.000000
  70
    32
  0
VERTEX
  8
0
  5
100
 10
-15.0241
 20
53.6931
 30
0.000000
  70
    32
  0
VERTEX
  8
0
  5
101
 10
-15.0541
 20
54.0375
 30
0.000000
  70
    32
  0
VERTEX
  8
0
  5
102
 10
-15.0961
 20
54.3795
 30
0.000000
  70
    32
  0
VERTEX
  8
0
  5
103
 10
-15.1498
 20
54.7181
 30
0.000000
  70
    32
  0
VERTEX
  8
0
  5
104
 10
-15.2153
 20
55.0526
 30
0.000000
  70
    32
  0
VERTEX
  8
0
  5
105
 10
-15.2923
 20
55.3822
 30
0.000000
  70
    32
  0
VERTEX
  8
0
  5
106
 10
-15.3806
 20
55.7060
 30
0.000000
  70
    32
  0
VERTEX
  8
0
  5
107
 10
-15.4801
 20
56.0233
 30
0.000000
  70
    32
  0
VERTEX
  8
0
  5
108
 10
-15.5904
 20
56.3333
 30
0.000000
  70
    32
  0
VERTEX
  8
0
  5
109
 10
-15.7114
 20
56.6353
 30
0.000000
  70
    32
  0
VERTEX
  8
0
  5
10A
 10
-15.8427
 20
56.9285
 30
0.000000
  70
    32
  0
VERTEX
  8
0
  5
10B
 10
-15.9840
 20
57.2122
 30
0.000000
  70
    32
  0
VERTEX
  8
0
  5
10C
 10
-16.1349
 20
57.4858
 30
0.000000
  70
    32
  0
VERTEX
  8
0
  5
10D
 10
-16.2952
 20
57.7486
 30
0.000000
  70
    32
  0
VERTEX
  8
0
  5
10E
 10
-16.4645
 20
58.0000
 30
0.000000
  70
    32
  0
VERTEX
  8
0
  5
10F
 10
-16.6422
 20
58.2393
 30
0.000000
  70
    32
  0
VERTEX
  8
0
  5
110
 10
-16.8280
 20
58.4660
 30
0.000000
  70
    32
  0
VERTEX
  8
0
  5
111
 10
-17.0215
 20
58.6795
 30
0.000000
  70
    32
  0
VERTEX
  8
0
  5
112
 10
-17.2221
 20
58.8794
 30
0.000000
  70
    32
  0
VERTEX
  8
0
  5
113
 10
-17.4295
 20
59.0651
 30
0.000000
  70
    32
  0
VERTEX
  8
0
  5
114
 10
-17.6430
 20
59.2361
 30
0.000000
  70
    32
  0
VERTEX
  8
0
  5
115
 10
-17.8622
 20
59.3922
 30
0.000000
  70
    32
  0
VERTEX
  8
0
  5
116
 10
-18.0866
 20
59.5328
 30
0.000000
  70
    32
  0
VERTEX
  8
0
  5
117
 10
-18.3156
 20
59.6577
 30
0.000000
  70
    32
  0
VERTEX
  8
0
  5
118
 10
-18.5486
 20
59.7666
 30
0.000000
  70
    32
  0
VERTEX
  8
0
  5
119
 10
-18.7851
 20
59.8592
 30
0.000000
  70
    32
  0
VERTEX
  8
0
  5
11A
 10
-19.0245
 20
59.9352
 30
0.000000
  70
    32
  0
VERTEX
  8
0
  5
11B
 10
-19.2663
 20
59.9945
 30
0.000000
  70
    32
  0
VERTEX
  8
0
  5
11C
 10
-19.5099
 20
60.0370
 30
0.000000
  70
    32
  0
VERTEX
  8
0
  5
11D
 10
-19.7547
 20
60.0626
 30
0.000000
  70
    32
  0
VERTEX
  8
0
  5
11E
 10
-20.0000
 20
60.0711
 30
0.000000
  70
    32
  0
SEQEND
  8
0
  5
11F
  0
POLYLINE
  5
3F
  8
0
 10
-17.499999999999709
 20
47.696699141100893
 30
0.0
 66
     1
 70
     8
  0
VERTEX
  8
0
  5
120
 10
-17.5000
 20
47.6967
 30
0.000000
  70
    32
  0
VERTEX
  8
0
  5
121
 10
-17.5030
 20
47.7834
 30
0.000000
  70
    32
  0
VERTEX
  8
0
  5
122
 10
-17.5120
 20
47.8700
 30
0.000000
  70
    32
  0
VERTEX
  8
0
  5
123
 10
-17.5271
 20
47.9561
 30
0.000000
  70
    32
  0
VERTEX
  8
0
  5
124
 10
-17.5480
 20
48.0416
 30
0.000000
  70
    32
  0
VERTEX
  8
0
  5
125
 10
-17.5749
 20
48.1262
 30
0.000000
  70
    32
  0
VERTEX
  8
0
  5
126
 10
-17.6076
 20
48.2099
 30
0.000000
  70
    32
  0
VERTEX
  8
0
  5
127
 10
-17.6461
 20
48.2922
 30
0.000000
  70
    32
  0
VERTEX
  8
0
  5
128
 10
-17.6903
 20
48.3732
 30
0.000000
  70
    32
  0
VERTEX
  8
0
  5
129
 10
-17.7400
 20
48.4525
 30
0.000000
  70
    32
  0
VERTEX
  8
0
  5
12A
 10
-17.7952
 20
48.5300
 30
0.000000
  70
    32
  0
VERTEX
  8
0
  5
12B
 10
-17.8557
 20
48.6055
 30
0.000000
  70
    32
  0
VERTEX
  8
0
  5
12C
 10
-17.9213
 20
48.6788
 30
0.000000
  70
    32
  0
VERTEX
  8
0
  5
12D
 10
-17.9920
 20
48.7498
 30
0.000000
  70
    32
  0
VERTEX
  8
0
  5
12E
 10
-18.0675
 20
48.8182
 30
0.000000
  70
    32
  0
VERTEX
  8
0
  5
12F
 10
-18.1476
 20
48.8839
 30
0.000000
  70
    32
  0
VERTEX
  8
0
  5
130
 10
-18.2322
 20
48.9467
 30
0.000000
  70
    32
  0
VERTEX
  8
0
  5
131
 10
-18.3211
 20
49.0065
 30
0.000000
  70
    32
  0
VERTEX
  8
0
  5
132
 10
-18.4140
 20
49.0632
 30
0.000000
  70
    32
  0
VERTEX
  8
0
  5
133
 10
-18.5108
 20
49.1166
 30
0.000000
  70
    32
  0
VERTEX
  8
0
  5
134
 10
-18.6111
 20
49.1665
 30
0.000000
  70
    32
  0
VERTEX
  8
0
  5
135
 10
-18.7147
 20
49.2130
 30
0.000000
  70
    32
  0
VERTEX
  8
0
  5
136
 10
-18.8215
 20
49.2557
 30
0.000000
  70
    32
  0
VERTEX
  8
0
  5
137
 10
-18.9311
 20
49.2947
 30
0.000000
  70
    32
  0
VERTEX
  8
0
  5
138
 10
-19.0433
 20
49.3299
 30
0.000000
  70
    32
  0
VERTEX
  8
0
  5
139
 10
-19.1578
 20
49.3611
 30
0.000000
  70
    32
  0
VERTEX
  8
0
  5
13A
 10
-19.2743
 20
49.3883
 30
0.000000
  70
    32
  0
VERTEX
  8
0
  5
13B
 10
-19.3925
 20
49.4115
 30
0.000000
  70
    32
  0
VERTEX
  8
0
  5
13C
 10
-19.5123
 20
49.4305
 30
0.000000
  70
    32
  0
VERTEX
  8
0
  5
13D
 10
-19.6332
 20
49.4453
 30
0.000000
  70
    32
  0
VERTEX
  8
0
  5
13E
 10
-19.7550
 20
49.4560
 30
0.000000
  70
    32
  0
VERTEX
  8
0
  5
13F
 10
-19.8773
 20
49.4623
 30
0.000000
  70
    32
  0
VERTEX
  8
0
  5
140
 10
-20.0000
 20
49.4645
 30
0.000000
  70
    32
  0
VERTEX
  8
0
  5
141
 10
-20.1227
 20
49.4623
 30
0.000000
  70
    32
  0
VERTEX
  8
0
  5
142
 10
-20.2450
 20
49.4560
 30
0.000000
  70
    32
  0
VERTEX
  8
0
  5
143
 10
-20.3668
 20
49.4453
 30
0.000000
  70
    32
  0
VERTEX
  8
0
  5
144
 10
-20.4877
 20
49.4305
 30
0.000000
  70
    32
  0
VERTEX
  8
0
  5
145
 10
-20.6075
 20
49.4115
 30
0.000000
  70
    32
  0
VERTEX
  8
0
  5
146
 10
-20.7257
 20
49.3883
 30
0.000000
  70
    32
  0
VERTEX
  8
0
  5
147
 10
-20.8422
 20
49.3611
 30
0.000000
  70
    32
  0
VERTEX
  8
0
  5
148
 10
-20.9567
 20
49.3299
 30
0.000000
  70
    32
  0
VERTEX
  8
0
  5
149
 10
-21.0689
 20
49.2947
 30
0.000000
  70
    32
  0
VERTEX
  8
0
  5
14A
 10
-21.1785
 20
49.2557
 30
0.000000
  70
    32
  0
VERTEX
  8
0
  5
14B
 10
-21.2853
 20
49.2130
 30
0.000000
  70
    32
  0
VERTEX
  8
0
  5
14C
 10
-21.3889
 20
49.1665
 30
0.000000
  70
    32
  0
VERTEX
  8
0
  5
14D
 10
-21.4892
 20
49.1166
 30
0.000000
  70
    32
  0
VERTEX
  8
0
  5
14E
 10
-21.5860
 20
49.0632
 30
0.000000
  70
    32
  0
VERTEX
  8
0
  5
14F
 10
-21.6789
 20
49.0065
 30
0.000000
  70
    32
  0
VERTEX
  8
0
  5
150
 10
-21.7678
 20
48.9467
 30
0.000000
  70
    32
  0
VERTEX
  8
0
  5
151
 10
-21.8524
 20
48.8839
 30
0.000000
  70
    32
  0
VERTEX
  8
0
  5
152
 10
-21.9325
 20
48.8182
 30
0.000000
  70
    32
  0
VERTEX
  8
0
  5
153
 10
-22.0080
 20
48.7498
 30
0.000000
  70
    32
  0
VERTEX
  8
0
  5
154
 10
-22.0787
 20
48.6788
 30
0.000000
  70
    32
  0
VERTEX
  8
0
  5
155
 10
-22.1443
 20
48.6055
 30
0.000000
  70
    32
  0
VERTEX
  8
0
  5
156
 10
-22.2048
 20
48.5300
 30
0.000000
  70
    32
  0
VERTEX
  8
0
  5
157
 10
-22.2600
 20
48.4525
 30
0.000000
  70
    32
  0
VERTEX
  8
0
  5
158
 10
-22.3097
 20
48.3732
 30
0.000000
  70
    32
  0
VERTEX
  8
0
  5
159
 10
-22.3539
 20
48.2922
 30
0.000000
  70
    32
  0
VERTEX
  8
0
  5
15A
 10
-22.3924
 20
48.2099
 30
0.000000
  70
    32
  0
VERTEX
  8
0
  5
15B
 10
-22.4251
 20
48.1262
 30
0.000000
  70
    32
  0
VERTEX
  8
0
  5
15C
 10
-22.4520
 20
48.0416
 30
0.000000
  70
    32
  0
VERTEX
  8
0
  5
15D
 10
-22.4729
 20
47.9561
 30
0.000000
  70
    32
  0
VERTEX
  8
0
  5
15E
 10
-22.4880
 20
47.8700
 30
0.000000
  70
    32
  0
VERTEX
  8
0
  5
15F
 10
-22.4970
 20
47.7834
 30
0.000000
  70
    32
  0
VERTEX
  8
0
  5
160
 10
-22.5000
 20
47.6967
 30
0.000000
  70
    32
  0
VERTEX
  8
0
  5
161
 10
-22.4970
 20
47.6100
 30
0.000000
  70
    32
  0
VERTEX
  8
0
  5
162
 10
-22.4880
 20
47.5234
 30
0.000000
  70
    32
  0
VERTEX
  8
0
  5
163
 10
-22.4729
 20
47.4373
 30
0.000000
  70
    32
  0
VERTEX
  8
0
  5
164
 10
-22.4520
 20
47.3518
 30
0.000000
  70
    32
  0
VERTEX
  8
0
  5
165
 10
-22.4251
 20
47.2672
 30
0.000000
  70
    32
  0
VERTEX
  8
0
  5
166
 10
-22.3924
 20
47.1835
 30
0.000000
  70
    32
  0
VERTEX
  8
0
  5
167
 10
-22.3539
 20
47.1012
 30
0.000000
  70
    32
  0
VERTEX
  8
0
  5
168
 10
-22.3097
 20
47.0202
 30
0.000000
  70
    32
  0
VERTEX
  8
0
  5
169
 10
-22.2600
 20
46.9409
 30
0.000000
  70
    32
  0
VERTEX
  8
0
  5
16A
 10
-22.2048
 20
46.8634
 30
0.000000
  70
    32
  0
VERTEX
  8
0
  5
16B
 10
-22.1443
 20
46.7879
 30
0.000000
  70
    32
  0
VERTEX
  8
0
  5
16C
 10
-22.0787
 20
46.7146
 30
0.000000
  70
    32
  0
VERTEX
  8
0
  5
16D
 10
-22.0080
 20
46.6436
 30
0.000000
  70
    32
  0
VERTEX
  8
0
  5
16E
 10
-21.9325
 20
46.5752
 30
0.000000
  70
    32
  0
VERTEX
  8
0
  5
16F
 10
-21.8524
 20
46.5095
 30
0.000000
  70
    32
  0
VERTEX
  8
0
  5
170
 10
-21.7678
 20
46.4467
 30
0.000000
  70
    32
  0
VERTEX
  8
0
  5
171
 10
-21.6789
 20
46.3869
 30
0.000000
  70
    32
  0
VERTEX
  8
0
  5
172
 10
-21.5860
 20
46.3302
 30
0.000000
  70
    32
  0
VERTEX
  8
0
  5
173
 10
-21.4892
 20
46.2768
 30
0.000000
  70
    32
  0
VERTEX
  8
0
  5
174
 10
-21.3889
 20
46.2269
 30
0.000000
  70
    32
  0
VERTEX
  8
0
  5
175
 10
-21.2853
 20
46.1804
 30
0.000000
  70
    32
  0
VERTEX
  8
0
  5
176
 10
-21.1785
 20
46.1377
 30
0.000000
  70
    32
  0
VERTEX
  8
0
  5
177
 10
-21.0689
 20
46.0987
 30
0.000000
  70
    32
  0
VERTEX
  8
0
  5
178
 10
-20.9567
 20
46.0635
 30
0.000000
  70
    32
  0
VERTEX
  8
0
  5
179
 10
-20.8422
 20
46.0323
 30
0.000000
  70
    32
  0
VERTEX
  8
0
  5
17A
 10
-20.7257
 20
46.0051
 30
0.000000
  70
    32
  0
VERTEX
  8
0
  5
17B
 10
-20.6075
 20
45.9819
 30
0.000000
  70
    32
  0
VERTEX
  8
0
  5
17C
 10
-20.4877
 20
45.9629
 30
0.000000
  70
    32
  0
VERTEX
  8
0
  5
17D
 10
-20.3668
 20
45.9481
 30
0.000000
  70
    32
  0
VERTEX
  8
0
  5
17E
 10
-20.2450
 20
45.9374
 30
0.000000
  70
    32
  0
VERTEX
  8
0
  5
17F
 10
-20.1227
 20
45.9311
 30
0.000000
  70
    32
  0
VERTEX
  8
0
  5
180
 10
-20.0000
 20
45.9289
 30
0.000000
  70
    32
  0
VERTEX
  8
0
  5
181
 10
-19.8773
 20
45.9311
 30
0.000000
  70
    32
  0
VERTEX
  8
0
  5
182
 10
-19.7550
 20
45.9374
 30
0.000000
  70
    32
  0
VERTEX
  8
0
  5
183
 10
-19.6332
 20
45.9481
 30
0.000000
  70
    32
  0
VERTEX
  8
0
  5
184
 10
-19.5123
 20
45.9629
 30
0.000000
  70
    32
  0
VERTEX
  8
0
  5
185
 10
-19.3925
 20
45.9819
 30
0.000000
  70
    32
  0
VERTEX
  8
0
  5
186
 10
-19.2743
 20
46.0051
 30
0.000000
  70
    32
  0
VERTEX
  8
0
  5
187
 10
-19.1578
 20
46.0323
 30
0.000000
  70
    32
  0
VERTEX
  8
0
  5
188
 10
-19.0433
 20
46.0635
 30
0.000000
  70
    32
  0
VERTEX
  8
0
  5
189
 10
-18.9311
 20
46.0987
 30
0.000000
  70
    32
  0
VERTEX
  8
0
  5
18A
 10
-18.8215
 20
46.1377
 30
0.000000
  70
    32
  0
VERTEX
  8
0
  5
18B
 10
-18.7147
 20
46.1804
 30
0.000000
  70
    32
  0
VERTEX
  8
0
  5
18C
 10
-18.6111
 20
46.2269
 30
0.000000
  70
    32
  0
VERTEX
  8
0
  5
18D
 10
-18.5108
 20
46.2768
 30
0.000000
  70
    32
  0
VERTEX
  8
0
  5
18E
 10
-18.4140
 20
46.3302
 30
0.000000
  70
    32
  0
VERTEX
  8
0
  5
18F
 10
-18.3211
 20
46.3869
 30
0.000000
  70
    32
  0
VERTEX
  8
0
  5
190
 10
-18.2322
 20
46.4467
 30
0.000000
  70
    32
  0
VERTEX
  8
0
  5
191
 10
-18.1476
 20
46.5095
 30
0.000000
  70
    32
  0
VERTEX
  8
0
  5
192
 10
-18.0675
 20
46.5752
 30
0.000000
  70
    32
  0
VERTEX
  8
0
  5
193
 10
-17.9920
 20
46.6436
 30
0.000000
  70
    32
  0
VERTEX
  8
0
  5
194
 10
-17.9213
 20
46.7146
 30
0.000000
  70
    32
  0
VERTEX
  8
0
  5
195
 10
-17.8557
 20
46.7879
 30
0.000000
  70
    32
  0
VERTEX
  8
0
  5
196
 10
-17.7952
 20
46.8634
 30
0.000000
  70
    32
  0
VERTEX
  8
0
  5
197
 10
-17.7400
 20
46.9409
 30
0.000000
  70
    32
  0
VERTEX
  8
0
  5
198
 10
-17.6903
 20
47.0202
 30
0.000000
  70
    32
  0
VERTEX
  8
0
  5
199
 10
-17.6461
 20
47.1012
 30
0.000000
  70
    32
  0
VERTEX
  8
0
  5
19A
 10
-17.6076
 20
47.1835
 30
0.000000
  70
    32
  0
VERTEX
  8
0
  5
19B
 10
-17.5749
 20
47.2672
 30
0.000000
  70
    32
  0
VERTEX
  8
0
  5
19C
 10
-17.5480
 20
47.3518
 30
0.000000
  70
    32
  0
VERTEX
  8
0
  5
19D
 10
-17.5271
 20
47.4373
 30
0.000000
  70
    32
  0
VERTEX
  8
0
  5
19E
 10
-17.5120
 20
47.5234
 30
0.000000
  70
    32
  0
VERTEX
  8
0
  5
19F
 10
-17.5030
 20
47.6100
 30
0.000000
  70
    32
  0
VERTEX
  8
0
  5
1A0
 10
-17.5000
 20
47.6967
 30
0.000000
  70
    32
  0
SEQEND
  8
0
  5
1A1
  0
POLYLINE
  5
40
  8
0
 10
-15.285954792089505
 20
50.64297739604482
 30
0.0
 66
     1
 70
     8
  0
VERTEX
  8
0
  5
1A2
 10
-15.2860
 20
50.6430
 30
0.000000
  70
    32
  0
VERTEX
  8
0
  5
1A3
 10
-15.3189
 20
50.7069
 30
0.000000
  70
    32
  0
VERTEX
  8
0
  5
1A4
 10
-15.3535
 20
50.7703
 30
0.000000
  70
    32
  0
VERTEX
  8
0
  5
1A5
 10
-15.3899
 20
50.8332
 30
0.000000
  70
    32
  0
VERTEX
  8
0
  5
1A6
 10
-15.4280
 20
50.8957
 30
0.000000
  70
    32
  0
VERTEX
  8
0
  5
1A7
 10
-15.4678
 20
50.9576
 30
0.000000
  70
    32
  0
VERTEX
  8
0
  5
1A8
 10
-15.5092
 20
51.0190
 30
0.000000
  70
    32
  0
VERTEX
  8
0
  5
1A9
 10
-15.5523
 20
51.0797
 30
0.000000
  70
    32
  0
VERTEX
  8
0
  5
1AA
 10
-15.5971
 20
51.1399
 30
0.000000
  70
    32
  0
VERTEX
  8
0
  5
1AB
 10
-15.6435
 20
51.1995
 30
0.000000
  70
    32
  0
VERTEX
  8
0
  5
1AC
 10
-15.6915
 20
51.2584
 30
0.000000
  70
    32
  0
VERTEX
  8
0
  5
1AD
 10
-15.7411
 20
51.3167
 30
0.000000
  70
    32
  0
VERTEX
  8
0
  5
1AE
 10
-15.7922
 20
51.3743
 30
0.000000
  70
    32
  0
VERTEX
  8
0
  5
1AF
 10
-15.8450
 20
51.4311
 30
0.000000
  70
    32
  0
VERTEX
  8
0
  5
1B0
 10
-15.8992
 20
51.4873
 30
0.000000
  70
    32
  0
VERTEX
  8
0
  5
1B1
 10
-15.9550
 20
51.5427
 30
0.000000
  70
    32
  0
VERTEX
  8
0
  5
1B2
 10
-16.0123
 20
51.5973
 30
0.000000
  70
    32
  0
VERTEX
  8
0
  5
1B3
 10
-16.0710
 20
51.6511
 30
0.000000
  70
    32
  0
VERTEX
  8
0
  5
1B4
 10
-16.1312
 20
51.7042
 30
0.000000
  70
    32
  0
VERTEX
  8
0
  5
1B5
 10
-16.1928
 20
51.7564
 30
0.000000
  70
    32
  0
VERTEX
  8
0
  5
1B6
 10
-16.2559
 20
51.8077
 30
0.000000
  70
    32
  0
VERTEX
  8
0
  5
1B7
 10
-16.3203
 20
51.8582
 30
0.000000
  70
    32
  0
VERTEX
  8
0
  5
1B8
 10
-16.3861
 20
51.9078
 30
0.000000
  70
    32
  0
VERTEX
  8
0
  5
1B9
 10
-16.4532
 20
51.9565
 30
0.000000
  70
    32
  0
VERTEX
  8
0
  5
1BA
 10
-16.5217
 20
52.0043
 30
0.000000
  70
    32
  0
VERTEX
  8
0
  5
1BB
 10
-16.5914
 20
52.0511
 30
0.000000
  70
    32
  0
VERTEX
  8
0
  5
1BC
 10
-16.6624
 20
52.0970
 30
0.000000
  70
    32
  0
VERTEX
  8
0
  5
1BD
 10
-16.7346
 20
52.1419
 30
0.000000
  70
    32
  0
VERTEX
  8
0
  5
1BE
 10
-16.8080
 20
52.1858
 30
0.000000
  70
    32
  0
VERTEX
  8
0
  5
1BF
 10
-16.8826
 20
52.2287
 30
0.000000
  70
    32
  0
VERTEX
  8
0
  5
1C0
 10
-16.9584
 20
52.2706
 30
0.000000
  70
    32
  0
VERTEX
  8
0
  5
1C1
 10
-17.0353
 20
52.3114
 30
0.000000
  70
    32
  0
VERTEX
  8
0
  5
1C2
 10
-17.1132
 20
52.3512
 30
0.000000
  70
    32
  0
VERTEX
  8
0
  5
1C3
 10
-17.1923
 20
52.3899
 30
0.000000
  70
    32
  0
VERTEX
  8
0
  5
1C4
 10
-17.2724
 20
52.4276
 30
0.000000
  70
    32
  0
VERTEX
  8
0
  5
1C5
 10
-17.3535
 20
52.4641
 30
0.000000
  70
    32
  0
VERTEX
  8
0
  5
1C6
 10
-17.4356
 20
52.4996
 30
0.000000
  70
    32
  0
VERTEX
  8
0
  5
1C7
 10
-17.5186
 20
52.5339
 30
0.000000
  70
    32
  0
VERTEX
  8
0
  5
1C8
 10
-17.6025
 20
52.5671
 30
0.000000
  70
    32
  0
VERTEX
  8
0
  5
1C9
 10
-17.6874
 20
52.5991
 30
0.000000
  70
    32
  0
VERTEX
  8
0
  5
1CA
 10
-17.7731
 20
52.6300
 30
0.000000
  70
    32
  0
VERTEX
  8
0
  5
1CB
 10
-17.8596
 20
52.6597
 30
0.000000
  70
    32
  0
VERTEX
  8
0
  5
1CC
 10
-17.9469
 20
52.6882
 30
0.000000
  70
    32
  0
VERTEX
  8
0
  5
1CD
 10
-18.0349
 20
52.7155
 30
0.000000
  70
    32
  0
VERTEX
  8
0
  5
1CE
 10
-18.1237
 20
52.7416
 30
0.000000
  70
    32
  0
VERTEX
  8
0
  5
1CF
 10
-18.2132
 20
52.7665
 30
0.000000
  70
    32
  0
VERTEX
  8
0
  5
1D0
 10
-18.3033
 20
52.7902
 30
0.000000
  70
    32
  0
VERTEX
  8
0
  5
1D1
 10
-18.3941
 20
52.8127
 30
0.000000
  70
    32
  0
VERTEX
  8
0
  5
1D2
 10
-18.4855
 20
52.8339
 30
0.000000
  70
    32
  0
VERTEX
  8
0
  5
1D3
 10
-18.5774
 20
52.8539
 30
0.000000
  70
    32
  0
VERTEX
  8
0
  5
1D4
 10
-18.6698
 20
52.8726
 30
0.000000
  70
    32
  0
VERTEX
  8
0
  5
1D5
 10
-18.7628
 20
52.8901
 30
0.000000
  70
    32
  0
VERTEX
  8
0
  5
1D6
 10
-18.8562
 20
52.9062
 30
0.000000
  70
    32
  0
VERTEX
  8
0
  5
1D7
 10
-18.9500
 20
52.9212
 30
0.000000
  70
    32
  0
VERTEX
  8
0
  5
1D8
 10
-19.0442
 20
52.9348
 30
0.000000
  70
    32
  0
VERTEX
  8
0
  5
1D9
 10
-19.1388
 20
52.9472
 30
0.000000
  70
    32
  0
VERTEX
  8
0
  5
1DA
 10
-19.2337
 20
52.9582
 30
0.000000
  70
    32
  0
VERTEX
  8
0
  5
1DB
 10
-19.3289
 20
52.9680
 30
0.000000
  70
    32
  0
VERTEX
  8
0
  5
1DC
 10
-19.4243
 20
52.9765
 30
0.000000
  70
    32
  0
VERTEX
  8
0
  5
1DD
 10
-19.5199
 20
52.9837
 30
0.000000
  70
    32
  0
VERTEX
  8
0
  5
1DE
 10
-19.6157
 20
52.9895
 30
0.000000
  70
    32
  0
VERTEX
  8
0
  5
1DF
 10
-19.7117
 20
52.9941
 30
0.000000
  70
    32
  0
VERTEX
  8
0
  5
1E0
 10
-19.8077
 20
52.9974
 30
0.000000
  70
    32
  0
VERTEX
  8
0
  5
1E1
 10
-19.9038
 20
52.9993
 30
0.000000
  70
    32
  0
VERTEX
  8
0
  5
1E2
 10
-20.0000
 20
53.0000
 30
0.000000
  70
    32
  0
VERTEX
  8
0
  5
1E3
 10
-20.0962
 20
52.9993
 30
0.000000
  70
    32
  0
VERTEX
  8
0
  5
1E4
 10
-20.1923
 20
52.9974
 30
0.000000
  70
    32
  0
VERTEX
  8
0
  5
1E5
 10
-20.2883
 20
52.9941
 30
0.000000
  70
    32
  0
VERTEX
  8
0
  5
1E6
 10
-20.3843
 20
52.9895
 30
0.000000
  70
    32
  0
VERTEX
  8
0
  5
1E7
 10
-20.4801
 20
52.9837
 30
0.000000
  70
    32
  0
VERTEX
  8
0
  5
1E8
 10
-20.5757
 20
52.9765
 30
0.000000
  70
    32
  0
VERTEX
  8
0
  5
1E9
 10
-20.6711
 20
52.9680
 30
0.000000
  70
    32
  0
VERTEX
  8
0
  5
1EA
 10
-20.7663
 20
52.9582
 30
0.000000
  70
    32
  0
VERTEX
  8
0
  5
1EB
 10
-20.8612
 20
52.9472
 30
0.000000
  70
    32
  0
VERTEX
  8
0
  5
1EC
 10
-20.9558
 20
52.9348
 30
0.000000
  70
    32
  0
VERTEX
  8
0
  5
1ED
 10
-21.0500
 20
52.9212
 30
0.000000
  70
    32
  0
VERTEX
  8
0
  5
1EE
 10
-21.1438
 20
52.9062
 30
0.000000
  70
    32
  0
VERTEX
  8
0
  5
1EF
 10
-21.2372
 20
52.8901
 30
0.000000
  70
    32
  0
VERTEX
  8
0
  5
1F0
 10
-21.3302
 20
52.8726
 30
0.000000
  70
    32
  0
VERTEX
  8
0
  5
1F1
 10
-21.4226
 20
52.8539
 30
0.000000
  70
    32
  0
VERTEX
  8
0
  5
1F2
 10
-21.5145
 20
52.8339
 30
0.000000
  70
    32
  0
VERTEX
  8
0
  5
1F3
 10
-21.6059
 20
52.8127
 30
0.000000
  70
    32
  0
VERTEX
  8
0
  5
1F4
 10
-21.6967
 20
52.7902
 30
0.000000
  70
    32
  0
VERTEX
  8
0
  5
1F5
 10
-21.7868
 20
52.7665
 30
0.000000
  70
    32
  0
VERTEX
  8
0
  5
1F6
 10
-21.8763
 20
52.7416
 30
0.000000
  70
    32
  0
VERTEX
  8
0
  5
1F7
 10
-21.9651
 20
52.7155
 30
0.000000
  70
    32
  0
VERTEX
  8
0
  5
1F8
 10
-22.0531
 20
52.6882
 30
0.000000
  70
    32
  0
VERTEX
  8
0
  5
1F9
 10
-22.1404
 20
52.6597
 30
0.000000
  70
    32
  0
VERTEX
  8
0
  5
1FA
 10
-22.2269
 20
52.6300
 30
0.000000
  70
    32
  0
VERTEX
  8
0
  5
1FB
 10
-22.3126
 20
52.5991
 30
0.000000
  70
    32
  0
VERTEX
  8
0
  5
1FC
 10
-22.3975
 20
52.5671
 30
0.000000
  70
    32
  0
VERTEX
  8
0
  5
1FD
 10
-22.4814
 20
52.5339
 30
0.000000
  70
    32
  0
VERTEX
  8
0
  5
1FE
 10
-22.5644
 20
52.4996
 30
0.000000
  70
    32
  0
VERTEX
  8
0
  5
1FF
 10
-22.6465
 20
52.4641
 30
0.000000
  70
    32
  0
VERTEX
  8
0
  5
200
 10
-22.7276
 20
52.4276
 30
0.000000
  70
    32
  0
VERTEX
  8
0
  5
201
 10
-22.8077
 20
52.3899
 30
0.000000
  70
    32
  0
VERTEX
  8
0
  5
202
 10
-22.8868
 20
52.3512
 30
0.000000
  70
    32
  0
VERTEX
  8
0
  5
203
 10
-22.9647
 20
52.3114
 30
0.000000
  70
    32
  0
VERTEX
  8
0
  5
204
 10
-23.0416
 20
52.2706
 30
0.000000
  70
    32
  0
VERTEX
  8
0
  5
205
 10
-23.1174
 20
52.2287
 30
0.000000
  70
    32
  0
VERTEX
  8
0
  5
206
 10
-23.1920
 20
52.1858
 30
0.000000
  70
    32
  0
VERTEX
  8
0
  5
207
 10
-23.2654
 20
52.1419
 30
0.000000
  70
    32
  0
VERTEX
  8
0
  5
208
 10
-23.3376
 20
52.0970
 30
0.000000
  70
    32
  0
VERTEX
  8
0
  5
209
 10
-23.4086
 20
52.0511
 30
0.000000
  70
    32
  0
VERTEX
  8
0
  5
20A
 10
-23.4783
 20
52.0043
 30
0.000000
  70
    32
  0
VERTEX
  8
0
  5
20B
 10
-23.5468
 20
51.9565
 30
0.000000
  70
    32
  0
VERTEX
  8
0
  5
20C
 10
-23.6139
 20
51.9078
 30
0.000000
  70
    32
  0
VERTEX
  8
0
  5
20D
 10
-23.6797
 20
51.8582
 30
0.000000
  70
    32
  0
VERTEX
  8
0
  5
20E
 10
-23.7441
 20
51.8077
 30
0.000000
  70
    32
  0
VERTEX
  8
0
  5
20F
 10
-23.8072
 20
51.7564
 30
0.000000
  70
    32
  0
VERTEX
  8
0
  5
210
 10
-23.8688
 20
51.7042
 30
0.000000
  70
    32
  0
VERTEX
  8
0
  5
211
 10
-23.9290
 20
51.6511
 30
0.000000
  70
    32
  0
VERTEX
  8
0
  5
212
 10
-23.9877
 20
51.5973
 30
0.000000
  70
    32
  0
VERTEX
  8
0
  5
213
 10
-24.0450
 20
51.5427
 30
0.000000
  70
    32
  0
VERTEX
  8
0
  5
214
 10
-24.1008
 20
51.4873
 30
0.000000
  70
    32
  0
VERTEX
  8
0
  5
215
 10
-24.1550
 20
51.4311
 30
0.000000
  70
    32
  0
VERTEX
  8
0
  5
216
 10
-24.2078
 20
51.3743
 30
0.000000
  70
    32
  0
VERTEX
  8
0
  5
217
 10
-24.2589
 20
51.3167
 30
0.000000
  70
    32
  0
VERTEX
  8
0
  5
218
 10
-24.3085
 20
51.2584
 30
0.000000
  70
    32
  0
VERTEX
  8
0
  5
219
 10
-24.3565
 20
51.1995
 30
0.000000
  70
    32
  0
VERTEX
  8
0
  5
21A
 10
-24.4029
 20
51.1399
 30
0.000000
  70
    32
  0
VERTEX
  8
0
  5
21B
 10
-24.4477
 20
51.0797
 30
0.000000
  70
    32
  0
VERTEX
  8
0
  5
21C
 10
-24.4908
 20
51.0190
 30
0.000000
  70
    32
  0
VERTEX
  8
0
  5
21D
 10
-24.5322
 20
50.9576
 30
0.000000
  70
    32
  0
VERTEX
  8
0
  5
21E
 10
-24.5720
 20
50.8957
 30
0.000000
  70
    32
  0
VERTEX
  8
0
  5
21F
 10
-24.6101
 20
50.8332
 30
0.000000
  70
    32
  0
VERTEX
  8
0
  5
220
 10
-24.6465
 20
50.7703
 30
0.000000
  70
    32
  0
VERTEX
  8
0
  5
221
 10
-24.6811
 20
50.7069
 30
0.000000
  70
    32
  0
VERTEX
  8
0
  5
222
 10
-24.7140
 20
50.6430
 30
0.000000
  70
    32
  0
SEQEND
  8
0
  5
223
  0
LINE
  5
41
  8
0
 10
30.000000000000259
 20
165.99999999999989
 30
0.0
 11
-29.999999999999709
 21
166.00000000000011
 31
0.0
  0
POLYLINE
  5
42
  8
0
  6
HIDDEN
 62
     8
 10
-21.44110357018468
 20
46.229000000000049
 30
0.0
 66
     1
 70
     8
  0
VERTEX
  8
0
  5
224
 10
-21.4411
 20
46.2290
 30
0.000000
  70
    32
  0
VERTEX
  8
0
  5
225
 10
-21.5319
 20
46.1443
 30
0.000000
  70
    32
  0
VERTEX
  8
0
  5
226
 10
-21.6202
 20
46.0545
 30
0.000000
  70
    32
  0
VERTEX
  8
0
  5
227
 10
-21.7059
 20
45.9597
 30
0.000000
  70
    32
  0
VERTEX
  8
0
  5
228
 10
-21.7888
 20
45.8601
 30
0.000000
  70
    32
  0
VERTEX
  8
0
  5
229
 10
-21.8688
 20
45.7559
 30
0.000000
  70
    32
  0
VERTEX
  8
0
  5
22A
 10
-21.9458
 20
45.6472
 30
0.000000
  70
    32
  0
VERTEX
  8
0
  5
22B
 10
-22.0196
 20
45.5342
 30
0.000000
  70
    32
  0
VERTEX
  8
0
  5
22C
 10
-22.0902
 20
45.4171
 30
0.000000
  70
    32
  0
VERTEX
  8
0
  5
22D
 10
-22.1573
 20
45.2961
 30
0.000000
  70
    32
  0
VERTEX
  8
0
  5
22E
 10
-22.2209
 20
45.1714
 30
0.000000
  70
    32
  0
VERTEX
  8
0
  5
22F
 10
-22.2810
 20
45.0431
 30
0.000000
  70
    32
  0
VERTEX
  8
0
  5
230
 10
-22.3373
 20
44.9115
 30
0.000000
  70
    32
  0
VERTEX
  8
0
  5
231
 10
-22.3899
 20
44.7768
 30
0.000000
  70
    32
  0
VERTEX
  8
0
  5
232
 10
-22.4385
 20
44.6392
 30
0.000000
  70
    32
  0
VERTEX
  8
0
  5
233
 10
-22.4833
 20
44.4990
 30
0.000000
  70
    32
  0
VERTEX
  8
0
  5
234
 10
-22.5239
 20
44.3563
 30
0.000000
  70
    32
  0
VERTEX
  8
0
  5
235
 10
-22.5605
 20
44.2114
 30
0.000000
  70
    32
  0
VERTEX
  8
0
  5
236
 10
-22.5929
 20
44.0646
 30
0.000000
  70
    32
  0
VERTEX
  8
0
  5
237
 10
-22.6212
 20
43.9160
 30
0.000000
  70
    32
  0
VERTEX
  8
0
  5
238
 10
-22.6451
 20
43.7660
 30
0.000000
  70
    32
  0
VERTEX
  8
0
  5
239
 10
-22.6648
 20
43.6147
 30
0.000000
  70
    32
  0
VERTEX
  8
0
  5
23A
 10
-22.6801
 20
43.4624
 30
0.000000
  70
    32
  0
VERTEX
  8
0
  5
23B
 10
-22.6911
 20
43.3093
 30
0.000000
  70
    32
  0
VERTEX
  8
0
  5
23C
 10
-22.6978
 20
43.1558
 30
0.000000
  70
    32
  0
VERTEX
  8
0
  5
23D
 10
-22.7000
 20
43.0020
 30
0.000000
  70
    32
  0
VERTEX
  8
0
  5
23E
 10
-22.6979
 20
42.8482
 30
0.000000
  70
    32
  0
VERTEX
  8
0
  5
23F
 10
-22.6914
 20
42.6946
 30
0.000000
  70
    32
  0
VERTEX
  8
0
  5
240
 10
-22.6805
 20
42.5416
 30
0.000000
  70
    32
  0
VERTEX
  8
0
  5
241
 10
-22.6652
 20
42.3893
 30
0.000000
  70
    32
  0
VERTEX
  8
0
  5
242
 10
-22.6457
 20
42.2379
 30
0.000000
  70
    32
  0
VERTEX
  8
0
  5
243
 10
-22.6218
 20
42.0878
 30
0.000000
  70
    32
  0
VERTEX
  8
0
  5
244
 10
-22.5937
 20
41.9392
 30
0.000000
  70
    32
  0
VERTEX
  8
0
  5
245
 10
-22.5614
 20
41.7923
 30
0.000000
  70
    32
  0
VERTEX
  8
0
  5
246
 10
-22.5249
 20
41.6474
 30
0.000000
  70
    32
  0
VERTEX
  8
0
  5
247
 10
-22.4844
 20
41.5047
 30
0.000000
  70
    32
  0
VERTEX
  8
0
  5
248
 10
-22.4397
 20
41.3644
 30
0.000000
  70
    32
  0
VERTEX
  8
0
  5
249
 10
-22.3912
 20
41.2267
 30
0.000000
  70
    32
  0
VERTEX
  8
0
  5
24A
 10
-22.3387
 20
41.0920
 30
0.000000
  70
    32
  0
VERTEX
  8
0
  5
24B
 10
-22.2825
 20
40.9603
 30
0.000000
  70
    32
  0
VERTEX
  8
0
  5
24C
 10
-22.2225
 20
40.8319
 30
0.000000
  70
    32
  0
VERTEX
  8
0
  5
24D
 10
-22.1590
 20
40.7071
 30
0.000000
  70
    32
  0
VERTEX
  8
0
  5
24E
 10
-22.0919
 20
40.5860
 30
0.000000
  70
    32
  0
VERTEX
  8
0
  5
24F
 10
-22.0215
 20
40.4688
 30
0.000000
  70
    32
  0
VERTEX
  8
0
  5
250
 10
-21.9477
 20
40.3557
 30
0.000000
  70
    32
  0
VERTEX
  8
0
  5
251
 10
-21.8709
 20
40.2468
 30
0.000000
  70
    32
  0
VERTEX
  8
0
  5
252
 10
-21.7909
 20
40.1425
 30
0.000000
  70
    32
  0
VERTEX
  8
0
  5
253
 10
-21.7081
 20
40.0428
 30
0.000000
  70
    32
  0
VERTEX
  8
0
  5
254
 10
-21.6225
 20
39.9479
 30
0.000000
  70
    32
  0
VERTEX
  8
0
  5
255
 10
-21.5342
 20
39.8580
 30
0.000000
  70
    32
  0
VERTEX
  8
0
  5
256
 10
-21.4435
 20
39.7731
 30
0.000000
  70
    32
  0
VERTEX
  8
0
  5
257
 10
-21.3504
 20
39.6935
 30
0.000000
  70
    32
  0
VERTEX
  8
0
  5
258
 10
-21.2551
 20
39.6193
 30
0.000000
  70
    32
  0
VERTEX
  8
0
  5
259
 10
-21.1578
 20
39.5505
 30
0.000000
  70
    32
  0
VERTEX
  8
0
  5
25A
 10
-21.0586
 20
39.4874
 30
0.000000
  70
    32
  0
VERTEX
  8
0
  5
25B
 10
-20.9577
 20
39.4299
 30
0.000000
  70
    32
  0
VERTEX
  8
0
  5
25C
 10
-20.8553
 20
39.3783
 30
0.000000
  70
    32
  0
VERTEX
  8
0
  5
25D
 10
-20.7514
 20
39.3325
 30
0.000000
  70
    32
  0
VERTEX
  8
0
  5
25E
 10
-20.6464
 20
39.2927
 30
0.000000
  70
    32
  0
VERTEX
  8
0
  5
25F
 10
-20.5402
 20
39.2588
 30
0.000000
  70
    32
  0
VERTEX
  8
0
  5
260
 10
-20.4333
 20
39.2311
 30
0.000000
  70
    32
  0
VERTEX
  8
0
  5
261
 10
-20.3256
 20
39.2095
 30
0.000000
  70
    32
  0
VERTEX
  8
0
  5
262
 10
-20.2173
 20
39.1940
 30
0.000000
  70
    32
  0
VERTEX
  8
0
  5
263
 10
-20.1088
 20
39.1847
 30
0.000000
  70
    32
  0
VERTEX
  8
0
  5
264
 10
-20.0000
 20
39.1816
 30
0.000000
  70
    32
  0
VERTEX
  8
0
  5
265
 10
-19.8912
 20
39.1847
 30
0.000000
  70
    32
  0
VERTEX
  8
0
  5
266
 10
-19.7827
 20
39.1940
 30
0.000000
  70
    32
  0
VERTEX
  8
0
  5
267
 10
-19.6744
 20
39.2095
 30
0.000000
  70
    32
  0
VERTEX
  8
0
  5
268
 10
-19.5667
 20
39.2311
 30
0.000000
  70
    32
  0
VERTEX
  8
0
  5
269
 10
-19.4598
 20
39.2588
 30
0.000000
  70
    32
  0
VERTEX
  8
0
  5
26A
 10
-19.3536
 20
39.2927
 30
0.000000
  70
    32
  0
VERTEX
  8
0
  5
26B
 10
-19.2486
 20
39.3325
 30
0.000000
  70
    32
  0
VERTEX
  8
0
  5
26C
 10
-19.1447
 20
39.3783
 30
0.000000
  70
    32
  0
VERTEX
  8
0
  5
26D
 10
-19.0423
 20
39.4299
 30
0.000000
  70
    32
  0
VERTEX
  8
0
  5
26E
 10
-18.9414
 20
39.4874
 30
0.000000
  70
    32
  0
VERTEX
  8
0
  5
26F
 10
-18.8422
 20
39.5505
 30
0.000000
  70
    32
  0
VERTEX
  8
0
  5
270
 10
-18.7449
 20
39.6193
 30
0.000000
  70
    32
  0
VERTEX
  8
0
  5
271
 10
-18.6496
 20
39.6935
 30
0.000000
  70
    32
  0
VERTEX
  8
0
  5
272
 10
-18.5565
 20
39.7731
 30
0.000000
  70
    32
  0
VERTEX
  8
0
  5
273
 10
-18.4658
 20
39.8580
 30
0.000000
  70
    32
  0
VERTEX
  8
0
  5
274
 10
-18.3775
 20
39.9479
 30
0.000000
  70
    32
  0
VERTEX
  8
0
  5
275
 10
-18.2919
 20
40.0428
 30
0.000000
  70
    32
  0
VERTEX
  8
0
  5
276
 10
-18.2091
 20
40.1425
 30
0.000000
  70
    32
  0
VERTEX
  8
0
  5
277
 10
-18.1291
 20
40.2468
 30
0.000000
  70
    32
  0
VERTEX
  8
0
  5
278
 10
-18.0523
 20
40.3557
 30
0.000000
  70
    32
  0
VERTEX
  8
0
  5
279
 10
-17.9785
 20
40.4688
 30
0.000000
  70
    32
  0
VERTEX
  8
0
  5
27A
 10
-17.9081
 20
40.5860
 30
0.000000
  70
    32
  0
VERTEX
  8
0
  5
27B
 10
-17.8410
 20
40.7071
 30
0.000000
  70
    32
  0
VERTEX
  8
0
  5
27C
 10
-17.7775
 20
40.8319
 30
0.000000
  70
    32
  0
VERTEX
  8
0
  5
27D
 10
-17.7175
 20
40.9603
 30
0.000000
  70
    32
  0
VERTEX
  8
0
  5
27E
 10
-17.6613
 20
41.0920
 30
0.000000
  70
    32
  0
VERTEX
  8
0
  5
27F
 10
-17.6088
 20
41.2267
 30
0.000000
  70
    32
  0
VERTEX
  8
0
  5
280
 10
-17.5603
 20
41.3644
 30
0.000000
  70
    32
  0
VERTEX
  8
0
  5
281
 10
-17.5156
 20
41.5047
 30
0.000000
  70
    32
  0
VERTEX
  8
0
  5
282
 10
-17.4751
 20
41.6474
 30
0.000000
  70
    32
  0
VERTEX
  8
0
  5
283
 10
-17.4386
 20
41.7923
 30
0.000000
  70
    32
  0
VERTEX
  8
0
  5
284
 10
-17.4063
 20
41.9392
 30
0.000000
  70
    32
  0
VERTEX
  8
0
  5
285
 10
-17.3782
 20
42.0878
 30
0.000000
  70
    32
  0
VERTEX
  8
0
  5
286
 10
-17.3543
 20
42.2379
 30
0.000000
  70
    32
  0
VERTEX
  8
0
  5
287
 10
-17.3348
 20
42.3893
 30
0.000000
  70
    32
  0
VERTEX
  8
0
  5
288
 10
-17.3195
 20
42.5416
 30
0.000000
  70
    32
  0
VERTEX
  8
0
  5
289
 10
-17.3086
 20
42.6946
 30
0.000000
  70
    32
  0
VERTEX
  8
0
  5
28A
 10
-17.3021
 20
42.8482
 30
0.000000
  70
    32
  0
VERTEX
  8
0
  5
28B
 10
-17.3000
 20
43.0020
 30
0.000000
  70
    32
  0
VERTEX
  8
0
  5
28C
 10
-17.3022
 20
43.1558
 30
0.000000
  70
    32
  0
VERTEX
  8
0
  5
28D
 10
-17.3089
 20
43.3093
 30
0.000000
  70
    32
  0
VERTEX
  8
0
  5
28E
 10
-17.3199
 20
43.4624
 30
0.000000
  70
    32
  0
VERTEX
  8
0
  5
28F
 10
-17.3352
 20
43.6147
 30
0.000000
  70
    32
  0
VERTEX
  8
0
  5
290
 10
-17.3549
 20
43.7660
 30
0.000000
  70
    32
  0
VERTEX
  8
0
  5
291
 10
-17.3788
 20
43.9160
 30
0.000000
  70
    32
  0
VERTEX
  8
0
  5
292
 10
-17.4071
 20
44.0646
 30
0.000000
  70
    32
  0
VERTEX
  8
0
  5
293
 10
-17.4395
 20
44.2114
 30
0.000000
  70
    32
  0
VERTEX
  8
0
  5
294
 10
-17.4761
 20
44.3563
 30
0.000000
  70
    32
  0
VERTEX
  8
0
  5
295
 10
-17.5167
 20
44.4990
 30
0.000000
  70
    32
  0
VERTEX
  8
0
  5
296
 10
-17.5615
 20
44.6392
 30
0.000000
  70
    32
  0
VERTEX
  8
0
  5
297
 10
-17.6101
 20
44.7768
 30
0.000000
  70
    32
  0
VERTEX
  8
0
  5
298
 10
-17.6627
 20
44.9115
 30
0.000000
  70
    32
  0
VERTEX
  8
0
  5
299
 10
-17.7190
 20
45.0431
 30
0.000000
  70
    32
  0
VERTEX
  8
0
  5
29A
 10
-17.7791
 20
45.1714
 30
0.000000
  70
    32
  0
VERTEX
  8
0
  5
29B
 10
-17.8427
 20
45.2961
 30
0.000000
  70
    32
  0
VERTEX
  8
0
  5
29C
 10
-17.9098
 20
45.4171
 30
0.000000
  70
    32
  0
VERTEX
  8
0
  5
29D
 10
-17.9804
 20
45.5342
 30
0.000000
  70
    32
  0
VERTEX
  8
0
  5
29E
 10
-18.0542
 20
45.6472
 30
0.000000
  70
    32
  0
VERTEX
  8
0
  5
29F
 10
-18.1312
 20
45.7559
 30
0.000000
  70
    32
  0
VERTEX
  8
0
  5
2A0
 10
-18.2112
 20
45.8601
 30
0.000000
  70
    32
  0
VERTEX
  8
0
  5
2A1
 10
-18.2941
 20
45.9597
 30
0.000000
  70
    32
  0
VERTEX
  8
0
  5
2A2
 10
-18.3798
 20
46.0545
 30
0.000000
  70
    32
  0
VERTEX
  8
0
  5
2A3
 10
-18.4681
 20
46.1443
 30
0.000000
  70
    32
  0
VERTEX
  8
0
  5
2A4
 10
-18.5589
 20
46.2290
 30
0.000000
  70
    32
  0
SEQEND
  8
0
  5
2A5
  0
POLYLINE
  5
43
  8
0
  6
HIDDEN
 62
     8
 10
-21.44110357018468
 20
81.229000000000056
 30
0.0
 66
     1
 70
     8
  0
VERTEX
  8
0
  5
2A6
 10
-21.4411
 20
81.2290
 30
0.000000
  70
    32
  0
VERTEX
  8
0
  5
2A7
 10
-21.5319
 20
81.1443
 30
0.000000
  70
    32
  0
VERTEX
  8
0
  5
2A8
 10
-21.6202
 20
81.0545
 30
0.000000
  70
    32
  0
VERTEX
  8
0
  5
2A9
 10
-21.7059
 20
80.9597
 30
0.000000
  70
    32
  0
VERTEX
  8
0
  5
2AA
 10
-21.7888
 20
80.8601
 30
0.000000
  70
    32
  0
VERTEX
  8
0
  5
2AB
 10
-21.8688
 20
80.7559
 30
0.000000
  70
    32
  0
VERTEX
  8
0
  5
2AC
 10
-21.9458
 20
80.6472
 30
0.000000
  70
    32
  0
VERTEX
  8
0
  5
2AD
 10
-22.0196
 20
80.5342
 30
0.000000
  70
    32
  0
VERTEX
  8
0
  5
2AE
 10
-22.0902
 20
80.4171
 30
0.000000
  70
    32
  0
VERTEX
  8
0
  5
2AF
 10
-22.1573
 20
80.2961
 30
0.000000
  70
    32
  0
VERTEX
  8
0
  5
2B0
 10
-22.2209
 20
80.1714
 30
0.000000
  70
    32
  0
VERTEX
  8
0
  5
2B1
 10
-22.2810
 20
80.0431
 30
0.000000
  70
    32
  0
VERTEX
  8
0
  5
2B2
 10
-22.3373
 20
79.9115
 30
0.000000
  70
    32
  0
VERTEX
  8
0
  5
2B3
 10
-22.3899
 20
79.7768
 30
0.000000
  70
    32
  0
VERTEX
  8
0
  5
2B4
 10
-22.4385
 20
79.6392
 30
0.000000
  70
    32
  0
VERTEX
  8
0
  5
2B5
 10
-22.4833
 20
79.4990
 30
0.000000
  70
    32
  0
VERTEX
  8
0
  5
2B6
 10
-22.5239
 20
79.3563
 30
0.000000
  70
    32
  0
VERTEX
  8
0
  5
2B7
 10
-22.5605
 20
79.2114
 30
0.000000
  70
    32
  0
VERTEX
  8
0
  5
2B8
 10
-22.5929
 20
79.0646
 30
0.000000
  70
    32
  0
VERTEX
  8
0
  5
2B9
 10
-22.6212
 20
78.9160
 30
0.000000
  70
    32
  0
VERTEX
  8
0
  5
2BA
 10
-22.6451
 20
78.7660
 30
0.000000
  70
    32
  0
VERTEX
  8
0
  5
2BB
 10
-22.6648
 20
78.6147
 30
0.000000
  70
    32
  0
VERTEX
  8
0
  5
2BC
 10
-22.6801
 20
78.4624
 30
0.000000
  70
    32
  0
VERTEX
  8
0
  5
2BD
 10
-22.6911
 20
78.3093
 30
0.000000
  70
    32
  0
VERTEX
  8
0
  5
2BE
 10
-22.6978
 20
78.1558
 30
0.000000
  70
    32
  0
VERTEX
  8
0
  5
2BF
 10
-22.7000
 20
78.0020
 30
0.000000
  70
    32
  0
VERTEX
  8
0
  5
2C0
 10
-22.6979
 20
77.8482
 30
0.000000
  70
    32
  0
VERTEX
  8
0
  5
2C1
 10
-22.6914
 20
77.6946
 30
0.000000
  70
    32
  0
VERTEX
  8
0
  5
2C2
 10
-22.6805
 20
77.5416
 30
0.000000
  70
    32
  0
VERTEX
  8
0
  5
2C3
 10
-22.6652
 20
77.3893
 30
0.000000
  70
    32
  0
VERTEX
  8
0
  5
2C4
 10
-22.6457
 20
77.2379
 30
0.000000
  70
    32
  0
VERTEX
  8
0
  5
2C5
 10
-22.6218
 20
77.0878
 30
0.000000
  70
    32
  0
VERTEX
  8
0
  5
2C6
 10
-22.5937
 20
76.9392
 30
0.000000
  70
    32
  0
VERTEX
  8
0
  5
2C7
 10
-22.5614
 20
76.7923
 30
0.000000
  70
    32
  0
VERTEX
  8
0
  5
2C8
 10
-22.5249
 20
76.6474
 30
0.000000
  70
    32
  0
VERTEX
  8
0
  5
2C9
 10
-22.4844
 20
76.5047
 30
0.000000
  70
    32
  0
VERTEX
  8
0
  5
2CA
 10
-22.4397
 20
76.3644
 30
0.000000
  70
    32
  0
VERTEX
  8
0
  5
2CB
 10
-22.3912
 20
76.2267
 30
0.000000
  70
    32
  0
VERTEX
  8
0
  5
2CC
 10
-22.3387
 20
76.0920
 30
0.000000
  70
    32
  0
VERTEX
  8
0
  5
2CD
 10
-22.2825
 20
75.9603
 30
0.000000
  70
    32
  0
VERTEX
  8
0
  5
2CE
 10
-22.2225
 20
75.8319
 30
0.000000
  70
    32
  0
VERTEX
  8
0
  5
2CF
 10
-22.1590
 20
75.7071
 30
0.000000
  70
    32
  0
VERTEX
  8
0
  5
2D0
 10
-22.0919
 20
75.5860
 30
0.000000
  70
    32
  0
VERTEX
  8
0
  5
2D1
 10
-22.0215
 20
75.4688
 30
0.000000
  70
    32
  0
VERTEX
  8
0
  5
2D2
 10
-21.9477
 20
75.3557
 30
0.000000
  70
    32
  0
VERTEX
  8
0
  5
2D3
 10
-21.8709
 20
75.2468
 30
0.000000
  70
    32
  0
VERTEX
  8
0
  5
2D4
 10
-21.7909
 20
75.1425
 30
0.000000
  70
    32
  0
VERTEX
  8
0
  5
2D5
 10
-21.7081
 20
75.0428
 30
0.000000
  70
    32
  0
VERTEX
  8
0
  5
2D6
 10
-21.6225
 20
74.9479
 30
0.000000
  70
    32
  0
VERTEX
  8
0
  5
2D7
 10
-21.5342
 20
74.8580
 30
0.000000
  70
    32
  0
VERTEX
  8
0
  5
2D8
 10
-21.4435
 20
74.7731
 30
0.000000
  70
    32
  0
VERTEX
  8
0
  5
2D9
 10
-21.3504
 20
74.6935
 30
0.000000
  70
    32
  0
VERTEX
  8
0
  5
2DA
 10
-21.2551
 20
74.6193
 30
0.000000
  70
    32
  0
VERTEX
  8
0
  5
2DB
 10
-21.1578
 20
74.5505
 30
0.000000
  70
    32
  0
VERTEX
  8
0
  5
2DC
 10
-21.0586
 20
74.4874
 30
0.000000
  70
    32
  0
VERTEX
  8
0
  5
2DD
 10
-20.9577
 20
74.4299
 30
0.000000
  70
    32
  0
VERTEX
  8
0
  5
2DE
 10
-20.8553
 20
74.3783
 30
0.000000
  70
    32
  0
VERTEX
  8
0
  5
2DF
 10
-20.7514
 20
74.3325
 30
0.000000
  70
    32
  0
VERTEX
  8
0
  5
2E0
 10
-20.6464
 20
74.2927
 30
0.000000
  70
    32
  0
VERTEX
  8
0
  5
2E1
 10
-20.5402
 20
74.2588
 30
0.000000
  70
    32
  0
VERTEX
  8
0
  5
2E2
 10
-20.4333
 20
74.2311
 30
0.000000
  70
    32
  0
VERTEX
  8
0
  5
2E3
 10
-20.3256
 20
74.2095
 30
0.000000
  70
    32
  0
VERTEX
  8
0
  5
2E4
 10
-20.2173
 20
74.1940
 30
0.000000
  70
    32
  0
VERTEX
  8
0
  5
2E5
 10
-20.1088
 20
74.1847
 30
0.000000
  70
    32
  0
VERTEX
  8
0
  5
2E6
 10
-20.0000
 20
74.1816
 30
0.000000
  70
    32
  0
VERTEX
  8
0
  5
2E7
 10
-19.8912
 20
74.1847
 30
0.000000
  70
    32
  0
VERTEX
  8
0
  5
2E8
 10
-19.7827
 20
74.1940
 30
0.000000
  70
    32
  0
VERTEX
  8
0
  5
2E9
 10
-19.6744
 20
74.2095
 30
0.000000
  70
    32
  0
VERTEX
  8
0
  5
2EA
 10
-19.5667
 20
74.2311
 30
0.000000
  70
    32
  0
VERTEX
  8
0
  5
2EB
 10
-19.4598
 20
74.2588
 30
0.000000
  70
    32
  0
VERTEX
  8
0
  5
2EC
 10
-19.3536
 20
74.2927
 30
0.000000
  70
    32
  0
VERTEX
  8
0
  5
2ED
 10
-19.2486
 20
74.3325
 30
0.000000
  70
    32
  0
VERTEX
  8
0
  5
2EE
 10
-19.1447
 20
74.3783
 30
0.000000
  70
    32
  0
VERTEX
  8
0
  5
2EF
 10
-19.0423
 20
74.4299
 30
0.000000
  70
    32
  0
VERTEX
  8
0
  5
2F0
 10
-18.9414
 20
74.4874
 30
0.000000
  70
    32
  0
VERTEX
  8
0
  5
2F1
 10
-18.8422
 20
74.5505
 30
0.000000
  70
    32
  0
VERTEX
  8
0
  5
2F2
 10
-18.7449
 20
74.6193
 30
0.000000
  70
    32
  0
VERTEX
  8
0
  5
2F3
 10
-18.6496
 20
74.6935
 30
0.000000
  70
    32
  0
VERTEX
  8
0
  5
2F4
 10
-18.5565
 20
74.7731
 30
0.000000
  70
    32
  0
VERTEX
  8
0
  5
2F5
 10
-18.4658
 20
74.8580
 30
0.000000
  70
    32
  0
VERTEX
  8
0
  5
2F6
 10
-18.3775
 20
74.9479
 30
0.000000
  70
    32
  0
VERTEX
  8
0
  5
2F7
 10
-18.2919
 20
75.0428
 30
0.000000
  70
    32
  0
VERTEX
  8
0
  5
2F8
 10
-18.2091
 20
75.1425
 30
0.000000
  70
    32
  0
VERTEX
  8
0
  5
2F9
 10
-18.1291
 20
75.2468
 30
0.000000
  70
    32
  0
VERTEX
  8
0
  5
2FA
 10
-18.0523
 20
75.3557
 30
0.000000
  70
    32
  0
VERTEX
  8
0
  5
2FB
 10
-17.9785
 20
75.4688
 30
0.000000
  70
    32
  0
VERTEX
  8
0
  5
2FC
 10
-17.9081
 20
75.5860
 30
0.000000
  70
    32
  0
VERTEX
  8
0
  5
2FD
 10
-17.8410
 20
75.7071
 30
0.000000
  70
    32
  0
VERTEX
  8
0
  5
2FE
 10
-17.7775
 20
75.8319
 30
0.000000
  70
    32
  0
VERTEX
  8
0
  5
2FF
 10
-17.7175
 20
75.9603
 30
0.000000
  70
    32
  0
VERTEX
  8
0
  5
300
 10
-17.6613
 20
76.0920
 30
0.000000
  70
    32
  0
VERTEX
  8
0
  5
301
 10
-17.6088
 20
76.2267
 30
0.000000
  70
    32
  0
VERTEX
  8
0
  5
302
 10
-17.5603
 20
76.3644
 30
0.000000
  70
    32
  0
VERTEX
  8
0
  5
303
 10
-17.5156
 20
76.5047
 30
0.000000
  70
    32
  0
VERTEX
  8
0
  5
304
 10
-17.4751
 20
76.6474
 30
0.000000
  70
    32
  0
VERTEX
  8
0
  5
305
 10
-17.4386
 20
76.7923
 30
0.000000
  70
    32
  0
VERTEX
  8
0
  5
306
 10
-17.4063
 20
76.9392
 30
0.000000
  70
    32
  0
VERTEX
  8
0
  5
307
 10
-17.3782
 20
77.0878
 30
0.000000
  70
    32
  0
VERTEX
  8
0
  5
308
 10
-17.3543
 20
77.2379
 30
0.000000
  70
    32
  0
VERTEX
  8
0
  5
309
 10
-17.3348
 20
77.3893
 30
0.000000
  70
    32
  0
VERTEX
  8
0
  5
30A
 10
-17.3195
 20
77.5416
 30
0.000000
  70
    32
  0
VERTEX
  8
0
  5
30B
 10
-17.3086
 20
77.6946
 30
0.000000
  70
    32
  0
VERTEX
  8
0
  5
30C
 10
-17.3021
 20
77.8482
 30
0.000000
  70
    32
  0
VERTEX
  8
0
  5
30D
 10
-17.3000
 20
78.0020
 30
0.000000
  70
    32
  0
VERTEX
  8
0
  5
30E
 10
-17.3022
 20
78.1558
 30
0.000000
  70
    32
  0
VERTEX
  8
0
  5
30F
 10
-17.3089
 20
78.3093
 30
0.000000
  70
    32
  0
VERTEX
  8
0
  5
310
 10
-17.3199
 20
78.4624
 30
0.000000
  70
    32
  0
VERTEX
  8
0
  5
311
 10
-17.3352
 20
78.6147
 30
0.000000
  70
    32
  0
VERTEX
  8
0
  5
312
 10
-17.3549
 20
78.7660
 30
0.000000
  70
    32
  0
VERTEX
  8
0
  5
313
 10
-17.3788
 20
78.9160
 30
0.000000
  70
    32
  0
VERTEX
  8
0
  5
314
 10
-17.4071
 20
79.0646
 30
0.000000
  70
    32
  0
VERTEX
  8
0
  5
315
 10
-17.4395
 20
79.2114
 30
0.000000
  70
    32
  0
VERTEX
  8
0
  5
316
 10
-17.4761
 20
79.3563
 30
0.000000
  70
    32
  0
VERTEX
  8
0
  5
317
 10
-17.5167
 20
79.4990
 30
0.000000
  70
    32
  0
VERTEX
  8
0
  5
318
 10
-17.5615
 20
79.6392
 30
0.000000
  70
    32
  0
VERTEX
  8
0
  5
319
 10
-17.6101
 20
79.7768
 30
0.000000
  70
    32
  0
VERTEX
  8
0
  5
31A
 10
-17.6627
 20
79.9115
 30
0.000000
  70
    32
  0
VERTEX
  8
0
  5
31B
 10
-17.7190
 20
80.0431
 30
0.000000
  70
    32
  0
VERTEX
  8
0
  5
31C
 10
-17.7791
 20
80.1714
 30
0.000000
  70
    32
  0
VERTEX
  8
0
  5
31D
 10
-17.8427
 20
80.2961
 30
0.000000
  70
    32
  0
VERTEX
  8
0
  5
31E
 10
-17.9098
 20
80.4171
 30
0.000000
  70
    32
  0
VERTEX
  8
0
  5
31F
 10
-17.9804
 20
80.5342
 30
0.000000
  70
    32
  0
VERTEX
  8
0
  5
320
 10
-18.0542
 20
80.6472
 30
0.000000
  70
    32
  0
VERTEX
  8
0
  5
321
 10
-18.1312
 20
80.7559
 30
0.000000
  70
    32
  0
VERTEX
  8
0
  5
322
 10
-18.2112
 20
80.8601
 30
0.000000
  70
    32
  0
VERTEX
  8
0
  5
323
 10
-18.2941
 20
80.9597
 30
0.000000
  70
    32
  0
VERTEX
  8
0
  5
324
 10
-18.3798
 20
81.0545
 30
0.000000
  70
    32
  0
VERTEX
  8
0
  5
325
 10
-18.4681
 20
81.1443
 30
0.000000
  70
    32
  0
VERTEX
  8
0
  5
326
 10
-18.5589
 20
81.2290
 30
0.000000
  70
    32
  0
SEQEND
  8
0
  5
327
  0
POLYLINE
  5
44
  8
0
 10
-19.999999999999709
 20
95.071067811865433
 30
0.0
 66
     1
 70
     8
  0
VERTEX
  8
0
  5
328
 10
-20.0000
 20
95.0711
 30
0.000000
  70
    32
  0
VERTEX
  8
0
  5
329
 10
-20.2453
 20
95.0626
 30
0.000000
  70
    32
  0
VERTEX
  8
0
  5
32A
 10
-20.4901
 20
95.0370
 30
0.000000
  70
    32
  0
VERTEX
  8
0
  5
32B
 10
-20.7337
 20
94.9945
 30
0.000000
  70
    32
  0
VERTEX
  8
0
  5
32C
 10
-20.9755
 20
94.9352
 30
0.000000
  70
    32
  0
VERTEX
  8
0
  5
32D
 10
-21.2149
 20
94.8592
 30
0.000000
  70
    32
  0
VERTEX
  8
0
  5
32E
 10
-21.4514
 20
94.7666
 30
0.000000
  70
    32
  0
VERTEX
  8
0
  5
32F
 10
-21.6844
 20
94.6577
 30
0.000000
  70
    32
  0
VERTEX
  8
0
  5
330
 10
-21.9134
 20
94.5328
 30
0.000000
  70
    32
  0
VERTEX
  8
0
  5
331
 10
-22.1378
 20
94.3922
 30
0.000000
  70
    32
  0
VERTEX
  8
0
  5
332
 10
-22.3570
 20
94.2361
 30
0.000000
  70
    32
  0
VERTEX
  8
0
  5
333
 10
-22.5705
 20
94.0651
 30
0.000000
  70
    32
  0
VERTEX
  8
0
  5
334
 10
-22.7779
 20
93.8794
 30
0.000000
  70
    32
  0
VERTEX
  8
0
  5
335
 10
-22.9785
 20
93.6795
 30
0.000000
  70
    32
  0
VERTEX
  8
0
  5
336
 10
-23.1720
 20
93.4660
 30
0.000000
  70
    32
  0
VERTEX
  8
0
  5
337
 10
-23.3578
 20
93.2393
 30
0.000000
  70
    32
  0
VERTEX
  8
0
  5
338
 10
-23.5355
 20
93.0000
 30
0.000000
  70
    32
  0
VERTEX
  8
0
  5
339
 10
-23.7048
 20
92.7486
 30
0.000000
  70
    32
  0
VERTEX
  8
0
  5
33A
 10
-23.8651
 20
92.4858
 30
0.000000
  70
    32
  0
VERTEX
  8
0
  5
33B
 10
-24.0160
 20
92.2122
 30
0.000000
  70
    32
  0
VERTEX
  8
0
  5
33C
 10
-24.1573
 20
91.9285
 30
0.000000
  70
    32
  0
VERTEX
  8
0
  5
33D
 10
-24.2886
 20
91.6353
 30
0.000000
  70
    32
  0
VERTEX
  8
0
  5
33E
 10
-24.4096
 20
91.3333
 30
0.000000
  70
    32
  0
VERTEX
  8
0
  5
33F
 10
-24.5199
 20
91.0233
 30
0.000000
  70
    32
  0
VERTEX
  8
0
  5
340
 10
-24.6194
 20
90.7060
 30
0.000000
  70
    32
  0
VERTEX
  8
0
  5
341
 10
-24.7077
 20
90.3822
 30
0.000000
  70
    32
  0
VERTEX
  8
0
  5
342
 10
-24.7847
 20
90.0526
 30
0.000000
  70
    32
  0
VERTEX
  8
0
  5
343
 10
-24.8502
 20
89.7181
 30
0.000000
  70
    32
  0
VERTEX
  8
0
  5
344
 10
-24.9039
 20
89.3795
 30
0.000000
  70
    32
  0
VERTEX
  8
0
  5
345
 10
-24.9459
 20
89.0375
 30
0.000000
  70
    32
  0
VERTEX
  8
0
  5
346
 10
-24.9759
 20
88.6931
 30
0.000000
  70
    32
  0
VERTEX
  8
0
  5
347
 10
-24.9940
 20
88.3470
 30
0.000000
  70
    32
  0
VERTEX
  8
0
  5
348
 10
-25.0000
 20
88.0000
 30
0.000000
  70
    32
  0
VERTEX
  8
0
  5
349
 10
-24.9940
 20
87.6530
 30
0.000000
  70
    32
  0
VERTEX
  8
0
  5
34A
 10
-24.9759
 20
87.3069
 30
0.000000
  70
    32
  0
VERTEX
  8
0
  5
34B
 10
-24.9459
 20
86.9625
 30
0.000000
  70
    32
  0
VERTEX
  8
0
  5
34C
 10
-24.9039
 20
86.6205
 30
0.000000
  70
    32
  0
VERTEX
  8
0
  5
34D
 10
-24.8502
 20
86.2819
 30
0.000000
  70
    32
  0
VERTEX
  8
0
  5
34E
 10
-24.7847
 20
85.9474
 30
0.000000
  70
    32
  0
VERTEX
  8
0
  5
34F
 10
-24.7077
 20
85.6178
 30
0.000000
  70
    32
  0
VERTEX
  8
0
  5
350
 10
-24.6194
 20
85.2940
 30
0.000000
  70
    32
  0
VERTEX
  8
0
  5
351
 10
-24.5199
 20
84.9767
 30
0.000000
  70
    32
  0
VERTEX
  8
0
  5
352
 10
-24.4096
 20
84.6667
 30
0.000000
  70
    32
  0
VERTEX
  8
0
  5
353
 10
-24.2886
 20
84.3647
 30
0.000000
  70
    32
  0
VERTEX
  8
0
  5
354
 10
-24.1573
 20
84.0715
 30
0.000000
  70
    32
  0
VERTEX
  8
0
  5
355
 10
-24.0160
 20
83.7878
 30
0.000000
  70
    32
  0
VERTEX
  8
0
  5
356
 10
-23.8651
 20
83.5142
 30
0.000000
  70
    32
  0
VERTEX
  8
0
  5
357
 10
-23.7048
 20
83.2514
 30
0.000000
  70
    32
  0
VERTEX
  8
0
  5
358
 10
-23.5355
 20
83.0000
 30
0.000000
  70
    32
  0
VERTEX
  8
0
  5
359
 10
-23.3578
 20
82.7607
 30
0.000000
  70
    32
  0
VERTEX
  8
0
  5
35A
 10
-23.1720
 20
82.5340
 30
0.000000
  70
    32
  0
VERTEX
  8
0
  5
35B
 10
-22.9785
 20
82.3205
 30
0.000000
  70
    32
  0
VERTEX
  8
0
  5
35C
 10
-22.7779
 20
82.1206
 30
0.000000
  70
    32
  0
VERTEX
  8
0
  5
35D
 10
-22.5705
 20
81.9349
 30
0.000000
  70
    32
  0
VERTEX
  8
0
  5
35E
 10
-22.3570
 20
81.7639
 30
0.000000
  70
    32
  0
VERTEX
  8
0
  5
35F
 10
-22.1378
 20
81.6078
 30
0.000000
  70
    32
  0
VERTEX
  8
0
  5
360
 10
-21.9134
 20
81.4672
 30
0.000000
  70
    32
  0
VERTEX
  8
0
  5
361
 10
-21.6844
 20
81.3423
 30
0.000000
  70
    32
  0
VERTEX
  8
0
  5
362
 10
-21.4514
 20
81.2334
 30
0.000000
  70
    32
  0
VERTEX
  8
0
  5
363
 10
-21.2149
 20
81.1408
 30
0.000000
  70
    32
  0
VERTEX
  8
0
  5
364
 10
-20.9755
 20
81.0648
 30
0.000000
  70
    32
  0
VERTEX
  8
0
  5
365
 10
-20.7337
 20
81.0055
 30
0.000000
  70
    32
  0
VERTEX
  8
0
  5
366
 10
-20.4901
 20
80.9630
 30
0.000000
  70
    32
  0
VERTEX
  8
0
  5
367
 10
-20.2453
 20
80.9374
 30
0.000000
  70
    32
  0
VERTEX
  8
0
  5
368
 10
-20.0000
 20
80.9289
 30
0.000000
  70
    32
  0
VERTEX
  8
0
  5
369
 10
-19.7547
 20
80.9374
 30
0.000000
  70
    32
  0
VERTEX
  8
0
  5
36A
 10
-19.5099
 20
80.9630
 30
0.000000
  70
    32
  0
VERTEX
  8
0
  5
36B
 10
-19.2663
 20
81.0055
 30
0.000000
  70
    32
  0
VERTEX
  8
0
  5
36C
 10
-19.0245
 20
81.0648
 30
0.000000
  70
    32
  0
VERTEX
  8
0
  5
36D
 10
-18.7851
 20
81.1408
 30
0.000000
  70
    32
  0
VERTEX
  8
0
  5
36E
 10
-18.5486
 20
81.2334
 30
0.000000
  70
    32
  0
VERTEX
  8
0
  5
36F
 10
-18.3156
 20
81.3423
 30
0.000000
  70
    32
  0
VERTEX
  8
0
  5
370
 10
-18.0866
 20
81.4672
 30
0.000000
  70
    32
  0
VERTEX
  8
0
  5
371
 10
-17.8622
 20
81.6078
 30
0.000000
  70
    32
  0
VERTEX
  8
0
  5
372
 10
-17.6430
 20
81.7639
 30
0.000000
  70
    32
  0
VERTEX
  8
0
  5
373
 10
-17.4295
 20
81.9349
 30
0.000000
  70
    32
  0
VERTEX
  8
0
  5
374
 10
-17.2221
 20
82.1206
 30
0.000000
  70
    32
  0
VERTEX
  8
0
  5
375
 10
-17.0215
 20
82.3205
 30
0.000000
  70
    32
  0
VERTEX
  8
0
  5
376
 10
-16.8280
 20
82.5340
 30
0.000000
  70
    32
  0
VERTEX
  8
0
  5
377
 10
-16.6422
 20
82.7607
 30
0.000000
  70
    32
  0
VERTEX
  8
0
  5
378
 10
-16.4645
 20
83.0000
 30
0.000000
  70
    32
  0
VERTEX
  8
0
  5
379
 10
-16.2952
 20
83.2514
 30
0.000000
  70
    32
  0
VERTEX
  8
0
  5
37A
 10
-16.1349
 20
83.5142
 30
0.000000
  70
    32
  0
VERTEX
  8
0
  5
37B
 10
-15.9840
 20
83.7878
 30
0.000000
  70
    32
  0
VERTEX
  8
0
  5
37C
 10
-15.8427
 20
84.0715
 30
0.000000
  70
    32
  0
VERTEX
  8
0
  5
37D
 10
-15.7114
 20
84.3647
 30
0.000000
  70
    32
  0
VERTEX
  8
0
  5
37E
 10
-15.5904
 20
84.6667
 30
0.000000
  70
    32
  0
VERTEX
  8
0
  5
37F
 10
-15.4801
 20
84.9767
 30
0.000000
  70
    32
  0
VERTEX
  8
0
  5
380
 10
-15.3806
 20
85.2940
 30
0.000000
  70
    32
  0
VERTEX
  8
0
  5
381
 10
-15.2923
 20
85.6178
 30
0.000000
  70
    32
  0
VERTEX
  8
0
  5
382
 10
-15.2153
 20
85.9474
 30
0.000000
  70
    32
  0
VERTEX
  8
0
  5
383
 10
-15.1498
 20
86.2819
 30
0.000000
  70
    32
  0
VERTEX
  8
0
  5
384
 10
-15.0961
 20
86.6205
 30
0.000000
  70
    32
  0
VERTEX
  8
0
  5
385
 10
-15.0541
 20
86.9625
 30
0.000000
  70
    32
  0
VERTEX
  8
0
  5
386
 10
-15.0241
 20
87.3069
 30
0.000000
  70
    32
  0
VERTEX
  8
0
  5
387
 10
-15.0060
 20
87.6530
 30
0.000000
  70
    32
  0
VERTEX
  8
0
  5
388
 10
-15.0000
 20
88.0000
 30
0.000000
  70
    32
  0
VERTEX
  8
0
  5
389
 10
-15.0060
 20
88.3470
 30
0.000000
  70
    32
  0
VERTEX
  8
0
  5
38A
 10
-15.0241
 20
88.6931
 30
0.000000
  70
    32
  0
VERTEX
  8
0
  5
38B
 10
-15.0541
 20
89.0375
 30
0.000000
  70
    32
  0
VERTEX
  8
0
  5
38C
 10
-15.0961
 20
89.3795
 30
0.000000
  70
    32
  0
VERTEX
  8
0
  5
38D
 10
-15.1498
 20
89.7181
 30
0.000000
  70
    32
  0
VERTEX
  8
0
  5
38E
 10
-15.2153
 20
90.0526
 30
0.000000
  70
    32
  0
VERTEX
  8
0
  5
38F
 10
-15.2923
 20
90.3822
 30
0.000000
  70
    32
  0
VERTEX
  8
0
  5
390
 10
-15.3806
 20
90.7060
 30
0.000000
  70
    32
  0
VERTEX
  8
0
  5
391
 10
-15.4801
 20
91.0233
 30
0.000000
  70
    32
  0
VERTEX
  8
0
  5
392
 10
-15.5904
 20
91.3333
 30
0.000000
  70
    32
  0
VERTEX
  8
0
  5
393
 10
-15.7114
 20
91.6353
 30
0.000000
  70
    32
  0
VERTEX
  8
0
  5
394
 10
-15.8427
 20
91.9285
 30
0.000000
  70
    32
  0
VERTEX
  8
0
  5
395
 10
-15.9840
 20
92.2122
 30
0.000000
  70
    32
  0
VERTEX
  8
0
  5
396
 10
-16.1349
 20
92.4858
 30
0.000000
  70
    32
  0
VERTEX
  8
0
  5
397
 10
-16.2952
 20
92.7486
 30
0.000000
  70
    32
  0
VERTEX
  8
0
  5
398
 10
-16.4645
 20
93.0000
 30
0.000000
  70
    32
  0
VERTEX
  8
0
  5
399
 10
-16.6422
 20
93.2393
 30
0.000000
  70
    32
  0
VERTEX
  8
0
  5
39A
 10
-16.8280
 20
93.4660
 30
0.000000
  70
    32
  0
VERTEX
  8
0
  5
39B
 10
-17.0215
 20
93.6795
 30
0.000000
  70
    32
  0
VERTEX
  8
0
  5
39C
 10
-17.2221
 20
93.8794
 30
0.000000
  70
    32
  0
VERTEX
  8
0
  5
39D
 10
-17.4295
 20
94.0651
 30
0.000000
  70
    32
  0
VERTEX
  8
0
  5
39E
 10
-17.6430
 20
94.2361
 30
0.000000
  70
    32
  0
VERTEX
  8
0
  5
39F
 10
-17.8622
 20
94.3922
 30
0.000000
  70
    32
  0
VERTEX
  8
0
  5
3A0
 10
-18.0866
 20
94.5328
 30
0.000000
  70
    32
  0
VERTEX
  8
0
  5
3A1
 10
-18.3156
 20
94.6577
 30
0.000000
  70
    32
  0
VERTEX
  8
0
  5
3A2
 10
-18.5486
 20
94.7666
 30
0.000000
  70
    32
  0
VERTEX
  8
0
  5
3A3
 10
-18.7851
 20
94.8592
 30
0.000000
  70
    32
  0
VERTEX
  8
0
  5
3A4
 10
-19.0245
 20
94.9352
 30
0.000000
  70
    32
  0
VERTEX
  8
0
  5
3A5
 10
-19.2663
 20
94.9945
 30
0.000000
  70
    32
  0
VERTEX
  8
0
  5
3A6
 10
-19.5099
 20
95.0370
 30
0.000000
  70
    32
  0
VERTEX
  8
0
  5
3A7
 10
-19.7547
 20
95.0626
 30
0.000000
  70
    32
  0
VERTEX
  8
0
  5
3A8
 10
-20.0000
 20
95.0711
 30
0.000000
  70
    32
  0
SEQEND
  8
0
  5
3A9
  0
POLYLINE
  5
45
  8
0
 10
-17.499999999999709
 20
82.696699141100893
 30
0.0
 66
     1
 70
     8
  0
VERTEX
  8
0
  5
3AA
 10
-17.5000
 20
82.6967
 30
0.000000
  70
    32
  0
VERTEX
  8
0
  5
3AB
 10
-17.5030
 20
82.7834
 30
0.000000
  70
    32
  0
VERTEX
  8
0
  5
3AC
 10
-17.5120
 20
82.8700
 30
0.000000
  70
    32
  0
VERTEX
  8
0
  5
3AD
 10
-17.5271
 20
82.9561
 30
0.000000
  70
    32
  0
VERTEX
  8
0
  5
3AE
 10
-17.5480
 20
83.0416
 30
0.000000
  70
    32
  0
VERTEX
  8
0
  5
3AF
 10
-17.5749
 20
83.1262
 30
0.000000
  70
    32
  0
VERTEX
  8
0
  5
3B0
 10
-17.6076
 20
83.2099
 30
0.000000
  70
    32
  0
VERTEX
  8
0
  5
3B1
 10
-17.6461
 20
83.2922
 30
0.000000
  70
    32
  0
VERTEX
  8
0
  5
3B2
 10
-17.6903
 20
83.3732
 30
0.000000
  70
    32
  0
VERTEX
  8
0
  5
3B3
 10
-17.7400
 20
83.4525
 30
0.000000
  70
    32
  0
VERTEX
  8
0
  5
3B4
 10
-17.7952
 20
83.5300
 30
0.000000
  70
    32
  0
VERTEX
  8
0
  5
3B5
 10
-17.8557
 20
83.6055
 30
0.000000
  70
    32
  0
VERTEX
  8
0
  5
3B6
 10
-17.9213
 20
83.6788
 30
0.000000
  70
    32
  0
VERTEX
  8
0
  5
3B7
 10
-17.9920
 20
83.7498
 30
0.000000
  70
    32
  0
VERTEX
  8
0
  5
3B8
 10
-18.0675
 20
83.8182
 30
0.000000
  70
    32
  0
VERTEX
  8
0
  5
3B9
 10
-18.1476
 20
83.8839
 30
0.000000
  70
    32
  0
VERTEX
  8
0
  5
3BA
 10
-18.2322
 20
83.9467
 30
0.000000
  70
    32
  0
VERTEX
  8
0
  5
3BB
 10
-18.3211
 20
84.0065
 30
0.000000
  70
    32
  0
VERTEX
  8
0
  5
3BC
 10
-18.4140
 20
84.0632
 30
0.000000
  70
    32
  0
VERTEX
  8
0
  5
3BD
 10
-18.5108
 20
84.1166
 30
0.000000
  70
    32
  0
VERTEX
  8
0
  5
3BE
 10
-18.6111
 20
84.1665
 30
0.000000
  70
    32
  0
VERTEX
  8
0
  5
3BF
 10
-18.7147
 20
84.2130
 30
0.000000
  70
    32
  0
VERTEX
  8
0
  5
3C0
 10
-18.8215
 20
84.2557
 30
0.000000
  70
    32
  0
VERTEX
  8
0
  5
3C1
 10
-18.9311
 20
84.2947
 30
0.000000
  70
    32
  0
VERTEX
  8
0
  5
3C2
 10
-19.0433
 20
84.3299
 30
0.000000
  70
    32
  0
VERTEX
  8
0
  5
3C3
 10
-19.1578
 20
84.3611
 30
0.000000
  70
    32
  0
VERTEX
  8
0
  5
3C4
 10
-19.2743
 20
84.3883
 30
0.000000
  70
    32
  0
VERTEX
  8
0
  5
3C5
 10
-19.3925
 20
84.4115
 30
0.000000
  70
    32
  0
VERTEX
  8
0
  5
3C6
 10
-19.5123
 20
84.4305
 30
0.000000
  70
    32
  0
VERTEX
  8
0
  5
3C7
 10
-19.6332
 20
84.4453
 30
0.000000
  70
    32
  0
VERTEX
  8
0
  5
3C8
 10
-19.7550
 20
84.4560
 30
0.000000
  70
    32
  0
VERTEX
  8
0
  5
3C9
 10
-19.8773
 20
84.4623
 30
0.000000
  70
    32
  0
VERTEX
  8
0
  5
3CA
 10
-20.0000
 20
84.4645
 30
0.000000
  70
    32
  0
VERTEX
  8
0
  5
3CB
 10
-20.1227
 20
84.4623
 30
0.000000
  70
    32
  0
VERTEX
  8
0
  5
3CC
 10
-20.2450
 20
84.4560
 30
0.000000
  70
    32
  0
VERTEX
  8
0
  5
3CD
 10
-20.3668
 20
84.4453
 30
0.000000
  70
    32
  0
VERTEX
  8
0
  5
3CE
 10
-20.4877
 20
84.4305
 30
0.000000
  70
    32
  0
VERTEX
  8
0
  5
3CF
 10
-20.6075
 20
84.4115
 30
0.000000
  70
    32
  0
VERTEX
  8
0
  5
3D0
 10
-20.7257
 20
84.3883
 30
0.000000
  70
    32
  0
VERTEX
  8
0
  5
3D1
 10
-20.8422
 20
84.3611
 30
0.000000
  70
    32
  0
VERTEX
  8
0
  5
3D2
 10
-20.9567
 20
84.3299
 30
0.000000
  70
    32
  0
VERTEX
  8
0
  5
3D3
 10
-21.0689
 20
84.2947
 30
0.000000
  70
    32
  0
VERTEX
  8
0
  5
3D4
 10
-21.1785
 20
84.2557
 30
0.000000
  70
    32
  0
VERTEX
  8
0
  5
3D5
 10
-21.2853
 20
84.2130
 30
0.000000
  70
    32
  0
VERTEX
  8
0
  5
3D6
 10
-21.3889
 20
84.1665
 30
0.000000
  70
    32
  0
VERTEX
  8
0
  5
3D7
 10
-21.4892
 20
84.1166
 30
0.000000
  70
    32
  0
VERTEX
  8
0
  5
3D8
 10
-21.5860
 20
84.0632
 30
0.000000
  70
    32
  0
VERTEX
  8
0
  5
3D9
 10
-21.6789
 20
84.0065
 30
0.000000
  70
    32
  0
VERTEX
  8
0
  5
3DA
 10
-21.7678
 20
83.9467
 30
0.000000
  70
    32
  0
VERTEX
  8
0
  5
3DB
 10
-21.8524
 20
83.8839
 30
0.000000
  70
    32
  0
VERTEX
  8
0
  5
3DC
 10
-21.9325
 20
83.8182
 30
0.000000
  70
    32
  0
VERTEX
  8
0
  5
3DD
 10
-22.0080
 20
83.7498
 30
0.000000
  70
    32
  0
VERTEX
  8
0
  5
3DE
 10
-22.0787
 20
83.6788
 30
0.000000
  70
    32
  0
VERTEX
  8
0
  5
3DF
 10
-22.1443
 20
83.6055
 30
0.000000
  70
    32
  0
VERTEX
  8
0
  5
3E0
 10
-22.2048
 20
83.5300
 30
0.000000
  70
    32
  0
VERTEX
  8
0
  5
3E1
 10
-22.2600
 20
83.4525
 30
0.000000
  70
    32
  0
VERTEX
  8
0
  5
3E2
 10
-22.3097
 20
83.3732
 30
0.000000
  70
    32
  0
VERTEX
  8
0
  5
3E3
 10
-22.3539
 20
83.2922
 30
0.000000
  70
    32
  0
VERTEX
  8
0
  5
3E4
 10
-22.3924
 20
83.2099
 30
0.000000
  70
    32
  0
VERTEX
  8
0
  5
3E5
 10
-22.4251
 20
83.1262
 30
0.000000
  70
    32
  0
VERTEX
  8
0
  5
3E6
 10
-22.4520
 20
83.0416
 30
0.000000
  70
    32
  0
VERTEX
  8
0
  5
3E7
 10
-22.4729
 20
82.9561
 30
0.000000
  70
    32
  0
VERTEX
  8
0
  5
3E8
 10
-22.4880
 20
82.8700
 30
0.000000
  70
    32
  0
VERTEX
  8
0
  5
3E9
 10
-22.4970
 20
82.7834
 30
0.000000
  70
    32
  0
VERTEX
  8
0
  5
3EA
 10
-22.5000
 20
82.6967
 30
0.000000
  70
    32
  0
VERTEX
  8
0
  5
3EB
 10
-22.4970
 20
82.6100
 30
0.000000
  70
    32
  0
VERTEX
  8
0
  5
3EC
 10
-22.4880
 20
82.5234
 30
0.000000
  70
    32
  0
VERTEX
  8
0
  5
3ED
 10
-22.4729
 20
82.4373
 30
0.000000
  70
    32
  0
VERTEX
  8
0
  5
3EE
 10
-22.4520
 20
82.3518
 30
0.000000
  70
    32
  0
VERTEX
  8
0
  5
3EF
 10
-22.4251
 20
82.2672
 30
0.000000
  70
    32
  0
VERTEX
  8
0
  5
3F0
 10
-22.3924
 20
82.1835
 30
0.000000
  70
    32
  0
VERTEX
  8
0
  5
3F1
 10
-22.3539
 20
82.1012
 30
0.000000
  70
    32
  0
VERTEX
  8
0
  5
3F2
 10
-22.3097
 20
82.0202
 30
0.000000
  70
    32
  0
VERTEX
  8
0
  5
3F3
 10
-22.2600
 20
81.9409
 30
0.000000
  70
    32
  0
VERTEX
  8
0
  5
3F4
 10
-22.2048
 20
81.8634
 30
0.000000
  70
    32
  0
VERTEX
  8
0
  5
3F5
 10
-22.1443
 20
81.7879
 30
0.000000
  70
    32
  0
VERTEX
  8
0
  5
3F6
 10
-22.0787
 20
81.7146
 30
0.000000
  70
    32
  0
VERTEX
  8
0
  5
3F7
 10
-22.0080
 20
81.6436
 30
0.000000
  70
    32
  0
VERTEX
  8
0
  5
3F8
 10
-21.9325
 20
81.5752
 30
0.000000
  70
    32
  0
VERTEX
  8
0
  5
3F9
 10
-21.8524
 20
81.5095
 30
0.000000
  70
    32
  0
VERTEX
  8
0
  5
3FA
 10
-21.7678
 20
81.4467
 30
0.000000
  70
    32
  0
VERTEX
  8
0
  5
3FB
 10
-21.6789
 20
81.3869
 30
0.000000
  70
    32
  0
VERTEX
  8
0
  5
3FC
 10
-21.5860
 20
81.3302
 30
0.000000
  70
    32
  0
VERTEX
  8
0
  5
3FD
 10
-21.4892
 20
81.2768
 30
0.000000
  70
    32
  0
VERTEX
  8
0
  5
3FE
 10
-21.3889
 20
81.2269
 30
0.000000
  70
    32
  0
VERTEX
  8
0
  5
3FF
 10
-21.2853
 20
81.1804
 30
0.000000
  70
    32
  0
VERTEX
  8
0
  5
400
 10
-21.1785
 20
81.1377
 30
0.000000
  70
    32
  0
VERTEX
  8
0
  5
401
 10
-21.0689
 20
81.0987
 30
0.000000
  70
    32
  0
VERTEX
  8
0
  5
402
 10
-20.9567
 20
81.0635
 30
0.000000
  70
    32
  0
VERTEX
  8
0
  5
403
 10
-20.8422
 20
81.0323
 30
0.000000
  70
    32
  0
VERTEX
  8
0
  5
404
 10
-20.7257
 20
81.0051
 30
0.000000
  70
    32
  0
VERTEX
  8
0
  5
405
 10
-20.6075
 20
80.9819
 30
0.000000
  70
    32
  0
VERTEX
  8
0
  5
406
 10
-20.4877
 20
80.9629
 30
0.000000
  70
    32
  0
VERTEX
  8
0
  5
407
 10
-20.3668
 20
80.9481
 30
0.000000
  70
    32
  0
VERTEX
  8
0
  5
408
 10
-20.2450
 20
80.9374
 30
0.000000
  70
    32
  0
VERTEX
  8
0
  5
409
 10
-20.1227
 20
80.9311
 30
0.000000
  70
    32
  0
VERTEX
  8
0
  5
40A
 10
-20.0000
 20
80.9289
 30
0.000000
  70
    32
  0
VERTEX
  8
0
  5
40B
 10
-19.8773
 20
80.9311
 30
0.000000
  70
    32
  0
VERTEX
  8
0
  5
40C
 10
-19.7550
 20
80.9374
 30
0.000000
  70
    32
  0
VERTEX
  8
0
  5
40D
 10
-19.6332
 20
80.9481
 30
0.000000
  70
    32
  0
VERTEX
  8
0
  5
40E
 10
-19.5123
 20
80.9629
 30
0.000000
  70
    32
  0
VERTEX
  8
0
  5
40F
 10
-19.3925
 20
80.9819
 30
0.000000
  70
    32
  0
VERTEX
  8
0
  5
410
 10
-19.2743
 20
81.0051
 30
0.000000
  70
    32
  0
VERTEX
  8
0
  5
411
 10
-19.1578
 20
81.0323
 30
0.000000
  70
    32
  0
VERTEX
  8
0
  5
412
 10
-19.0433
 20
81.0635
 30
0.000000
  70
    32
  0
VERTEX
  8
0
  5
413
 10
-18.9311
 20
81.0987
 30
0.000000
  70
    32
  0
VERTEX
  8
0
  5
414
 10
-18.8215
 20
81.1377
 30
0.000000
  70
    32
  0
VERTEX
  8
0
  5
415
 10
-18.7147
 20
81.1804
 30
0.000000
  70
    32
  0
VERTEX
  8
0
  5
416
 10
-18.6111
 20
81.2269
 30
0.000000
  70
    32
  0
VERTEX
  8
0
  5
417
 10
-18.5108
 20
81.2768
 30
0.000000
  70
    32
  0
VERTEX
  8
0
  5
418
 10
-18.4140
 20
81.3302
 30
0.000000
  70
    32
  0
VERTEX
  8
0
  5
419
 10
-18.3211
 20
81.3869
 30
0.000000
  70
    32
  0
VERTEX
  8
0
  5
41A
 10
-18.2322
 20
81.4467
 30
0.000000
  70
    32
  0
VERTEX
  8
0
  5
41B
 10
-18.1476
 20
81.5095
 30
0.000000
  70
    32
  0
VERTEX
  8
0
  5
41C
 10
-18.0675
 20
81.5752
 30
0.000000
  70
    32
  0
VERTEX
  8
0
  5
41D
 10
-17.9920
 20
81.6436
 30
0.000000
  70
    32
  0
VERTEX
  8
0
  5
41E
 10
-17.9213
 20
81.7146
 30
0.000000
  70
    32
  0
VERTEX
  8
0
  5
41F
 10
-17.8557
 20
81.7879
 30
0.000000
  70
    32
  0
VERTEX
  8
0
  5
420
 10
-17.7952
 20
81.8634
 30
0.000000
  70
    32
  0
VERTEX
  8
0
  5
421
 10
-17.7400
 20
81.9409
 30
0.000000
  70
    32
  0
VERTEX
  8
0
  5
422
 10
-17.6903
 20
82.0202
 30
0.000000
  70
    32
  0
VERTEX
  8
0
  5
423
 10
-17.6461
 20
82.1012
 30
0.000000
  70
    32
  0
VERTEX
  8
0
  5
424
 10
-17.6076
 20
82.1835
 30
0.000000
  70
    32
  0
VERTEX
  8
0
  5
425
 10
-17.5749
 20
82.2672
 30
0.000000
  70
    32
  0
VERTEX
  8
0
  5
426
 10
-17.5480
 20
82.3518
 30
0.000000
  70
    32
  0
VERTEX
  8
0
  5
427
 10
-17.5271
 20
82.4373
 30
0.000000
  70
    32
  0
VERTEX
  8
0
  5
428
 10
-17.5120
 20
82.5234
 30
0.000000
  70
    32
  0
VERTEX
  8
0
  5
429
 10
-17.5030
 20
82.6100
 30
0.000000
  70
    32
  0
VERTEX
  8
0
  5
42A
 10
-17.5000
 20
82.6967
 30
0.000000
  70
    32
  0
SEQEND
  8
0
  5
42B
  0
POLYLINE
  5
46
  8
0
 10
-15.285954792089505
 20
85.642977396044827
 30
0.0
 66
     1
 70
     8
  0
VERTEX
  8
0
  5
42C
 10
-15.2860
 20
85.6430
 30
0.000000
  70
    32
  0
VERTEX
  8
0
  5
42D
 10
-15.3189
 20
85.7069
 30
0.000000
  70
    32
  0
VERTEX
  8
0
  5
42E
 10
-15.3535
 20
85.7703
 30
0.000000
  70
    32
  0
VERTEX
  8
0
  5
42F
 10
-15.3899
 20
85.8332
 30
0.000000
  70
    32
  0
VERTEX
  8
0
  5
430
 10
-15.4280
 20
85.8957
 30
0.000000
  70
    32
  0
VERTEX
  8
0
  5
431
 10
-15.4678
 20
85.9576
 30
0.000000
  70
    32
  0
VERTEX
  8
0
  5
432
 10
-15.5092
 20
86.0190
 30
0.000000
  70
    32
  0
VERTEX
  8
0
  5
433
 10
-15.5523
 20
86.0797
 30
0.000000
  70
    32
  0
VERTEX
  8
0
  5
434
 10
-15.5971
 20
86.1399
 30
0.000000
  70
    32
  0
VERTEX
  8
0
  5
435
 10
-15.6435
 20
86.1995
 30
0.000000
  70
    32
  0
VERTEX
  8
0
  5
436
 10
-15.6915
 20
86.2584
 30
0.000000
  70
    32
  0
VERTEX
  8
0
  5
437
 10
-15.7411
 20
86.3167
 30
0.000000
  70
    32
  0
VERTEX
  8
0
  5
438
 10
-15.7922
 20
86.3743
 30
0.000000
  70
    32
  0
VERTEX
  8
0
  5
439
 10
-15.8450
 20
86.4311
 30
0.000000
  70
    32
  0
VERTEX
  8
0
  5
43A
 10
-15.8992
 20
86.4873
 30
0.000000
  70
    32
  0
VERTEX
  8
0
  5
43B
 10
-15.9550
 20
86.5427
 30
0.000000
  70
    32
  0
VERTEX
  8
0
  5
43C
 10
-16.0123
 20
86.5973
 30
0.000000
  70
    32
  0
VERTEX
  8
0
  5
43D
 10
-16.0710
 20
86.6511
 30
0.000000
  70
    32
  0
VERTEX
  8
0
  5
43E
 10
-16.1312
 20
86.7042
 30
0.000000
  70
    32
  0
VERTEX
  8
0
  5
43F
 10
-16.1928
 20
86.7564
 30
0.000000
  70
    32
  0
VERTEX
  8
0
  5
440
 10
-16.2559
 20
86.8077
 30
0.000000
  70
    32
  0
VERTEX
  8
0
  5
441
 10
-16.3203
 20
86.8582
 30
0.000000
  70
    32
  0
VERTEX
  8
0
  5
442
 10
-16.3861
 20
86.9078
 30
0.000000
  70
    32
  0
VERTEX
  8
0
  5
443
 10
-16.4532
 20
86.9565
 30
0.000000
  70
    32
  0
VERTEX
  8
0
  5
444
 10
-16.5217
 20
87.0043
 30
0.000000
  70
    32
  0
VERTEX
  8
0
  5
445
 10
-16.5914
 20
87.0511
 30
0.000000
  70
    32
  0
VERTEX
  8
0
  5
446
 10
-16.6624
 20
87.0970
 30
0.000000
  70
    32
  0
VERTEX
  8
0
  5
447
 10
-16.7346
 20
87.1419
 30
0.000000
  70
    32
  0
VERTEX
  8
0
  5
448
 10
-16.8080
 20
87.1858
 30
0.000000
  70
    32
  0
VERTEX
  8
0
  5
449
 10
-16.8826
 20
87.2287
 30
0.000000
  70
    32
  0
VERTEX
  8
0
  5
44A
 10
-16.9584
 20
87.2706
 30
0.000000
  70
    32
  0
VERTEX
  8
0
  5
44B
 10
-17.0353
 20
87.3114
 30
0.000000
  70
    32
  0
VERTEX
  8
0
  5
44C
 10
-17.1132
 20
87.3512
 30
0.000000
  70
    32
  0
VERTEX
  8
0
  5
44D
 10
-17.1923
 20
87.3899
 30
0.000000
  70
    32
  0
VERTEX
  8
0
  5
44E
 10
-17.2724
 20
87.4276
 30
0.000000
  70
    32
  0
VERTEX
  8
0
  5
44F
 10
-17.3535
 20
87.4641
 30
0.000000
  70
    32
  0
VERTEX
  8
0
  5
450
 10
-17.4356
 20
87.4996
 30
0.000000
  70
    32
  0
VERTEX
  8
0
  5
451
 10
-17.5186
 20
87.5339
 30
0.000000
  70
    32
  0
VERTEX
  8
0
  5
452
 10
-17.6025
 20
87.5671
 30
0.000000
  70
    32
  0
VERTEX
  8
0
  5
453
 10
-17.6874
 20
87.5991
 30
0.000000
  70
    32
  0
VERTEX
  8
0
  5
454
 10
-17.7731
 20
87.6300
 30
0.000000
  70
    32
  0
VERTEX
  8
0
  5
455
 10
-17.8596
 20
87.6597
 30
0.000000
  70
    32
  0
VERTEX
  8
0
  5
456
 10
-17.9469
 20
87.6882
 30
0.000000
  70
    32
  0
VERTEX
  8
0
  5
457
 10
-18.0349
 20
87.7155
 30
0.000000
  70
    32
  0
VERTEX
  8
0
  5
458
 10
-18.1237
 20
87.7416
 30
0.000000
  70
    32
  0
VERTEX
  8
0
  5
459
 10
-18.2132
 20
87.7665
 30
0.000000
  70
    32
  0
VERTEX
  8
0
  5
45A
 10
-18.3033
 20
87.7902
 30
0.000000
  70
    32
  0
VERTEX
  8
0
  5
45B
 10
-18.3941
 20
87.8127
 30
0.000000
  70
    32
  0
VERTEX
  8
0
  5
45C
 10
-18.4855
 20
87.8339
 30
0.000000
  70
    32
  0
VERTEX
  8
0
  5
45D
 10
-18.5774
 20
87.8539
 30
0.000000
  70
    32
  0
VERTEX
  8
0
  5
45E
 10
-18.6698
 20
87.8726
 30
0.000000
  70
    32
  0
VERTEX
  8
0
  5
45F
 10
-18.7628
 20
87.8901
 30
0.000000
  70
    32
  0
VERTEX
  8
0
  5
460
 10
-18.8562
 20
87.9062
 30
0.000000
  70
    32
  0
VERTEX
  8
0
  5
461
 10
-18.9500
 20
87.9212
 30
0.000000
  70
    32
  0
VERTEX
  8
0
  5
462
 10
-19.0442
 20
87.9348
 30
0.000000
  70
    32
  0
VERTEX
  8
0
  5
463
 10
-19.1388
 20
87.9472
 30
0.000000
  70
    32
  0
VERTEX
  8
0
  5
464
 10
-19.2337
 20
87.9582
 30
0.000000
  70
    32
  0
VERTEX
  8
0
  5
465
 10
-19.3289
 20
87.9680
 30
0.000000
  70
    32
  0
VERTEX
  8
0
  5
466
 10
-19.4243
 20
87.9765
 30
0.000000
  70
    32
  0
VERTEX
  8
0
  5
467
 10
-19.5199
 20
87.9837
 30
0.000000
  70
    32
  0
VERTEX
  8
0
  5
468
 10
-19.6157
 20
87.9895
 30
0.000000
  70
    32
  0
VERTEX
  8
0
  5
469
 10
-19.7117
 20
87.9941
 30
0.000000
  70
    32
  0
VERTEX
  8
0
  5
46A
 10
-19.8077
 20
87.9974
 30
0.000000
  70
    32
  0
VERTEX
  8
0
  5
46B
 10
-19.9038
 20
87.9993
 30
0.000000
  70
    32
  0
VERTEX
  8
0
  5
46C
 10
-20.0000
 20
88.0000
 30
0.000000
  70
    32
  0
VERTEX
  8
0
  5
46D
 10
-20.0962
 20
87.9993
 30
0.000000
  70
    32
  0
VERTEX
  8
0
  5
46E
 10
-20.1923
 20
87.9974
 30
0.000000
  70
    32
  0
VERTEX
  8
0
  5
46F
 10
-20.2883
 20
87.9941
 30
0.000000
  70
    32
  0
VERTEX
  8
0
  5
470
 10
-20.3843
 20
87.9895
 30
0.000000
  70
    32
  0
VERTEX
  8
0
  5
471
 10
-20.4801
 20
87.9837
 30
0.000000
  70
    32
  0
VERTEX
  8
0
  5
472
 10
-20.5757
 20
87.9765
 30
0.000000
  70
    32
  0
VERTEX
  8
0
  5
473
 10
-20.6711
 20
87.9680
 30
0.000000
  70
    32
  0
VERTEX
  8
0
  5
474
 10
-20.7663
 20
87.9582
 30
0.000000
  70
    32
  0
VERTEX
  8
0
  5
475
 10
-20.8612
 20
87.9472
 30
0.000000
  70
    32
  0
VERTEX
  8
0
  5
476
 10
-20.9558
 20
87.9348
 30
0.000000
  70
    32
  0
VERTEX
  8
0
  5
477
 10
-21.0500
 20
87.9212
 30
0.000000
  70
    32
  0
VERTEX
  8
0
  5
478
 10
-21.1438
 20
87.9062
 30
0.000000
  70
    32
  0
VERTEX
  8
0
  5
479
 10
-21.2372
 20
87.8901
 30
0.000000
  70
    32
  0
VERTEX
  8
0
  5
47A
 10
-21.3302
 20
87.8726
 30
0.000000
  70
    32
  0
VERTEX
  8
0
  5
47B
 10
-21.4226
 20
87.8539
 30
0.000000
  70
    32
  0
VERTEX
  8
0
  5
47C
 10
-21.5145
 20
87.8339
 30
0.000000
  70
    32
  0
VERTEX
  8
0
  5
47D
 10
-21.6059
 20
87.8127
 30
0.000000
  70
    32
  0
VERTEX
  8
0
  5
47E
 10
-21.6967
 20
87.7902
 30
0.000000
  70
    32
  0
VERTEX
  8
0
  5
47F
 10
-21.7868
 20
87.7665
 30
0.000000
  70
    32
  0
VERTEX
  8
0
  5
480
 10
-21.8763
 20
87.7416
 30
0.000000
  70
    32
  0
VERTEX
  8
0
  5
481
 10
-21.9651
 20
87.7155
 30
0.000000
  70
    32
  0
VERTEX
  8
0
  5
482
 10
-22.0531
 20
87.6882
 30
0.000000
  70
    32
  0
VERTEX
  8
0
  5
483
 10
-22.1404
 20
87.6597
 30
0.000000
  70
    32
  0
VERTEX
  8
0
  5
484
 10
-22.2269
 20
87.6300
 30
0.000000
  70
    32
  0
VERTEX
  8
0
  5
485
 10
-22.3126
 20
87.5991
 30
0.000000
  70
    32
  0
VERTEX
  8
0
  5
486
 10
-22.3975
 20
87.5671
 30
0.000000
  70
    32
  0
VERTEX
  8
0
  5
487
 10
-22.4814
 20
87.5339
 30
0.000000
  70
    32
  0
VERTEX
  8
0
  5
488
 10
-22.5644
 20
87.4996
 30
0.000000
  70
    32
  0
VERTEX
  8
0
  5
489
 10
-22.6465
 20
87.4641
 30
0.000000
  70
    32
  0
VERTEX
  8
0
  5
48A
 10
-22.7276
 20
87.4276
 30
0.000000
  70
    32
  0
VERTEX
  8
0
  5
48B
 10
-22.8077
 20
87.3899
 30
0.000000
  70
    32
  0
VERTEX
  8
0
  5
48C
 10
-22.8868
 20
87.3512
 30
0.000000
  70
    32
  0
VERTEX
  8
0
  5
48D
 10
-22.9647
 20
87.3114
 30
0.000000
  70
    32
  0
VERTEX
  8
0
  5
48E
 10
-23.0416
 20
87.2706
 30
0.000000
  70
    32
  0
VERTEX
  8
0
  5
48F
 10
-23.1174
 20
87.2287
 30
0.000000
  70
    32
  0
VERTEX
  8
0
  5
490
 10
-23.1920
 20
87.1858
 30
0.000000
  70
    32
  0
VERTEX
  8
0
  5
491
 10
-23.2654
 20
87.1419
 30
0.000000
  70
    32
  0
VERTEX
  8
0
  5
492
 10
-23.3376
 20
87.0970
 30
0.000000
  70
    32
  0
VERTEX
  8
0
  5
493
 10
-23.4086
 20
87.0511
 30
0.000000
  70
    32
  0
VERTEX
  8
0
  5
494
 10
-23.4783
 20
87.0043
 30
0.000000
  70
    32
  0
VERTEX
  8
0
  5
495
 10
-23.5468
 20
86.9565
 30
0.000000
  70
    32
  0
VERTEX
  8
0
  5
496
 10
-23.6139
 20
86.9078
 30
0.000000
  70
    32
  0
VERTEX
  8
0
  5
497
 10
-23.6797
 20
86.8582
 30
0.000000
  70
    32
  0
VERTEX
  8
0
  5
498
 10
-23.7441
 20
86.8077
 30
0.000000
  70
    32
  0
VERTEX
  8
0
  5
499
 10
-23.8072
 20
86.7564
 30
0.000000
  70
    32
  0
VERTEX
  8
0
  5
49A
 10
-23.8688
 20
86.7042
 30
0.000000
  70
    32
  0
VERTEX
  8
0
  5
49B
 10
-23.9290
 20
86.6511
 30
0.000000
  70
    32
  0
VERTEX
  8
0
  5
49C
 10
-23.9877
 20
86.5973
 30
0.000000
  70
    32
  0
VERTEX
  8
0
  5
49D
 10
-24.0450
 20
86.5427
 30
0.000000
  70
    32
  0
VERTEX
  8
0
  5
49E
 10
-24.1008
 20
86.4873
 30
0.000000
  70
    32
  0
VERTEX
  8
0
  5
49F
 10
-24.1550
 20
86.4311
 30
0.000000
  70
    32
  0
VERTEX
  8
0
  5
4A0
 10
-24.2078
 20
86.3743
 30
0.000000
  70
    32
  0
VERTEX
  8
0
  5
4A1
 10
-24.2589
 20
86.3167
 30
0.000000
  70
    32
  0
VERTEX
  8
0
  5
4A2
 10
-24.3085
 20
86.2584
 30
0.000000
  70
    32
  0
VERTEX
  8
0
  5
4A3
 10
-24.3565
 20
86.1995
 30
0.000000
  70
    32
  0
VERTEX
  8
0
  5
4A4
 10
-24.4029
 20
86.1399
 30
0.000000
  70
    32
  0
VERTEX
  8
0
  5
4A5
 10
-24.4477
 20
86.0797
 30
0.000000
  70
    32
  0
VERTEX
  8
0
  5
4A6
 10
-24.4908
 20
86.0190
 30
0.000000
  70
    32
  0
VERTEX
  8
0
  5
4A7
 10
-24.5322
 20
85.9576
 30
0.000000
  70
    32
  0
VERTEX
  8
0
  5
4A8
 10
-24.5720
 20
85.8957
 30
0.000000
  70
    32
  0
VERTEX
  8
0
  5
4A9
 10
-24.6101
 20
85.8332
 30
0.000000
  70
    32
  0
VERTEX
  8
0
  5
4AA
 10
-24.6465
 20
85.7703
 30
0.000000
  70
    32
  0
VERTEX
  8
0
  5
4AB
 10
-24.6811
 20
85.7069
 30
0.000000
  70
    32
  0
VERTEX
  8
0
  5
4AC
 10
-24.7140
 20
85.6430
 30
0.000000
  70
    32
  0
SEQEND
  8
0
  5
4AD
  0
POLYLINE
  5
47
  8
0
 10
-15.285954792089505
 20
120.64297739604478
 30
0.0
 66
     1
 70
     8
  0
VERTEX
  8
0
  5
4AE
 10
-15.2860
 20
120.643
 30
0.000000
  70
    32
  0
VERTEX
  8
0
  5
4AF
 10
-15.3189
 20
120.707
 30
0.000000
  70
    32
  0
VERTEX
  8
0
  5
4B0
 10
-15.3535
 20
120.770
 30
0.000000
  70
    32
  0
VERTEX
  8
0
  5
4B1
 10
-15.3899
 20
120.833
 30
0.000000
  70
    32
  0
VERTEX
  8
0
  5
4B2
 10
-15.4280
 20
120.896
 30
0.000000
  70
    32
  0
VERTEX
  8
0
  5
4B3
 10
-15.4678
 20
120.958
 30
0.000000
  70
    32
  0
VERTEX
  8
0
  5
4B4
 10
-15.5092
 20
121.019
 30
0.000000
  70
    32
  0
VERTEX
  8
0
  5
4B5
 10
-15.5523
 20
121.080
 30
0.000000
  70
    32
  0
VERTEX
  8
0
  5
4B6
 10
-15.5971
 20
121.140
 30
0.000000
  70
    32
  0
VERTEX
  8
0
  5
4B7
 10
-15.6435
 20
121.199
 30
0.000000
  70
    32
  0
VERTEX
  8
0
  5
4B8
 10
-15.6915
 20
121.258
 30
0.000000
  70
    32
  0
VERTEX
  8
0
  5
4B9
 10
-15.7411
 20
121.317
 30
0.000000
  70
    32
  0
VERTEX
  8
0
  5
4BA
 10
-15.7922
 20
121.374
 30
0.000000
  70
    32
  0
VERTEX
  8
0
  5
4BB
 10
-15.8450
 20
121.431
 30
0.000000
  70
    32
  0
VERTEX
  8
0
  5
4BC
 10
-15.8992
 20
121.487
 30
0.000000
  70
    32
  0
VERTEX
  8
0
  5
4BD
 10
-15.9550
 20
121.543
 30
0.000000
  70
    32
  0
VERTEX
  8
0
  5
4BE
 10
-16.0123
 20
121.597
 30
0.000000
  70
    32
  0
VERTEX
  8
0
  5
4BF
 10
-16.0710
 20
121.651
 30
0.000000
  70
    32
  0
VERTEX
  8
0
  5
4C0
 10
-16.1312
 20
121.704
 30
0.000000
  70
    32
  0
VERTEX
  8
0
  5
4C1
 10
-16.1928
 20
121.756
 30
0.000000
  70
    32
  0
VERTEX
  8
0
  5
4C2
 10
-16.2559
 20
121.808
 30
0.000000
  70
    32
  0
VERTEX
  8
0
  5
4C3
 10
-16.3203
 20
121.858
 30
0.000000
  70
    32
  0
VERTEX
  8
0
  5
4C4
 10
-16.3861
 20
121.908
 30
0.000000
  70
    32
  0
VERTEX
  8
0
  5
4C5
 10
-16.4532
 20
121.956
 30
0.000000
  70
    32
  0
VERTEX
  8
0
  5
4C6
 10
-16.5217
 20
122.004
 30
0.000000
  70
    32
  0
VERTEX
  8
0
  5
4C7
 10
-16.5914
 20
122.051
 30
0.000000
  70
    32
  0
VERTEX
  8
0
  5
4C8
 10
-16.6624
 20
122.097
 30
0.000000
  70
    32
  0
VERTEX
  8
0
  5
4C9
 10
-16.7346
 20
122.142
 30
0.000000
  70
    32
  0
VERTEX
  8
0
  5
4CA
 10
-16.8080
 20
122.186
 30
0.000000
  70
    32
  0
VERTEX
  8
0
  5
4CB
 10
-16.8826
 20
122.229
 30
0.000000
  70
    32
  0
VERTEX
  8
0
  5
4CC
 10
-16.9584
 20
122.271
 30
0.000000
  70
    32
  0
VERTEX
  8
0
  5
4CD
 10
-17.0353
 20
122.311
 30
0.000000
  70
    32
  0
VERTEX
  8
0
  5
4CE
 10
-17.1132
 20
122.351
 30
0.000000
  70
    32
  0
VERTEX
  8
0
  5
4CF
 10
-17.1923
 20
122.390
 30
0.000000
  70
    32
  0
VERTEX
  8
0
  5
4D0
 10
-17.2724
 20
122.428
 30
0.000000
  70
    32
  0
VERTEX
  8
0
  5
4D1
 10
-17.3535
 20
122.464
 30
0.000000
  70
    32
  0
VERTEX
  8
0
  5
4D2
 10
-17.4356
 20
122.500
 30
0.000000
  70
    32
  0
VERTEX
  8
0
  5
4D3
 10
-17.5186
 20
122.534
 30
0.000000
  70
    32
  0
VERTEX
  8
0
  5
4D4
 10
-17.6025
 20
122.567
 30
0.000000
  70
    32
  0
VERTEX
  8
0
  5
4D5
 10
-17.6874
 20
122.599
 30
0.000000
  70
    32
  0
VERTEX
  8
0
  5
4D6
 10
-17.7731
 20
122.630
 30
0.000000
  70
    32
  0
VERTEX
  8
0
  5
4D7
 10
-17.8596
 20
122.660
 30
0.000000
  70
    32
  0
VERTEX
  8
0
  5
4D8
 10
-17.9469
 20
122.688
 30
0.000000
  70
    32
  0
VERTEX
  8
0
  5
4D9
 10
-18.0349
 20
122.716
 30
0.000000
  70
    32
  0
VERTEX
  8
0
  5
4DA
 10
-18.1237
 20
122.742
 30
0.000000
  70
    32
  0
VERTEX
  8
0
  5
4DB
 10
-18.2132
 20
122.767
 30
0.000000
  70
    32
  0
VERTEX
  8
0
  5
4DC
 10
-18.3033
 20
122.790
 30
0.000000
  70
    32
  0
VERTEX
  8
0
  5
4DD
 10
-18.3941
 20
122.813
 30
0.000000
  70
    32
  0
VERTEX
  8
0
  5
4DE
 10
-18.4855
 20
122.834
 30
0.000000
  70
    32
  0
VERTEX
  8
0
  5
4DF
 10
-18.5774
 20
122.854
 30
0.000000
  70
    32
  0
VERTEX
  8
0
  5
4E0
 10
-18.6698
 20
122.873
 30
0.000000
  70
    32
  0
VERTEX
  8
0
  5
4E1
 10
-18.7628
 20
122.890
 30
0.000000
  70
    32
  0
VERTEX
  8
0
  5
4E2
 10
-18.8562
 20
122.906
 30
0.000000
  70
    32
  0
VERTEX
  8
0
  5
4E3
 10
-18.9500
 20
122.921
 30
0.000000
  70
    32
  0
VERTEX
  8
0
  5
4E4
 10
-19.0442
 20
122.935
 30
0.000000
  70
    32
  0
VERTEX
  8
0
  5
4E5
 10
-19.1388
 20
122.947
 30
0.000000
  70
    32
  0
VERTEX
  8
0
  5
4E6
 10
-19.2337
 20
122.958
 30
0.000000
  70
    32
  0
VERTEX
  8
0
  5
4E7
 10
-19.3289
 20
122.968
 30
0.000000
  70
    32
  0
VERTEX
  8
0
  5
4E8
 10
-19.4243
 20
122.976
 30
0.000000
  70
    32
  0
VERTEX
  8
0
  5
4E9
 10
-19.5199
 20
122.984
 30
0.000000
  70
    32
  0
VERTEX
  8
0
  5
4EA
 10
-19.6157
 20
122.990
 30
0.000000
  70
    32
  0
VERTEX
  8
0
  5
4EB
 10
-19.7117
 20
122.994
 30
0.000000
  70
    32
  0
VERTEX
  8
0
  5
4EC
 10
-19.8077
 20
122.997
 30
0.000000
  70
    32
  0
VERTEX
  8
0
  5
4ED
 10
-19.9038
 20
122.999
 30
0.000000
  70
    32
  0
VERTEX
  8
0
  5
4EE
 10
-20.0000
 20
123.000
 30
0.000000
  70
    32
  0
VERTEX
  8
0
  5
4EF
 10
-20.0962
 20
122.999
 30
0.000000
  70
    32
  0
VERTEX
  8
0
  5
4F0
 10
-20.1923
 20
122.997
 30
0.000000
  70
    32
  0
VERTEX
  8
0
  5
4F1
 10
-20.2883
 20
122.994
 30
0.000000
  70
    32
  0
VERTEX
  8
0
  5
4F2
 10
-20.3843
 20
122.990
 30
0.000000
  70
    32
  0
VERTEX
  8
0
  5
4F3
 10
-20.4801
 20
122.984
 30
0.000000
  70
    32
  0
VERTEX
  8
0
  5
4F4
 10
-20.5757
 20
122.976
 30
0.000000
  70
    32
  0
VERTEX
  8
0
  5
4F5
 10
-20.6711
 20
122.968
 30
0.000000
  70
    32
  0
VERTEX
  8
0
  5
4F6
 10
-20.7663
 20
122.958
 30
0.000000
  70
    32
  0
VERTEX
  8
0
  5
4F7
 10
-20.8612
 20
122.947
 30
0.000000
  70
    32
  0
VERTEX
  8
0
  5
4F8
 10
-20.9558
 20
122.935
 30
0.000000
  70
    32
  0
VERTEX
  8
0
  5
4F9
 10
-21.0500
 20
122.921
 30
0.000000
  70
    32
  0
VERTEX
  8
0
  5
4FA
 10
-21.1438
 20
122.906
 30
0.000000
  70
    32
  0
VERTEX
  8
0
  5
4FB
 10
-21.2372
 20
122.890
 30
0.000000
  70
    32
  0
VERTEX
  8
0
  5
4FC
 10
-21.3302
 20
122.873
 30
0.000000
  70
    32
  0
VERTEX
  8
0
  5
4FD
 10
-21.4226
 20
122.854
 30
0.000000
  70
    32
  0
VERTEX
  8
0
  5
4FE
 10
-21.5145
 20
122.834
 30
0.000000
  70
    32
  0
VERTEX
  8
0
  5
4FF
 10
-21.6059
 20
122.813
 30
0.000000
  70
    32
  0
VERTEX
  8
0
  5
500
 10
-21.6967
 20
122.790
 30
0.000000
  70
    32
  0
VERTEX
  8
0
  5
501
 10
-21.7868
 20
122.767
 30
0.000000
  70
    32
  0
VERTEX
  8
0
  5
502
 10
-21.8763
 20
122.742
 30
0.000000
  70
    32
  0
VERTEX
  8
0
  5
503
 10
-21.9651
 20
122.716
 30
0.000000
  70
    32
  0
VERTEX
  8
0
  5
504
 10
-22.0531
 20
122.688
 30
0.000000
  70
    32
  0
VERTEX
  8
0
  5
505
 10
-22.1404
 20
122.660
 30
0.000000
  70
    32
  0
VERTEX
  8
0
  5
506
 10
-22.2269
 20
122.630
 30
0.000000
  70
    32
  0
VERTEX
  8
0
  5
507
 10
-22.3126
 20
122.599
 30
0.000000
  70
    32
  0
VERTEX
  8
0
  5
508
 10
-22.3975
 20
122.567
 30
0.000000
  70
    32
  0
VERTEX
  8
0
  5
509
 10
-22.4814
 20
122.534
 30
0.000000
  70
    32
  0
VERTEX
  8
0
  5
50A
 10
-22.5644
 20
122.500
 30
0.000000
  70
    32
  0
VERTEX
  8
0
  5
50B
 10
-22.6465
 20
122.464
 30
0.000000
  70
    32
  0
VERTEX
  8
0
  5
50C
 10
-22.7276
 20
122.428
 30
0.000000
  70
    32
  0
VERTEX
  8
0
  5
50D
 10
-22.8077
 20
122.390
 30
0.000000
  70
    32
  0
VERTEX
  8
0
  5
50E
 10
-22.8868
 20
122.351
 30
0.000000
  70
    32
  0
VERTEX
  8
0
  5
50F
 10
-22.9647
 20
122.311
 30
0.000000
  70
    32
  0
VERTEX
  8
0
  5
510
 10
-23.0416
 20
122.271
 30
0.000000
  70
    32
  0
VERTEX
  8
0
  5
511
 10
-23.1174
 20
122.229
 30
0.000000
  70
    32
  0
VERTEX
  8
0
  5
512
 10
-23.1920
 20
122.186
 30
0.000000
  70
    32
  0
VERTEX
  8
0
  5
513
 10
-23.2654
 20
122.142
 30
0.000000
  70
    32
  0
VERTEX
  8
0
  5
514
 10
-23.3376
 20
122.097
 30
0.000000
  70
    32
  0
VERTEX
  8
0
  5
515
 10
-23.4086
 20
122.051
 30
0.000000
  70
    32
  0
VERTEX
  8
0
  5
516
 10
-23.4783
 20
122.004
 30
0.000000
  70
    32
  0
VERTEX
  8
0
  5
517
 10
-23.5468
 20
121.956
 30
0.000000
  70
    32
  0
VERTEX
  8
0
  5
518
 10
-23.6139
 20
121.908
 30
0.000000
  70
    32
  0
VERTEX
  8
0
  5
519
 10
-23.6797
 20
121.858
 30
0.000000
  70
    32
  0
VERTEX
  8
0
  5
51A
 10
-23.7441
 20
121.808
 30
0.000000
  70
    32
  0
VERTEX
  8
0
  5
51B
 10
-23.8072
 20
121.756
 30
0.000000
  70
    32
  0
VERTEX
  8
0
  5
51C
 10
-23.8688
 20
121.704
 30
0.000000
  70
    32
  0
VERTEX
  8
0
  5
51D
 10
-23.9290
 20
121.651
 30
0.000000
  70
    32
  0
VERTEX
  8
0
  5
51E
 10
-23.9877
 20
121.597
 30
0.000000
  70
    32
  0
VERTEX
  8
0
  5
51F
 10
-24.0450
 20
121.543
 30
0.000000
  70
    32
  0
VERTEX
  8
0
  5
520
 10
-24.1008
 20
121.487
 30
0.000000
  70
    32
  0
VERTEX
  8
0
  5
521
 10
-24.1550
 20
121.431
 30
0.000000
  70
    32
  0
VERTEX
  8
0
  5
522
 10
-24.2078
 20
121.374
 30
0.000000
  70
    32
  0
VERTEX
  8
0
  5
523
 10
-24.2589
 20
121.317
 30
0.000000
  70
    32
  0
VERTEX
  8
0
  5
524
 10
-24.3085
 20
121.258
 30
0.000000
  70
    32
  0
VERTEX
  8
0
  5
525
 10
-24.3565
 20
121.199
 30
0.000000
  70
    32
  0
VERTEX
  8
0
  5
526
 10
-24.4029
 20
121.140
 30
0.000000
  70
    32
  0
VERTEX
  8
0
  5
527
 10
-24.4477
 20
121.080
 30
0.000000
  70
    32
  0
VERTEX
  8
0
  5
528
 10
-24.4908
 20
121.019
 30
0.000000
  70
    32
  0
VERTEX
  8
0
  5
529
 10
-24.5322
 20
120.958
 30
0.000000
  70
    32
  0
VERTEX
  8
0
  5
52A
 10
-24.5720
 20
120.896
 30
0.000000
  70
    32
  0
VERTEX
  8
0
  5
52B
 10
-24.6101
 20
120.833
 30
0.000000
  70
    32
  0
VERTEX
  8
0
  5
52C
 10
-24.6465
 20
120.770
 30
0.000000
  70
    32
  0
VERTEX
  8
0
  5
52D
 10
-24.6811
 20
120.707
 30
0.000000
  70
    32
  0
VERTEX
  8
0
  5
52E
 10
-24.7140
 20
120.643
 30
0.000000
  70
    32
  0
SEQEND
  8
0
  5
52F
  0
POLYLINE
  5
48
  8
0
 10
-17.499999999999709
 20
117.69669914110086
 30
0.0
 66
     1
 70
     8
  0
VERTEX
  8
0
  5
530
 10
-17.5000
 20
117.697
 30
0.000000
  70
    32
  0
VERTEX
  8
0
  5
531
 10
-17.5030
 20
117.783
 30
0.000000
  70
    32
  0
VERTEX
  8
0
  5
532
 10
-17.5120
 20
117.870
 30
0.000000
  70
    32
  0
VERTEX
  8
0
  5
533
 10
-17.5271
 20
117.956
 30
0.000000
  70
    32
  0
VERTEX
  8
0
  5
534
 10
-17.5480
 20
118.042
 30
0.000000
  70
    32
  0
VERTEX
  8
0
  5
535
 10
-17.5749
 20
118.126
 30
0.000000
  70
    32
  0
VERTEX
  8
0
  5
536
 10
-17.6076
 20
118.210
 30
0.000000
  70
    32
  0
VERTEX
  8
0
  5
537
 10
-17.6461
 20
118.292
 30
0.000000
  70
    32
  0
VERTEX
  8
0
  5
538
 10
-17.6903
 20
118.373
 30
0.000000
  70
    32
  0
VERTEX
  8
0
  5
539
 10
-17.7400
 20
118.453
 30
0.000000
  70
    32
  0
VERTEX
  8
0
  5
53A
 10
-17.7952
 20
118.530
 30
0.000000
  70
    32
  0
VERTEX
  8
0
  5
53B
 10
-17.8557
 20
118.606
 30
0.000000
  70
    32
  0
VERTEX
  8
0
  5
53C
 10
-17.9213
 20
118.679
 30
0.000000
  70
    32
  0
VERTEX
  8
0
  5
53D
 10
-17.9920
 20
118.750
 30
0.000000
  70
    32
  0
VERTEX
  8
0
  5
53E
 10
-18.0675
 20
118.818
 30
0.000000
  70
    32
  0
VERTEX
  8
0
  5
53F
 10
-18.1476
 20
118.884
 30
0.000000
  70
    32
  0
VERTEX
  8
0
  5
540
 10
-18.2322
 20
118.947
 30
0.000000
  70
    32
  0
VERTEX
  8
0
  5
541
 10
-18.3211
 20
119.007
 30
0.000000
  70
    32
  0
VERTEX
  8
0
  5
542
 10
-18.4140
 20
119.063
 30
0.000000
  70
    32
  0
VERTEX
  8
0
  5
543
 10
-18.5108
 20
119.117
 30
0.000000
  70
    32
  0
VERTEX
  8
0
  5
544
 10
-18.6111
 20
119.167
 30
0.000000
  70
    32
  0
VERTEX
  8
0
  5
545
 10
-18.7147
 20
119.213
 30
0.000000
  70
    32
  0
VERTEX
  8
0
  5
546
 10
-18.8215
 20
119.256
 30
0.000000
  70
    32
  0
VERTEX
  8
0
  5
547
 10
-18.9311
 20
119.295
 30
0.000000
  70
    32
  0
VERTEX
  8
0
  5
548
 10
-19.0433
 20
119.330
 30
0.000000
  70
    32
  0
VERTEX
  8
0
  5
549
 10
-19.1578
 20
119.361
 30
0.000000
  70
    32
  0
VERTEX
  8
0
  5
54A
 10
-19.2743
 20
119.388
 30
0.000000
  70
    32
  0
VERTEX
  8
0
  5
54B
 10
-19.3925
 20
119.411
 30
0.000000
  70
    32
  0
VERTEX
  8
0
  5
54C
 10
-19.5123
 20
119.430
 30
0.000000
  70
    32
  0
VERTEX
  8
0
  5
54D
 10
-19.6332
 20
119.445
 30
0.000000
  70
    32
  0
VERTEX
  8
0
  5
54E
 10
-19.7550
 20
119.456
 30
0.000000
  70
    32
  0
VERTEX
  8
0
  5
54F
 10
-19.8773
 20
119.462
 30
0.000000
  70
    32
  0
VERTEX
  8
0
  5
550
 10
-20.0000
 20
119.464
 30
0.000000
  70
    32
  0
VERTEX
  8
0
  5
551
 10
-20.1227
 20
119.462
 30
0.000000
  70
    32
  0
VERTEX
  8
0
  5
552
 10
-20.2450
 20
119.456
 30
0.000000
  70
    32
  0
VERTEX
  8
0
  5
553
 10
-20.3668
 20
119.445
 30
0.000000
  70
    32
  0
VERTEX
  8
0
  5
554
 10
-20.4877
 20
119.430
 30
0.000000
  70
    32
  0
VERTEX
  8
0
  5
555
 10
-20.6075
 20
119.411
 30
0.000000
  70
    32
  0
VERTEX
  8
0
  5
556
 10
-20.7257
 20
119.388
 30
0.000000
  70
    32
  0
VERTEX
  8
0
  5
557
 10
-20.8422
 20
119.361
 30
0.000000
  70
    32
  0
VERTEX
  8
0
  5
558
 10
-20.9567
 20
119.330
 30
0.000000
  70
    32
  0
VERTEX
  8
0
  5
559
 10
-21.0689
 20
119.295
 30
0.000000
  70
    32
  0
VERTEX
  8
0
  5
55A
 10
-21.1785
 20
119.256
 30
0.000000
  70
    32
  0
VERTEX
  8
0
  5
55B
 10
-21.2853
 20
119.213
 30
0.000000
  70
    32
  0
VERTEX
  8
0
  5
55C
 10
-21.3889
 20
119.167
 30
0.000000
  70
    32
  0
VERTEX
  8
0
  5
55D
 10
-21.4892
 20
119.117
 30
0.000000
  70
    32
  0
VERTEX
  8
0
  5
55E
 10
-21.5860
 20
119.063
 30
0.000000
  70
    32
  0
VERTEX
  8
0
  5
55F
 10
-21.6789
 20
119.007
 30
0.000000
  70
    32
  0
VERTEX
  8
0
  5
560
 10
-21.7678
 20
118.947
 30
0.000000
  70
    32
  0
VERTEX
  8
0
  5
561
 10
-21.8524
 20
118.884
 30
0.000000
  70
    32
  0
VERTEX
  8
0
  5
562
 10
-21.9325
 20
118.818
 30
0.000000
  70
    32
  0
VERTEX
  8
0
  5
563
 10
-22.0080
 20
118.750
 30
0.000000
  70
    32
  0
VERTEX
  8
0
  5
564
 10
-22.0787
 20
118.679
 30
0.000000
  70
    32
  0
VERTEX
  8
0
  5
565
 10
-22.1443
 20
118.606
 30
0.000000
  70
    32
  0
VERTEX
  8
0
  5
566
 10
-22.2048
 20
118.530
 30
0.000000
  70
    32
  0
VERTEX
  8
0
  5
567
 10
-22.2600
 20
118.453
 30
0.000000
  70
    32
  0
VERTEX
  8
0
  5
568
 10
-22.3097
 20
118.373
 30
0.000000
  70
    32
  0
VERTEX
  8
0
  5
569
 10
-22.3539
 20
118.292
 30
0.000000
  70
    32
  0
VERTEX
  8
0
  5
56A
 10
-22.3924
 20
118.210
 30
0.000000
  70
    32
  0
VERTEX
  8
0
  5
56B
 10
-22.4251
 20
118.126
 30
0.000000
  70
    32
  0
VERTEX
  8
0
  5
56C
 10
-22.4520
 20
118.042
 30
0.000000
  70
    32
  0
VERTEX
  8
0
  5
56D
 10
-22.4729
 20
117.956
 30
0.000000
  70
    32
  0
VERTEX
  8
0
  5
56E
 10
-22.4880
 20
117.870
 30
0.000000
  70
    32
  0
VERTEX
  8
0
  5
56F
 10
-22.4970
 20
117.783
 30
0.000000
  70
    32
  0
VERTEX
  8
0
  5
570
 10
-22.5000
 20
117.697
 30
0.000000
  70
    32
  0
VERTEX
  8
0
  5
571
 10
-22.4970
 20
117.610
 30
0.000000
  70
    32
  0
VERTEX
  8
0
  5
572
 10
-22.4880
 20
117.523
 30
0.000000
  70
    32
  0
VERTEX
  8
0
  5
573
 10
-22.4729
 20
117.437
 30
0.000000
  70
    32
  0
VERTEX
  8
0
  5
574
 10
-22.4520
 20
117.352
 30
0.000000
  70
    32
  0
VERTEX
  8
0
  5
575
 10
-22.4251
 20
117.267
 30
0.000000
  70
    32
  0
VERTEX
  8
0
  5
576
 10
-22.3924
 20
117.184
 30
0.000000
  70
    32
  0
VERTEX
  8
0
  5
577
 10
-22.3539
 20
117.101
 30
0.000000
  70
    32
  0
VERTEX
  8
0
  5
578
 10
-22.3097
 20
117.020
 30
0.000000
  70
    32
  0
VERTEX
  8
0
  5
579
 10
-22.2600
 20
116.941
 30
0.000000
  70
    32
  0
VERTEX
  8
0
  5
57A
 10
-22.2048
 20
116.863
 30
0.000000
  70
    32
  0
VERTEX
  8
0
  5
57B
 10
-22.1443
 20
116.788
 30
0.000000
  70
    32
  0
VERTEX
  8
0
  5
57C
 10
-22.0787
 20
116.715
 30
0.000000
  70
    32
  0
VERTEX
  8
0
  5
57D
 10
-22.0080
 20
116.644
 30
0.000000
  70
    32
  0
VERTEX
  8
0
  5
57E
 10
-21.9325
 20
116.575
 30
0.000000
  70
    32
  0
VERTEX
  8
0
  5
57F
 10
-21.8524
 20
116.510
 30
0.000000
  70
    32
  0
VERTEX
  8
0
  5
580
 10
-21.7678
 20
116.447
 30
0.000000
  70
    32
  0
VERTEX
  8
0
  5
581
 10
-21.6789
 20
116.387
 30
0.000000
  70
    32
  0
VERTEX
  8
0
  5
582
 10
-21.5860
 20
116.330
 30
0.000000
  70
    32
  0
VERTEX
  8
0
  5
583
 10
-21.4892
 20
116.277
 30
0.000000
  70
    32
  0
VERTEX
  8
0
  5
584
 10
-21.3889
 20
116.227
 30
0.000000
  70
    32
  0
VERTEX
  8
0
  5
585
 10
-21.2853
 20
116.180
 30
0.000000
  70
    32
  0
VERTEX
  8
0
  5
586
 10
-21.1785
 20
116.138
 30
0.000000
  70
    32
  0
VERTEX
  8
0
  5
587
 10
-21.0689
 20
116.099
 30
0.000000
  70
    32
  0
VERTEX
  8
0
  5
588
 10
-20.9567
 20
116.063
 30
0.000000
  70
    32
  0
VERTEX
  8
0
  5
589
 10
-20.8422
 20
116.032
 30
0.000000
  70
    32
  0
VERTEX
  8
0
  5
58A
 10
-20.7257
 20
116.005
 30
0.000000
  70
    32
  0
VERTEX
  8
0
  5
58B
 10
-20.6075
 20
115.982
 30
0.000000
  70
    32
  0
VERTEX
  8
0
  5
58C
 10
-20.4877
 20
115.963
 30
0.000000
  70
    32
  0
VERTEX
  8
0
  5
58D
 10
-20.3668
 20
115.948
 30
0.000000
  70
    32
  0
VERTEX
  8
0
  5
58E
 10
-20.2450
 20
115.937
 30
0.000000
  70
    32
  0
VERTEX
  8
0
  5
58F
 10
-20.1227
 20
115.931
 30
0.000000
  70
    32
  0
VERTEX
  8
0
  5
590
 10
-20.0000
 20
115.929
 30
0.000000
  70
    32
  0
VERTEX
  8
0
  5
591
 10
-19.8773
 20
115.931
 30
0.000000
  70
    32
  0
VERTEX
  8
0
  5
592
 10
-19.7550
 20
115.937
 30
0.000000
  70
    32
  0
VERTEX
  8
0
  5
593
 10
-19.6332
 20
115.948
 30
0.000000
  70
    32
  0
VERTEX
  8
0
  5
594
 10
-19.5123
 20
115.963
 30
0.000000
  70
    32
  0
VERTEX
  8
0
  5
595
 10
-19.3925
 20
115.982
 30
0.000000
  70
    32
  0
VERTEX
  8
0
  5
596
 10
-19.2743
 20
116.005
 30
0.000000
  70
    32
  0
VERTEX
  8
0
  5
597
 10
-19.1578
 20
116.032
 30
0.000000
  70
    32
  0
VERTEX
  8
0
  5
598
 10
-19.0433
 20
116.063
 30
0.000000
  70
    32
  0
VERTEX
  8
0
  5
599
 10
-18.9311
 20
116.099
 30
0.000000
  70
    32
  0
VERTEX
  8
0
  5
59A
 10
-18.8215
 20
116.138
 30
0.000000
  70
    32
  0
VERTEX
  8
0
  5
59B
 10
-18.7147
 20
116.180
 30
0.000000
  70
    32
  0
VERTEX
  8
0
  5
59C
 10
-18.6111
 20
116.227
 30
0.000000
  70
    32
  0
VERTEX
  8
0
  5
59D
 10
-18.5108
 20
116.277
 30
0.000000
  70
    32
  0
VERTEX
  8
0
  5
59E
 10
-18.4140
 20
116.330
 30
0.000000
  70
    32
  0
VERTEX
  8
0
  5
59F
 10
-18.3211
 20
116.387
 30
0.000000
  70
    32
  0
VERTEX
  8
0
  5
5A0
 10
-18.2322
 20
116.447
 30
0.000000
  70
    32
  0
VERTEX
  8
0
  5
5A1
 10
-18.1476
 20
116.510
 30
0.000000
  70
    32
  0
VERTEX
  8
0
  5
5A2
 10
-18.0675
 20
116.575
 30
0.000000
  70
    32
  0
VERTEX
  8
0
  5
5A3
 10
-17.9920
 20
116.644
 30
0.000000
  70
    32
  0
VERTEX
  8
0
  5
5A4
 10
-17.9213
 20
116.715
 30
0.000000
  70
    32
  0
VERTEX
  8
0
  5
5A5
 10
-17.8557
 20
116.788
 30
0.000000
  70
    32
  0
VERTEX
  8
0
  5
5A6
 10
-17.7952
 20
116.863
 30
0.000000
  70
    32
  0
VERTEX
  8
0
  5
5A7
 10
-17.7400
 20
116.941
 30
0.000000
  70
    32
  0
VERTEX
  8
0
  5
5A8
 10
-17.6903
 20
117.020
 30
0.000000
  70
    32
  0
VERTEX
  8
0
  5
5A9
 10
-17.6461
 20
117.101
 30
0.000000
  70
    32
  0
VERTEX
  8
0
  5
5AA
 10
-17.6076
 20
117.184
 30
0.000000
  70
    32
  0
VERTEX
  8
0
  5
5AB
 10
-17.5749
 20
117.267
 30
0.000000
  70
    32
  0
VERTEX
  8
0
  5
5AC
 10
-17.5480
 20
117.352
 30
0.000000
  70
    32
  0
VERTEX
  8
0
  5
5AD
 10
-17.5271
 20
117.437
 30
0.000000
  70
    32
  0
VERTEX
  8
0
  5
5AE
 10
-17.5120
 20
117.523
 30
0.000000
  70
    32
  0
VERTEX
  8
0
  5
5AF
 10
-17.5030
 20
117.610
 30
0.000000
  70
    32
  0
VERTEX
  8
0
  5
5B0
 10
-17.5000
 20
117.697
 30
0.000000
  70
    32
  0
SEQEND
  8
0
  5
5B1
  0
POLYLINE
  5
49
  8
0
 10
-19.999999999999709
 20
130.07106781186542
 30
0.0
 66
     1
 70
     8
  0
VERTEX
  8
0
  5
5B2
 10
-20.0000
 20
130.071
 30
0.000000
  70
    32
  0
VERTEX
  8
0
  5
5B3
 10
-20.2453
 20
130.063
 30
0.000000
  70
    32
  0
VERTEX
  8
0
  5
5B4
 10
-20.4901
 20
130.037
 30
0.000000
  70
    32
  0
VERTEX
  8
0
  5
5B5
 10
-20.7337
 20
129.995
 30
0.000000
  70
    32
  0
VERTEX
  8
0
  5
5B6
 10
-20.9755
 20
129.935
 30
0.000000
  70
    32
  0
VERTEX
  8
0
  5
5B7
 10
-21.2149
 20
129.859
 30
0.000000
  70
    32
  0
VERTEX
  8
0
  5
5B8
 10
-21.4514
 20
129.767
 30
0.000000
  70
    32
  0
VERTEX
  8
0
  5
5B9
 10
-21.6844
 20
129.658
 30
0.000000
  70
    32
  0
VERTEX
  8
0
  5
5BA
 10
-21.9134
 20
129.533
 30
0.000000
  70
    32
  0
VERTEX
  8
0
  5
5BB
 10
-22.1378
 20
129.392
 30
0.000000
  70
    32
  0
VERTEX
  8
0
  5
5BC
 10
-22.3570
 20
129.236
 30
0.000000
  70
    32
  0
VERTEX
  8
0
  5
5BD
 10
-22.5705
 20
129.065
 30
0.000000
  70
    32
  0
VERTEX
  8
0
  5
5BE
 10
-22.7779
 20
128.879
 30
0.000000
  70
    32
  0
VERTEX
  8
0
  5
5BF
 10
-22.9785
 20
128.680
 30
0.000000
  70
    32
  0
VERTEX
  8
0
  5
5C0
 10
-23.1720
 20
128.466
 30
0.000000
  70
    32
  0
VERTEX
  8
0
  5
5C1
 10
-23.3578
 20
128.239
 30
0.000000
  70
    32
  0
VERTEX
  8
0
  5
5C2
 10
-23.5355
 20
128.000
 30
0.000000
  70
    32
  0
VERTEX
  8
0
  5
5C3
 10
-23.7048
 20
127.749
 30
0.000000
  70
    32
  0
VERTEX
  8
0
  5
5C4
 10
-23.8651
 20
127.486
 30
0.000000
  70
    32
  0
VERTEX
  8
0
  5
5C5
 10
-24.0160
 20
127.212
 30
0.000000
  70
    32
  0
VERTEX
  8
0
  5
5C6
 10
-24.1573
 20
126.928
 30
0.000000
  70
    32
  0
VERTEX
  8
0
  5
5C7
 10
-24.2886
 20
126.635
 30
0.000000
  70
    32
  0
VERTEX
  8
0
  5
5C8
 10
-24.4096
 20
126.333
 30
0.000000
  70
    32
  0
VERTEX
  8
0
  5
5C9
 10
-24.5199
 20
126.023
 30
0.000000
  70
    32
  0
VERTEX
  8
0
  5
5CA
 10
-24.6194
 20
125.706
 30
0.000000
  70
    32
  0
VERTEX
  8
0
  5
5CB
 10
-24.7077
 20
125.382
 30
0.000000
  70
    32
  0
VERTEX
  8
0
  5
5CC
 10
-24.7847
 20
125.053
 30
0.000000
  70
    32
  0
VERTEX
  8
0
  5
5CD
 10
-24.8502
 20
124.718
 30
0.000000
  70
    32
  0
VERTEX
  8
0
  5
5CE
 10
-24.9039
 20
124.379
 30
0.000000
  70
    32
  0
VERTEX
  8
0
  5
5CF
 10
-24.9459
 20
124.038
 30
0.000000
  70
    32
  0
VERTEX
  8
0
  5
5D0
 10
-24.9759
 20
123.693
 30
0.000000
  70
    32
  0
VERTEX
  8
0
  5
5D1
 10
-24.9940
 20
123.347
 30
0.000000
  70
    32
  0
VERTEX
  8
0
  5
5D2
 10
-25.0000
 20
123.000
 30
0.000000
  70
    32
  0
VERTEX
  8
0
  5
5D3
 10
-24.9940
 20
122.653
 30
0.000000
  70
    32
  0
VERTEX
  8
0
  5
5D4
 10
-24.9759
 20
122.307
 30
0.000000
  70
    32
  0
VERTEX
  8
0
  5
5D5
 10
-24.9459
 20
121.962
 30
0.000000
  70
    32
  0
VERTEX
  8
0
  5
5D6
 10
-24.9039
 20
121.621
 30
0.000000
  70
    32
  0
VERTEX
  8
0
  5
5D7
 10
-24.8502
 20
121.282
 30
0.000000
  70
    32
  0
VERTEX
  8
0
  5
5D8
 10
-24.7847
 20
120.947
 30
0.000000
  70
    32
  0
VERTEX
  8
0
  5
5D9
 10
-24.7077
 20
120.618
 30
0.000000
  70
    32
  0
VERTEX
  8
0
  5
5DA
 10
-24.6194
 20
120.294
 30
0.000000
  70
    32
  0
VERTEX
  8
0
  5
5DB
 10
-24.5199
 20
119.977
 30
0.000000
  70
    32
  0
VERTEX
  8
0
  5
5DC
 10
-24.4096
 20
119.667
 30
0.000000
  70
    32
  0
VERTEX
  8
0
  5
5DD
 10
-24.2886
 20
119.365
 30
0.000000
  70
    32
  0
VERTEX
  8
0
  5
5DE
 10
-24.1573
 20
119.072
 30
0.000000
  70
    32
  0
VERTEX
  8
0
  5
5DF
 10
-24.0160
 20
118.788
 30
0.000000
  70
    32
  0
VERTEX
  8
0
  5
5E0
 10
-23.8651
 20
118.514
 30
0.000000
  70
    32
  0
VERTEX
  8
0
  5
5E1
 10
-23.7048
 20
118.251
 30
0.000000
  70
    32
  0
VERTEX
  8
0
  5
5E2
 10
-23.5355
 20
118.000
 30
0.000000
  70
    32
  0
VERTEX
  8
0
  5
5E3
 10
-23.3578
 20
117.761
 30
0.000000
  70
    32
  0
VERTEX
  8
0
  5
5E4
 10
-23.1720
 20
117.534
 30
0.000000
  70
    32
  0
VERTEX
  8
0
  5
5E5
 10
-22.9785
 20
117.320
 30
0.000000
  70
    32
  0
VERTEX
  8
0
  5
5E6
 10
-22.7779
 20
117.121
 30
0.000000
  70
    32
  0
VERTEX
  8
0
  5
5E7
 10
-22.5705
 20
116.935
 30
0.000000
  70
    32
  0
VERTEX
  8
0
  5
5E8
 10
-22.3570
 20
116.764
 30
0.000000
  70
    32
  0
VERTEX
  8
0
  5
5E9
 10
-22.1378
 20
116.608
 30
0.000000
  70
    32
  0
VERTEX
  8
0
  5
5EA
 10
-21.9134
 20
116.467
 30
0.000000
  70
    32
  0
VERTEX
  8
0
  5
5EB
 10
-21.6844
 20
116.342
 30
0.000000
  70
    32
  0
VERTEX
  8
0
  5
5EC
 10
-21.4514
 20
116.233
 30
0.000000
  70
    32
  0
VERTEX
  8
0
  5
5ED
 10
-21.2149
 20
116.141
 30
0.000000
  70
    32
  0
VERTEX
  8
0
  5
5EE
 10
-20.9755
 20
116.065
 30
0.000000
  70
    32
  0
VERTEX
  8
0
  5
5EF
 10
-20.7337
 20
116.005
 30
0.000000
  70
    32
  0
VERTEX
  8
0
  5
5F0
 10
-20.4901
 20
115.963
 30
0.000000
  70
    32
  0
VERTEX
  8
0
  5
5F1
 10
-20.2453
 20
115.937
 30
0.000000
  70
    32
  0
VERTEX
  8
0
  5
5F2
 10
-20.0000
 20
115.929
 30
0.000000
  70
    32
  0
VERTEX
  8
0
  5
5F3
 10
-19.7547
 20
115.937
 30
0.000000
  70
    32
  0
VERTEX
  8
0
  5
5F4
 10
-19.5099
 20
115.963
 30
0.000000
  70
    32
  0
VERTEX
  8
0
  5
5F5
 10
-19.2663
 20
116.005
 30
0.000000
  70
    32
  0
VERTEX
  8
0
  5
5F6
 10
-19.0245
 20
116.065
 30
0.000000
  70
    32
  0
VERTEX
  8
0
  5
5F7
 10
-18.7851
 20
116.141
 30
0.000000
  70
    32
  0
VERTEX
  8
0
  5
5F8
 10
-18.5486
 20
116.233
 30
0.000000
  70
    32
  0
VERTEX
  8
0
  5
5F9
 10
-18.3156
 20
116.342
 30
0.000000
  70
    32
  0
VERTEX
  8
0
  5
5FA
 10
-18.0866
 20
116.467
 30
0.000000
  70
    32
  0
VERTEX
  8
0
  5
5FB
 10
-17.8622
 20
116.608
 30
0.000000
  70
    32
  0
VERTEX
  8
0
  5
5FC
 10
-17.6430
 20
116.764
 30
0.000000
  70
    32
  0
VERTEX
  8
0
  5
5FD
 10
-17.4295
 20
116.935
 30
0.000000
  70
    32
  0
VERTEX
  8
0
  5
5FE
 10
-17.2221
 20
117.121
 30
0.000000
  70
    32
  0
VERTEX
  8
0
  5
5FF
 10
-17.0215
 20
117.320
 30
0.000000
  70
    32
  0
VERTEX
  8
0
  5
600
 10
-16.8280
 20
117.534
 30
0.000000
  70
    32
  0
VERTEX
  8
0
  5
601
 10
-16.6422
 20
117.761
 30
0.000000
  70
    32
  0
VERTEX
  8
0
  5
602
 10
-16.4645
 20
118.000
 30
0.000000
  70
    32
  0
VERTEX
  8
0
  5
603
 10
-16.2952
 20
118.251
 30
0.000000
  70
    32
  0
VERTEX
  8
0
  5
604
 10
-16.1349
 20
118.514
 30
0.000000
  70
    32
  0
VERTEX
  8
0
  5
605
 10
-15.9840
 20
118.788
 30
0.000000
  70
    32
  0
VERTEX
  8
0
  5
606
 10
-15.8427
 20
119.072
 30
0.000000
  70
    32
  0
VERTEX
  8
0
  5
607
 10
-15.7114
 20
119.365
 30
0.000000
  70
    32
  0
VERTEX
  8
0
  5
608
 10
-15.5904
 20
119.667
 30
0.000000
  70
    32
  0
VERTEX
  8
0
  5
609
 10
-15.4801
 20
119.977
 30
0.000000
  70
    32
  0
VERTEX
  8
0
  5
60A
 10
-15.3806
 20
120.294
 30
0.000000
  70
    32
  0
VERTEX
  8
0
  5
60B
 10
-15.2923
 20
120.618
 30
0.000000
  70
    32
  0
VERTEX
  8
0
  5
60C
 10
-15.2153
 20
120.947
 30
0.000000
  70
    32
  0
VERTEX
  8
0
  5
60D
 10
-15.1498
 20
121.282
 30
0.000000
  70
    32
  0
VERTEX
  8
0
  5
60E
 10
-15.0961
 20
121.621
 30
0.000000
  70
    32
  0
VERTEX
  8
0
  5
60F
 10
-15.0541
 20
121.962
 30
0.000000
  70
    32
  0
VERTEX
  8
0
  5
610
 10
-15.0241
 20
122.307
 30
0.000000
  70
    32
  0
VERTEX
  8
0
  5
611
 10
-15.0060
 20
122.653
 30
0.000000
  70
    32
  0
VERTEX
  8
0
  5
612
 10
-15.0000
 20
123.000
 30
0.000000
  70
    32
  0
VERTEX
  8
0
  5
613
 10
-15.0060
 20
123.347
 30
0.000000
  70
    32
  0
VERTEX
  8
0
  5
614
 10
-15.0241
 20
123.693
 30
0.000000
  70
    32
  0
VERTEX
  8
0
  5
615
 10
-15.0541
 20
124.038
 30
0.000000
  70
    32
  0
VERTEX
  8
0
  5
616
 10
-15.0961
 20
124.379
 30
0.000000
  70
    32
  0
VERTEX
  8
0
  5
617
 10
-15.1498
 20
124.718
 30
0.000000
  70
    32
  0
VERTEX
  8
0
  5
618
 10
-15.2153
 20
125.053
 30
0.000000
  70
    32
  0
VERTEX
  8
0
  5
619
 10
-15.2923
 20
125.382
 30
0.000000
  70
    32
  0
VERTEX
  8
0
  5
61A
 10
-15.3806
 20
125.706
 30
0.000000
  70
    32
  0
VERTEX
  8
0
  5
61B
 10
-15.4801
 20
126.023
 30
0.000000
  70
    32
  0
VERTEX
  8
0
  5
61C
 10
-15.5904
 20
126.333
 30
0.000000
  70
    32
  0
VERTEX
  8
0
  5
61D
 10
-15.7114
 20
126.635
 30
0.000000
  70
    32
  0
VERTEX
  8
0
  5
61E
 10
-15.8427
 20
126.928
 30
0.000000
  70
    32
  0
VERTEX
  8
0
  5
61F
 10
-15.9840
 20
127.212
 30
0.000000
  70
    32
  0
VERTEX
  8
0
  5
620
 10
-16.1349
 20
127.486
 30
0.000000
  70
    32
  0
VERTEX
  8
0
  5
621
 10
-16.2952
 20
127.749
 30
0.000000
  70
    32
  0
VERTEX
  8
0
  5
622
 10
-16.4645
 20
128.000
 30
0.000000
  70
    32
  0
VERTEX
  8
0
  5
623
 10
-16.6422
 20
128.239
 30
0.000000
  70
    32
  0
VERTEX
  8
0
  5
624
 10
-16.8280
 20
128.466
 30
0.000000
  70
    32
  0
VERTEX
  8
0
  5
625
 10
-17.0215
 20
128.680
 30
0.000000
  70
    32
  0
VERTEX
  8
0
  5
626
 10
-17.2221
 20
128.879
 30
0.000000
  70
    32
  0
VERTEX
  8
0
  5
627
 10
-17.4295
 20
129.065
 30
0.000000
  70
    32
  0
VERTEX
  8
0
  5
628
 10
-17.6430
 20
129.236
 30
0.000000
  70
    32
  0
VERTEX
  8
0
  5
629
 10
-17.8622
 20
129.392
 30
0.000000
  70
    32
  0
VERTEX
  8
0
  5
62A
 10
-18.0866
 20
129.533
 30
0.000000
  70
    32
  0
VERTEX
  8
0
  5
62B
 10
-18.3156
 20
129.658
 30
0.000000
  70
    32
  0
VERTEX
  8
0
  5
62C
 10
-18.5486
 20
129.767
 30
0.000000
  70
    32
  0
VERTEX
  8
0
  5
62D
 10
-18.7851
 20
129.859
 30
0.000000
  70
    32
  0
VERTEX
  8
0
  5
62E
 10
-19.0245
 20
129.935
 30
0.000000
  70
    32
  0
VERTEX
  8
0
  5
62F
 10
-19.2663
 20
129.995
 30
0.000000
  70
    32
  0
VERTEX
  8
0
  5
630
 10
-19.5099
 20
130.037
 30
0.000000
  70
    32
  0
VERTEX
  8
0
  5
631
 10
-19.7547
 20
130.063
 30
0.000000
  70
    32
  0
VERTEX
  8
0
  5
632
 10
-20.0000
 20
130.071
 30
0.000000
  70
    32
  0
SEQEND
  8
0
  5
633
  0
POLYLINE
  5
4A
  8
0
  6
HIDDEN
 62
     8
 10
-21.44110357018468
 20
116.22900000000001
 30
0.0
 66
     1
 70
     8
  0
VERTEX
  8
0
  5
634
 10
-21.4411
 20
116.229
 30
0.000000
  70
    32
  0
VERTEX
  8
0
  5
635
 10
-21.5319
 20
116.144
 30
0.000000
  70
    32
  0
VERTEX
  8
0
  5
636
 10
-21.6202
 20
116.054
 30
0.000000
  70
    32
  0
VERTEX
  8
0
  5
637
 10
-21.7059
 20
115.960
 30
0.000000
  70
    32
  0
VERTEX
  8
0
  5
638
 10
-21.7888
 20
115.860
 30
0.000000
  70
    32
  0
VERTEX
  8
0
  5
639
 10
-21.8688
 20
115.756
 30
0.000000
  70
    32
  0
VERTEX
  8
0
  5
63A
 10
-21.9458
 20
115.647
 30
0.000000
  70
    32
  0
VERTEX
  8
0
  5
63B
 10
-22.0196
 20
115.534
 30
0.000000
  70
    32
  0
VERTEX
  8
0
  5
63C
 10
-22.0902
 20
115.417
 30
0.000000
  70
    32
  0
VERTEX
  8
0
  5
63D
 10
-22.1573
 20
115.296
 30
0.000000
  70
    32
  0
VERTEX
  8
0
  5
63E
 10
-22.2209
 20
115.171
 30
0.000000
  70
    32
  0
VERTEX
  8
0
  5
63F
 10
-22.2810
 20
115.043
 30
0.000000
  70
    32
  0
VERTEX
  8
0
  5
640
 10
-22.3373
 20
114.911
 30
0.000000
  70
    32
  0
VERTEX
  8
0
  5
641
 10
-22.3899
 20
114.777
 30
0.000000
  70
    32
  0
VERTEX
  8
0
  5
642
 10
-22.4385
 20
114.639
 30
0.000000
  70
    32
  0
VERTEX
  8
0
  5
643
 10
-22.4833
 20
114.499
 30
0.000000
  70
    32
  0
VERTEX
  8
0
  5
644
 10
-22.5239
 20
114.356
 30
0.000000
  70
    32
  0
VERTEX
  8
0
  5
645
 10
-22.5605
 20
114.211
 30
0.000000
  70
    32
  0
VERTEX
  8
0
  5
646
 10
-22.5929
 20
114.065
 30
0.000000
  70
    32
  0
VERTEX
  8
0
  5
647
 10
-22.6212
 20
113.916
 30
0.000000
  70
    32
  0
VERTEX
  8
0
  5
648
 10
-22.6451
 20
113.766
 30
0.000000
  70
    32
  0
VERTEX
  8
0
  5
649
 10
-22.6648
 20
113.615
 30
0.000000
  70
    32
  0
VERTEX
  8
0
  5
64A
 10
-22.6801
 20
113.462
 30
0.000000
  70
    32
  0
VERTEX
  8
0
  5
64B
 10
-22.6911
 20
113.309
 30
0.000000
  70
    32
  0
VERTEX
  8
0
  5
64C
 10
-22.6978
 20
113.156
 30
0.000000
  70
    32
  0
VERTEX
  8
0
  5
64D
 10
-22.7000
 20
113.002
 30
0.000000
  70
    32
  0
VERTEX
  8
0
  5
64E
 10
-22.6979
 20
112.848
 30
0.000000
  70
    32
  0
VERTEX
  8
0
  5
64F
 10
-22.6914
 20
112.695
 30
0.000000
  70
    32
  0
VERTEX
  8
0
  5
650
 10
-22.6805
 20
112.542
 30
0.000000
  70
    32
  0
VERTEX
  8
0
  5
651
 10
-22.6652
 20
112.389
 30
0.000000
  70
    32
  0
VERTEX
  8
0
  5
652
 10
-22.6457
 20
112.238
 30
0.000000
  70
    32
  0
VERTEX
  8
0
  5
653
 10
-22.6218
 20
112.088
 30
0.000000
  70
    32
  0
VERTEX
  8
0
  5
654
 10
-22.5937
 20
111.939
 30
0.000000
  70
    32
  0
VERTEX
  8
0
  5
655
 10
-22.5614
 20
111.792
 30
0.000000
  70
    32
  0
VERTEX
  8
0
  5
656
 10
-22.5249
 20
111.647
 30
0.000000
  70
    32
  0
VERTEX
  8
0
  5
657
 10
-22.4844
 20
111.505
 30
0.000000
  70
    32
  0
VERTEX
  8
0
  5
658
 10
-22.4397
 20
111.364
 30
0.000000
  70
    32
  0
VERTEX
  8
0
  5
659
 10
-22.3912
 20
111.227
 30
0.000000
  70
    32
  0
VERTEX
  8
0
  5
65A
 10
-22.3387
 20
111.092
 30
0.000000
  70
    32
  0
VERTEX
  8
0
  5
65B
 10
-22.2825
 20
110.960
 30
0.000000
  70
    32
  0
VERTEX
  8
0
  5
65C
 10
-22.2225
 20
110.832
 30
0.000000
  70
    32
  0
VERTEX
  8
0
  5
65D
 10
-22.1590
 20
110.707
 30
0.000000
  70
    32
  0
VERTEX
  8
0
  5
65E
 10
-22.0919
 20
110.586
 30
0.000000
  70
    32
  0
VERTEX
  8
0
  5
65F
 10
-22.0215
 20
110.469
 30
0.000000
  70
    32
  0
VERTEX
  8
0
  5
660
 10
-21.9477
 20
110.356
 30
0.000000
  70
    32
  0
VERTEX
  8
0
  5
661
 10
-21.8709
 20
110.247
 30
0.000000
  70
    32
  0
VERTEX
  8
0
  5
662
 10
-21.7909
 20
110.143
 30
0.000000
  70
    32
  0
VERTEX
  8
0
  5
663
 10
-21.7081
 20
110.043
 30
0.000000
  70
    32
  0
VERTEX
  8
0
  5
664
 10
-21.6225
 20
109.948
 30
0.000000
  70
    32
  0
VERTEX
  8
0
  5
665
 10
-21.5342
 20
109.858
 30
0.000000
  70
    32
  0
VERTEX
  8
0
  5
666
 10
-21.4435
 20
109.773
 30
0.000000
  70
    32
  0
VERTEX
  8
0
  5
667
 10
-21.3504
 20
109.694
 30
0.000000
  70
    32
  0
VERTEX
  8
0
  5
668
 10
-21.2551
 20
109.619
 30
0.000000
  70
    32
  0
VERTEX
  8
0
  5
669
 10
-21.1578
 20
109.551
 30
0.000000
  70
    32
  0
VERTEX
  8
0
  5
66A
 10
-21.0586
 20
109.487
 30
0.000000
  70
    32
  0
VERTEX
  8
0
  5
66B
 10
-20.9577
 20
109.430
 30
0.000000
  70
    32
  0
VERTEX
  8
0
  5
66C
 10
-20.8553
 20
109.378
 30
0.000000
  70
    32
  0
VERTEX
  8
0
  5
66D
 10
-20.7514
 20
109.332
 30
0.000000
  70
    32
  0
VERTEX
  8
0
  5
66E
 10
-20.6464
 20
109.293
 30
0.000000
  70
    32
  0
VERTEX
  8
0
  5
66F
 10
-20.5402
 20
109.259
 30
0.000000
  70
    32
  0
VERTEX
  8
0
  5
670
 10
-20.4333
 20
109.231
 30
0.000000
  70
    32
  0
VERTEX
  8
0
  5
671
 10
-20.3256
 20
109.209
 30
0.000000
  70
    32
  0
VERTEX
  8
0
  5
672
 10
-20.2173
 20
109.194
 30
0.000000
  70
    32
  0
VERTEX
  8
0
  5
673
 10
-20.1088
 20
109.185
 30
0.000000
  70
    32
  0
VERTEX
  8
0
  5
674
 10
-20.0000
 20
109.182
 30
0.000000
  70
    32
  0
VERTEX
  8
0
  5
675
 10
-19.8912
 20
109.185
 30
0.000000
  70
    32
  0
VERTEX
  8
0
  5
676
 10
-19.7827
 20
109.194
 30
0.000000
  70
    32
  0
VERTEX
  8
0
  5
677
 10
-19.6744
 20
109.209
 30
0.000000
  70
    32
  0
VERTEX
  8
0
  5
678
 10
-19.5667
 20
109.231
 30
0.000000
  70
    32
  0
VERTEX
  8
0
  5
679
 10
-19.4598
 20
109.259
 30
0.000000
  70
    32
  0
VERTEX
  8
0
  5
67A
 10
-19.3536
 20
109.293
 30
0.000000
  70
    32
  0
VERTEX
  8
0
  5
67B
 10
-19.2486
 20
109.332
 30
0.000000
  70
    32
  0
VERTEX
  8
0
  5
67C
 10
-19.1447
 20
109.378
 30
0.000000
  70
    32
  0
VERTEX
  8
0
  5
67D
 10
-19.0423
 20
109.430
 30
0.000000
  70
    32
  0
VERTEX
  8
0
  5
67E
 10
-18.9414
 20
109.487
 30
0.000000
  70
    32
  0
VERTEX
  8
0
  5
67F
 10
-18.8422
 20
109.551
 30
0.000000
  70
    32
  0
VERTEX
  8
0
  5
680
 10
-18.7449
 20
109.619
 30
0.000000
  70
    32
  0
VERTEX
  8
0
  5
681
 10
-18.6496
 20
109.694
 30
0.000000
  70
    32
  0
VERTEX
  8
0
  5
682
 10
-18.5565
 20
109.773
 30
0.000000
  70
    32
  0
VERTEX
  8
0
  5
683
 10
-18.4658
 20
109.858
 30
0.000000
  70
    32
  0
VERTEX
  8
0
  5
684
 10
-18.3775
 20
109.948
 30
0.000000
  70
    32
  0
VERTEX
  8
0
  5
685
 10
-18.2919
 20
110.043
 30
0.000000
  70
    32
  0
VERTEX
  8
0
  5
686
 10
-18.2091
 20
110.143
 30
0.000000
  70
    32
  0
VERTEX
  8
0
  5
687
 10
-18.1291
 20
110.247
 30
0.000000
  70
    32
  0
VERTEX
  8
0
  5
688
 10
-18.0523
 20
110.356
 30
0.000000
  70
    32
  0
VERTEX
  8
0
  5
689
 10
-17.9785
 20
110.469
 30
0.000000
  70
    32
  0
VERTEX
  8
0
  5
68A
 10
-17.9081
 20
110.586
 30
0.000000
  70
    32
  0
VERTEX
  8
0
  5
68B
 10
-17.8410
 20
110.707
 30
0.000000
  70
    32
  0
VERTEX
  8
0
  5
68C
 10
-17.7775
 20
110.832
 30
0.000000
  70
    32
  0
VERTEX
  8
0
  5
68D
 10
-17.7175
 20
110.960
 30
0.000000
  70
    32
  0
VERTEX
  8
0
  5
68E
 10
-17.6613
 20
111.092
 30
0.000000
  70
    32
  0
VERTEX
  8
0
  5
68F
 10
-17.6088
 20
111.227
 30
0.000000
  70
    32
  0
VERTEX
  8
0
  5
690
 10
-17.5603
 20
111.364
 30
0.000000
  70
    32
  0
VERTEX
  8
0
  5
691
 10
-17.5156
 20
111.505
 30
0.000000
  70
    32
  0
VERTEX
  8
0
  5
692
 10
-17.4751
 20
111.647
 30
0.000000
  70
    32
  0
VERTEX
  8
0
  5
693
 10
-17.4386
 20
111.792
 30
0.000000
  70
    32
  0
VERTEX
  8
0
  5
694
 10
-17.4063
 20
111.939
 30
0.000000
  70
    32
  0
VERTEX
  8
0
  5
695
 10
-17.3782
 20
112.088
 30
0.000000
  70
    32
  0
VERTEX
  8
0
  5
696
 10
-17.3543
 20
112.238
 30
0.000000
  70
    32
  0
VERTEX
  8
0
  5
697
 10
-17.3348
 20
112.389
 30
0.000000
  70
    32
  0
VERTEX
  8
0
  5
698
 10
-17.3195
 20
112.542
 30
0.000000
  70
    32
  0
VERTEX
  8
0
  5
699
 10
-17.3086
 20
112.695
 30
0.000000
  70
    32
  0
VERTEX
  8
0
  5
69A
 10
-17.3021
 20
112.848
 30
0.000000
  70
    32
  0
VERTEX
  8
0
  5
69B
 10
-17.3000
 20
113.002
 30
0.000000
  70
    32
  0
VERTEX
  8
0
  5
69C
 10
-17.3022
 20
113.156
 30
0.000000
  70
    32
  0
VERTEX
  8
0
  5
69D
 10
-17.3089
 20
113.309
 30
0.000000
  70
    32
  0
VERTEX
  8
0
  5
69E
 10
-17.3199
 20
113.462
 30
0.000000
  70
    32
  0
VERTEX
  8
0
  5
69F
 10
-17.3352
 20
113.615
 30
0.000000
  70
    32
  0
VERTEX
  8
0
  5
6A0
 10
-17.3549
 20
113.766
 30
0.000000
  70
    32
  0
VERTEX
  8
0
  5
6A1
 10
-17.3788
 20
113.916
 30
0.000000
  70
    32
  0
VERTEX
  8
0
  5
6A2
 10
-17.4071
 20
114.065
 30
0.000000
  70
    32
  0
VERTEX
  8
0
  5
6A3
 10
-17.4395
 20
114.211
 30
0.000000
  70
    32
  0
VERTEX
  8
0
  5
6A4
 10
-17.4761
 20
114.356
 30
0.000000
  70
    32
  0
VERTEX
  8
0
  5
6A5
 10
-17.5167
 20
114.499
 30
0.000000
  70
    32
  0
VERTEX
  8
0
  5
6A6
 10
-17.5615
 20
114.639
 30
0.000000
  70
    32
  0
VERTEX
  8
0
  5
6A7
 10
-17.6101
 20
114.777
 30
0.000000
  70
    32
  0
VERTEX
  8
0
  5
6A8
 10
-17.6627
 20
114.911
 30
0.000000
  70
    32
  0
VERTEX
  8
0
  5
6A9
 10
-17.7190
 20
115.043
 30
0.000000
  70
    32
  0
VERTEX
  8
0
  5
6AA
 10
-17.7791
 20
115.171
 30
0.000000
  70
    32
  0
VERTEX
  8
0
  5
6AB
 10
-17.8427
 20
115.296
 30
0.000000
  70
    32
  0
VERTEX
  8
0
  5
6AC
 10
-17.9098
 20
115.417
 30
0.000000
  70
    32
  0
VERTEX
  8
0
  5
6AD
 10
-17.9804
 20
115.534
 30
0.000000
  70
    32
  0
VERTEX
  8
0
  5
6AE
 10
-18.0542
 20
115.647
 30
0.000000
  70
    32
  0
VERTEX
  8
0
  5
6AF
 10
-18.1312
 20
115.756
 30
0.000000
  70
    32
  0
VERTEX
  8
0
  5
6B0
 10
-18.2112
 20
115.860
 30
0.000000
  70
    32
  0
VERTEX
  8
0
  5
6B1
 10
-18.2941
 20
115.960
 30
0.000000
  70
    32
  0
VERTEX
  8
0
  5
6B2
 10
-18.3798
 20
116.054
 30
0.000000
  70
    32
  0
VERTEX
  8
0
  5
6B3
 10
-18.4681
 20
116.144
 30
0.000000
  70
    32
  0
VERTEX
  8
0
  5
6B4
 10
-18.5589
 20
116.229
 30
0.000000
  70
    32
  0
SEQEND
  8
0
  5
6B5
  0
POLYLINE
  5
4B
  8
0
  6
HIDDEN
 62
     8
 10
-21.44110357018468
 20
151.22900000000001
 30
0.0
 66
     1
 70
     8
  0
VERTEX
  8
0
  5
6B6
 10
-21.4411
 20
151.229
 30
0.000000
  70
    32
  0
VERTEX
  8
0
  5
6B7
 10
-21.5319
 20
151.144
 30
0.000000
  70
    32
  0
VERTEX
  8
0
  5
6B8
 10
-21.6202
 20
151.054
 30
0.000000
  70
    32
  0
VERTEX
  8
0
  5
6B9
 10
-21.7059
 20
150.960
 30
0.000000
  70
    32
  0
VERTEX
  8
0
  5
6BA
 10
-21.7888
 20
150.860
 30
0.000000
  70
    32
  0
VERTEX
  8
0
  5
6BB
 10
-21.8688
 20
150.756
 30
0.000000
  70
    32
  0
VERTEX
  8
0
  5
6BC
 10
-21.9458
 20
150.647
 30
0.000000
  70
    32
  0
VERTEX
  8
0
  5
6BD
 10
-22.0196
 20
150.534
 30
0.000000
  70
    32
  0
VERTEX
  8
0
  5
6BE
 10
-22.0902
 20
150.417
 30
0.000000
  70
    32
  0
VERTEX
  8
0
  5
6BF
 10
-22.1573
 20
150.296
 30
0.000000
  70
    32
  0
VERTEX
  8
0
  5
6C0
 10
-22.2209
 20
150.171
 30
0.000000
  70
    32
  0
VERTEX
  8
0
  5
6C1
 10
-22.2810
 20
150.043
 30
0.000000
  70
    32
  0
VERTEX
  8
0
  5
6C2
 10
-22.3373
 20
149.911
 30
0.000000
  70
    32
  0
VERTEX
  8
0
  5
6C3
 10
-22.3899
 20
149.777
 30
0.000000
  70
    32
  0
VERTEX
  8
0
  5
6C4
 10
-22.4385
 20
149.639
 30
0.000000
  70
    32
  0
VERTEX
  8
0
  5
6C5
 10
-22.4833
 20
149.499
 30
0.000000
  70
    32
  0
VERTEX
  8
0
  5
6C6
 10
-22.5239
 20
149.356
 30
0.000000
  70
    32
  0
VERTEX
  8
0
  5
6C7
 10
-22.5605
 20
149.211
 30
0.000000
  70
    32
  0
VERTEX
  8
0
  5
6C8
 10
-22.5929
 20
149.065
 30
0.000000
  70
    32
  0
VERTEX
  8
0
  5
6C9
 10
-22.6212
 20
148.916
 30
0.000000
  70
    32
  0
VERTEX
  8
0
  5
6CA
 10
-22.6451
 20
148.766
 30
0.000000
  70
    32
  0
VERTEX
  8
0
  5
6CB
 10
-22.6648
 20
148.615
 30
0.000000
  70
    32
  0
VERTEX
  8
0
  5
6CC
 10
-22.6801
 20
148.462
 30
0.000000
  70
    32
  0
VERTEX
  8
0
  5
6CD
 10
-22.6911
 20
148.309
 30
0.000000
  70
    32
  0
VERTEX
  8
0
  5
6CE
 10
-22.6978
 20
148.156
 30
0.000000
  70
    32
  0
VERTEX
  8
0
  5
6CF
 10
-22.7000
 20
148.002
 30
0.000000
  70
    32
  0
VERTEX
  8
0
  5
6D0
 10
-22.6979
 20
147.848
 30
0.000000
  70
    32
  0
VERTEX
  8
0
  5
6D1
 10
-22.6914
 20
147.695
 30
0.000000
  70
    32
  0
VERTEX
  8
0
  5
6D2
 10
-22.6805
 20
147.542
 30
0.000000
  70
    32
  0
VERTEX
  8
0
  5
6D3
 10
-22.6652
 20
147.389
 30
0.000000
  70
    32
  0
VERTEX
  8
0
  5
6D4
 10
-22.6457
 20
147.238
 30
0.000000
  70
    32
  0
VERTEX
  8
0
  5
6D5
 10
-22.6218
 20
147.088
 30
0.000000
  70
    32
  0
VERTEX
  8
0
  5
6D6
 10
-22.5937
 20
146.939
 30
0.000000
  70
    32
  0
VERTEX
  8
0
  5
6D7
 10
-22.5614
 20
146.792
 30
0.000000
  70
    32
  0
VERTEX
  8
0
  5
6D8
 10
-22.5249
 20
146.647
 30
0.000000
  70
    32
  0
VERTEX
  8
0
  5
6D9
 10
-22.4844
 20
146.505
 30
0.000000
  70
    32
  0
VERTEX
  8
0
  5
6DA
 10
-22.4397
 20
146.364
 30
0.000000
  70
    32
  0
VERTEX
  8
0
  5
6DB
 10
-22.3912
 20
146.227
 30
0.000000
  70
    32
  0
VERTEX
  8
0
  5
6DC
 10
-22.3387
 20
146.092
 30
0.000000
  70
    32
  0
VERTEX
  8
0
  5
6DD
 10
-22.2825
 20
145.960
 30
0.000000
  70
    32
  0
VERTEX
  8
0
  5
6DE
 10
-22.2225
 20
145.832
 30
0.000000
  70
    32
  0
VERTEX
  8
0
  5
6DF
 10
-22.1590
 20
145.707
 30
0.000000
  70
    32
  0
VERTEX
  8
0
  5
6E0
 10
-22.0919
 20
145.586
 30
0.000000
  70
    32
  0
VERTEX
  8
0
  5
6E1
 10
-22.0215
 20
145.469
 30
0.000000
  70
    32
  0
VERTEX
  8
0
  5
6E2
 10
-21.9477
 20
145.356
 30
0.000000
  70
    32
  0
VERTEX
  8
0
  5
6E3
 10
-21.8709
 20
145.247
 30
0.000000
  70
    32
  0
VERTEX
  8
0
  5
6E4
 10
-21.7909
 20
145.143
 30
0.000000
  70
    32
  0
VERTEX
  8
0
  5
6E5
 10
-21.7081
 20
145.043
 30
0.000000
  70
    32
  0
VERTEX
  8
0
  5
6E6
 10
-21.6225
 20
144.948
 30
0.000000
  70
    32
  0
VERTEX
  8
0
  5
6E7
 10
-21.5342
 20
144.858
 30
0.000000
  70
    32
  0
VERTEX
  8
0
  5
6E8
 10
-21.4435
 20
144.773
 30
0.000000
  70
    32
  0
VERTEX
  8
0
  5
6E9
 10
-21.3504
 20
144.694
 30
0.000000
  70
    32
  0
VERTEX
  8
0
  5
6EA
 10
-21.2551
 20
144.619
 30
0.000000
  70
    32
  0
VERTEX
  8
0
  5
6EB
 10
-21.1578
 20
144.551
 30
0.000000
  70
    32
  0
VERTEX
  8
0
  5
6EC
 10
-21.0586
 20
144.487
 30
0.000000
  70
    32
  0
VERTEX
  8
0
  5
6ED
 10
-20.9577
 20
144.430
 30
0.000000
  70
    32
  0
VERTEX
  8
0
  5
6EE
 10
-20.8553
 20
144.378
 30
0.000000
  70
    32
  0
VERTEX
  8
0
  5
6EF
 10
-20.7514
 20
144.332
 30
0.000000
  70
    32
  0
VERTEX
  8
0
  5
6F0
 10
-20.6464
 20
144.293
 30
0.000000
  70
    32
  0
VERTEX
  8
0
  5
6F1
 10
-20.5402
 20
144.259
 30
0.000000
  70
    32
  0
VERTEX
  8
0
  5
6F2
 10
-20.4333
 20
144.231
 30
0.000000
  70
    32
  0
VERTEX
  8
0
  5
6F3
 10
-20.3256
 20
144.209
 30
0.000000
  70
    32
  0
VERTEX
  8
0
  5
6F4
 10
-20.2173
 20
144.194
 30
0.000000
  70
    32
  0
VERTEX
  8
0
  5
6F5
 10
-20.1088
 20
144.185
 30
0.000000
  70
    32
  0
VERTEX
  8
0
  5
6F6
 10
-20.0000
 20
144.182
 30
0.000000
  70
    32
  0
VERTEX
  8
0
  5
6F7
 10
-19.8912
 20
144.185
 30
0.000000
  70
    32
  0
VERTEX
  8
0
  5
6F8
 10
-19.7827
 20
144.194
 30
0.000000
  70
    32
  0
VERTEX
  8
0
  5
6F9
 10
-19.6744
 20
144.209
 30
0.000000
  70
    32
  0
VERTEX
  8
0
  5
6FA
 10
-19.5667
 20
144.231
 30
0.000000
  70
    32
  0
VERTEX
  8
0
  5
6FB
 10
-19.4598
 20
144.259
 30
0.000000
  70
    32
  0
VERTEX
  8
0
  5
6FC
 10
-19.3536
 20
144.293
 30
0.000000
  70
    32
  0
VERTEX
  8
0
  5
6FD
 10
-19.2486
 20
144.332
 30
0.000000
  70
    32
  0
VERTEX
  8
0
  5
6FE
 10
-19.1447
 20
144.378
 30
0.000000
  70
    32
  0
VERTEX
  8
0
  5
6FF
 10
-19.0423
 20
144.430
 30
0.000000
  70
    32
  0
VERTEX
  8
0
  5
700
 10
-18.9414
 20
144.487
 30
0.000000
  70
    32
  0
VERTEX
  8
0
  5
701
 10
-18.8422
 20
144.551
 30
0.000000
  70
    32
  0
VERTEX
  8
0
  5
702
 10
-18.7449
 20
144.619
 30
0.000000
  70
    32
  0
VERTEX
  8
0
  5
703
 10
-18.6496
 20
144.694
 30
0.000000
  70
    32
  0
VERTEX
  8
0
  5
704
 10
-18.5565
 20
144.773
 30
0.000000
  70
    32
  0
VERTEX
  8
0
  5
705
 10
-18.4658
 20
144.858
 30
0.000000
  70
    32
  0
VERTEX
  8
0
  5
706
 10
-18.3775
 20
144.948
 30
0.000000
  70
    32
  0
VERTEX
  8
0
  5
707
 10
-18.2919
 20
145.043
 30
0.000000
  70
    32
  0
VERTEX
  8
0
  5
708
 10
-18.2091
 20
145.143
 30
0.000000
  70
    32
  0
VERTEX
  8
0
  5
709
 10
-18.1291
 20
145.247
 30
0.000000
  70
    32
  0
VERTEX
  8
0
  5
70A
 10
-18.0523
 20
145.356
 30
0.000000
  70
    32
  0
VERTEX
  8
0
  5
70B
 10
-17.9785
 20
145.469
 30
0.000000
  70
    32
  0
VERTEX
  8
0
  5
70C
 10
-17.9081
 20
145.586
 30
0.000000
  70
    32
  0
VERTEX
  8
0
  5
70D
 10
-17.8410
 20
145.707
 30
0.000000
  70
    32
  0
VERTEX
  8
0
  5
70E
 10
-17.7775
 20
145.832
 30
0.000000
  70
    32
  0
VERTEX
  8
0
  5
70F
 10
-17.7175
 20
145.960
 30
0.000000
  70
    32
  0
VERTEX
  8
0
  5
710
 10
-17.6613
 20
146.092
 30
0.000000
  70
    32
  0
VERTEX
  8
0
  5
711
 10
-17.6088
 20
146.227
 30
0.000000
  70
    32
  0
VERTEX
  8
0
  5
712
 10
-17.5603
 20
146.364
 30
0.000000
  70
    32
  0
VERTEX
  8
0
  5
713
 10
-17.5156
 20
146.505
 30
0.000000
  70
    32
  0
VERTEX
  8
0
  5
714
 10
-17.4751
 20
146.647
 30
0.000000
  70
    32
  0
VERTEX
  8
0
  5
715
 10
-17.4386
 20
146.792
 30
0.000000
  70
    32
  0
VERTEX
  8
0
  5
716
 10
-17.4063
 20
146.939
 30
0.000000
  70
    32
  0
VERTEX
  8
0
  5
717
 10
-17.3782
 20
147.088
 30
0.000000
  70
    32
  0
VERTEX
  8
0
  5
718
 10
-17.3543
 20
147.238
 30
0.000000
  70
    32
  0
VERTEX
  8
0
  5
719
 10
-17.3348
 20
147.389
 30
0.000000
  70
    32
  0
VERTEX
  8
0
  5
71A
 10
-17.3195
 20
147.542
 30
0.000000
  70
    32
  0
VERTEX
  8
0
  5
71B
 10
-17.3086
 20
147.695
 30
0.000000
  70
    32
  0
VERTEX
  8
0
  5
71C
 10
-17.3021
 20
147.848
 30
0.000000
  70
    32
  0
VERTEX
  8
0
  5
71D
 10
-17.3000
 20
148.002
 30
0.000000
  70
    32
  0
VERTEX
  8
0
  5
71E
 10
-17.3022
 20
148.156
 30
0.000000
  70
    32
  0
VERTEX
  8
0
  5
71F
 10
-17.3089
 20
148.309
 30
0.000000
  70
    32
  0
VERTEX
  8
0
  5
720
 10
-17.3199
 20
148.462
 30
0.000000
  70
    32
  0
VERTEX
  8
0
  5
721
 10
-17.3352
 20
148.615
 30
0.000000
  70
    32
  0
VERTEX
  8
0
  5
722
 10
-17.3549
 20
148.766
 30
0.000000
  70
    32
  0
VERTEX
  8
0
  5
723
 10
-17.3788
 20
148.916
 30
0.000000
  70
    32
  0
VERTEX
  8
0
  5
724
 10
-17.4071
 20
149.065
 30
0.000000
  70
    32
  0
VERTEX
  8
0
  5
725
 10
-17.4395
 20
149.211
 30
0.000000
  70
    32
  0
VERTEX
  8
0
  5
726
 10
-17.4761
 20
149.356
 30
0.000000
  70
    32
  0
VERTEX
  8
0
  5
727
 10
-17.5167
 20
149.499
 30
0.000000
  70
    32
  0
VERTEX
  8
0
  5
728
 10
-17.5615
 20
149.639
 30
0.000000
  70
    32
  0
VERTEX
  8
0
  5
729
 10
-17.6101
 20
149.777
 30
0.000000
  70
    32
  0
VERTEX
  8
0
  5
72A
 10
-17.6627
 20
149.911
 30
0.000000
  70
    32
  0
VERTEX
  8
0
  5
72B
 10
-17.7190
 20
150.043
 30
0.000000
  70
    32
  0
VERTEX
  8
0
  5
72C
 10
-17.7791
 20
150.171
 30
0.000000
  70
    32
  0
VERTEX
  8
0
  5
72D
 10
-17.8427
 20
150.296
 30
0.000000
  70
    32
  0
VERTEX
  8
0
  5
72E
 10
-17.9098
 20
150.417
 30
0.000000
  70
    32
  0
VERTEX
  8
0
  5
72F
 10
-17.9804
 20
150.534
 30
0.000000
  70
    32
  0
VERTEX
  8
0
  5
730
 10
-18.0542
 20
150.647
 30
0.000000
  70
    32
  0
VERTEX
  8
0
  5
731
 10
-18.1312
 20
150.756
 30
0.000000
  70
    32
  0
VERTEX
  8
0
  5
732
 10
-18.2112
 20
150.860
 30
0.000000
  70
    32
  0
VERTEX
  8
0
  5
733
 10
-18.2941
 20
150.960
 30
0.000000
  70
    32
  0
VERTEX
  8
0
  5
734
 10
-18.3798
 20
151.054
 30
0.000000
  70
    32
  0
VERTEX
  8
0
  5
735
 10
-18.4681
 20
151.144
 30
0.000000
  70
    32
  0
VERTEX
  8
0
  5
736
 10
-18.5589
 20
151.229
 30
0.000000
  70
    32
  0
SEQEND
  8
0
  5
737
  0
POLYLINE
  5
4C
  8
0
 10
-19.999999999999709
 20
165.07106781186542
 30
0.0
 66
     1
 70
     8
  0
VERTEX
  8
0
  5
738
 10
-20.0000
 20
165.071
 30
0.000000
  70
    32
  0
VERTEX
  8
0
  5
739
 10
-20.2453
 20
165.063
 30
0.000000
  70
    32
  0
VERTEX
  8
0
  5
73A
 10
-20.4901
 20
165.037
 30
0.000000
  70
    32
  0
VERTEX
  8
0
  5
73B
 10
-20.7337
 20
164.995
 30
0.000000
  70
    32
  0
VERTEX
  8
0
  5
73C
 10
-20.9755
 20
164.935
 30
0.000000
  70
    32
  0
VERTEX
  8
0
  5
73D
 10
-21.2149
 20
164.859
 30
0.000000
  70
    32
  0
VERTEX
  8
0
  5
73E
 10
-21.4514
 20
164.767
 30
0.000000
  70
    32
  0
VERTEX
  8
0
  5
73F
 10
-21.6844
 20
164.658
 30
0.000000
  70
    32
  0
VERTEX
  8
0
  5
740
 10
-21.9134
 20
164.533
 30
0.000000
  70
    32
  0
VERTEX
  8
0
  5
741
 10
-22.1378
 20
164.392
 30
0.000000
  70
    32
  0
VERTEX
  8
0
  5
742
 10
-22.3570
 20
164.236
 30
0.000000
  70
    32
  0
VERTEX
  8
0
  5
743
 10
-22.5705
 20
164.065
 30
0.000000
  70
    32
  0
VERTEX
  8
0
  5
744
 10
-22.7779
 20
163.879
 30
0.000000
  70
    32
  0
VERTEX
  8
0
  5
745
 10
-22.9785
 20
163.680
 30
0.000000
  70
    32
  0
VERTEX
  8
0
  5
746
 10
-23.1720
 20
163.466
 30
0.000000
  70
    32
  0
VERTEX
  8
0
  5
747
 10
-23.3578
 20
163.239
 30
0.000000
  70
    32
  0
VERTEX
  8
0
  5
748
 10
-23.5355
 20
163.000
 30
0.000000
  70
    32
  0
VERTEX
  8
0
  5
749
 10
-23.7048
 20
162.749
 30
0.000000
  70
    32
  0
VERTEX
  8
0
  5
74A
 10
-23.8651
 20
162.486
 30
0.000000
  70
    32
  0
VERTEX
  8
0
  5
74B
 10
-24.0160
 20
162.212
 30
0.000000
  70
    32
  0
VERTEX
  8
0
  5
74C
 10
-24.1573
 20
161.928
 30
0.000000
  70
    32
  0
VERTEX
  8
0
  5
74D
 10
-24.2886
 20
161.635
 30
0.000000
  70
    32
  0
VERTEX
  8
0
  5
74E
 10
-24.4096
 20
161.333
 30
0.000000
  70
    32
  0
VERTEX
  8
0
  5
74F
 10
-24.5199
 20
161.023
 30
0.000000
  70
    32
  0
VERTEX
  8
0
  5
750
 10
-24.6194
 20
160.706
 30
0.000000
  70
    32
  0
VERTEX
  8
0
  5
751
 10
-24.7077
 20
160.382
 30
0.000000
  70
    32
  0
VERTEX
  8
0
  5
752
 10
-24.7847
 20
160.053
 30
0.000000
  70
    32
  0
VERTEX
  8
0
  5
753
 10
-24.8502
 20
159.718
 30
0.000000
  70
    32
  0
VERTEX
  8
0
  5
754
 10
-24.9039
 20
159.379
 30
0.000000
  70
    32
  0
VERTEX
  8
0
  5
755
 10
-24.9459
 20
159.038
 30
0.000000
  70
    32
  0
VERTEX
  8
0
  5
756
 10
-24.9759
 20
158.693
 30
0.000000
  70
    32
  0
VERTEX
  8
0
  5
757
 10
-24.9940
 20
158.347
 30
0.000000
  70
    32
  0
VERTEX
  8
0
  5
758
 10
-25.0000
 20
158.000
 30
0.000000
  70
    32
  0
VERTEX
  8
0
  5
759
 10
-24.9940
 20
157.653
 30
0.000000
  70
    32
  0
VERTEX
  8
0
  5
75A
 10
-24.9759
 20
157.307
 30
0.000000
  70
    32
  0
VERTEX
  8
0
  5
75B
 10
-24.9459
 20
156.962
 30
0.000000
  70
    32
  0
VERTEX
  8
0
  5
75C
 10
-24.9039
 20
156.621
 30
0.000000
  70
    32
  0
VERTEX
  8
0
  5
75D
 10
-24.8502
 20
156.282
 30
0.000000
  70
    32
  0
VERTEX
  8
0
  5
75E
 10
-24.7847
 20
155.947
 30
0.000000
  70
    32
  0
VERTEX
  8
0
  5
75F
 10
-24.7077
 20
155.618
 30
0.000000
  70
    32
  0
VERTEX
  8
0
  5
760
 10
-24.6194
 20
155.294
 30
0.000000
  70
    32
  0
VERTEX
  8
0
  5
761
 10
-24.5199
 20
154.977
 30
0.000000
  70
    32
  0
VERTEX
  8
0
  5
762
 10
-24.4096
 20
154.667
 30
0.000000
  70
    32
  0
VERTEX
  8
0
  5
763
 10
-24.2886
 20
154.365
 30
0.000000
  70
    32
  0
VERTEX
  8
0
  5
764
 10
-24.1573
 20
154.072
 30
0.000000
  70
    32
  0
VERTEX
  8
0
  5
765
 10
-24.0160
 20
153.788
 30
0.000000
  70
    32
  0
VERTEX
  8
0
  5
766
 10
-23.8651
 20
153.514
 30
0.000000
  70
    32
  0
VERTEX
  8
0
  5
767
 10
-23.7048
 20
153.251
 30
0.000000
  70
    32
  0
VERTEX
  8
0
  5
768
 10
-23.5355
 20
153.000
 30
0.000000
  70
    32
  0
VERTEX
  8
0
  5
769
 10
-23.3578
 20
152.761
 30
0.000000
  70
    32
  0
VERTEX
  8
0
  5
76A
 10
-23.1720
 20
152.534
 30
0.000000
  70
    32
  0
VERTEX
  8
0
  5
76B
 10
-22.9785
 20
152.320
 30
0.000000
  70
    32
  0
VERTEX
  8
0
  5
76C
 10
-22.7779
 20
152.121
 30
0.000000
  70
    32
  0
VERTEX
  8
0
  5
76D
 10
-22.5705
 20
151.935
 30
0.000000
  70
    32
  0
VERTEX
  8
0
  5
76E
 10
-22.3570
 20
151.764
 30
0.000000
  70
    32
  0
VERTEX
  8
0
  5
76F
 10
-22.1378
 20
151.608
 30
0.000000
  70
    32
  0
VERTEX
  8
0
  5
770
 10
-21.9134
 20
151.467
 30
0.000000
  70
    32
  0
VERTEX
  8
0
  5
771
 10
-21.6844
 20
151.342
 30
0.000000
  70
    32
  0
VERTEX
  8
0
  5
772
 10
-21.4514
 20
151.233
 30
0.000000
  70
    32
  0
VERTEX
  8
0
  5
773
 10
-21.2149
 20
151.141
 30
0.000000
  70
    32
  0
VERTEX
  8
0
  5
774
 10
-20.9755
 20
151.065
 30
0.000000
  70
    32
  0
VERTEX
  8
0
  5
775
 10
-20.7337
 20
151.005
 30
0.000000
  70
    32
  0
VERTEX
  8
0
  5
776
 10
-20.4901
 20
150.963
 30
0.000000
  70
    32
  0
VERTEX
  8
0
  5
777
 10
-20.2453
 20
150.937
 30
0.000000
  70
    32
  0
VERTEX
  8
0
  5
778
 10
-20.0000
 20
150.929
 30
0.000000
  70
    32
  0
VERTEX
  8
0
  5
779
 10
-19.7547
 20
150.937
 30
0.000000
  70
    32
  0
VERTEX
  8
0
  5
77A
 10
-19.5099
 20
150.963
 30
0.000000
  70
    32
  0
VERTEX
  8
0
  5
77B
 10
-19.2663
 20
151.005
 30
0.000000
  70
    32
  0
VERTEX
  8
0
  5
77C
 10
-19.0245
 20
151.065
 30
0.000000
  70
    32
  0
VERTEX
  8
0
  5
77D
 10
-18.7851
 20
151.141
 30
0.000000
  70
    32
  0
VERTEX
  8
0
  5
77E
 10
-18.5486
 20
151.233
 30
0.000000
  70
    32
  0
VERTEX
  8
0
  5
77F
 10
-18.3156
 20
151.342
 30
0.000000
  70
    32
  0
VERTEX
  8
0
  5
780
 10
-18.0866
 20
151.467
 30
0.000000
  70
    32
  0
VERTEX
  8
0
  5
781
 10
-17.8622
 20
151.608
 30
0.000000
  70
    32
  0
VERTEX
  8
0
  5
782
 10
-17.6430
 20
151.764
 30
0.000000
  70
    32
  0
VERTEX
  8
0
  5
783
 10
-17.4295
 20
151.935
 30
0.000000
  70
    32
  0
VERTEX
  8
0
  5
784
 10
-17.2221
 20
152.121
 30
0.000000
  70
    32
  0
VERTEX
  8
0
  5
785
 10
-17.0215
 20
152.320
 30
0.000000
  70
    32
  0
VERTEX
  8
0
  5
786
 10
-16.8280
 20
152.534
 30
0.000000
  70
    32
  0
VERTEX
  8
0
  5
787
 10
-16.6422
 20
152.761
 30
0.000000
  70
    32
  0
VERTEX
  8
0
  5
788
 10
-16.4645
 20
153.000
 30
0.000000
  70
    32
  0
VERTEX
  8
0
  5
789
 10
-16.2952
 20
153.251
 30
0.000000
  70
    32
  0
VERTEX
  8
0
  5
78A
 10
-16.1349
 20
153.514
 30
0.000000
  70
    32
  0
VERTEX
  8
0
  5
78B
 10
-15.9840
 20
153.788
 30
0.000000
  70
    32
  0
VERTEX
  8
0
  5
78C
 10
-15.8427
 20
154.072
 30
0.000000
  70
    32
  0
VERTEX
  8
0
  5
78D
 10
-15.7114
 20
154.365
 30
0.000000
  70
    32
  0
VERTEX
  8
0
  5
78E
 10
-15.5904
 20
154.667
 30
0.000000
  70
    32
  0
VERTEX
  8
0
  5
78F
 10
-15.4801
 20
154.977
 30
0.000000
  70
    32
  0
VERTEX
  8
0
  5
790
 10
-15.3806
 20
155.294
 30
0.000000
  70
    32
  0
VERTEX
  8
0
  5
791
 10
-15.2923
 20
155.618
 30
0.000000
  70
    32
  0
VERTEX
  8
0
  5
792
 10
-15.2153
 20
155.947
 30
0.000000
  70
    32
  0
VERTEX
  8
0
  5
793
 10
-15.1498
 20
156.282
 30
0.000000
  70
    32
  0
VERTEX
  8
0
  5
794
 10
-15.0961
 20
156.621
 30
0.000000
  70
    32
  0
VERTEX
  8
0
  5
795
 10
-15.0541
 20
156.962
 30
0.000000
  70
    32
  0
VERTEX
  8
0
  5
796
 10
-15.0241
 20
157.307
 30
0.000000
  70
    32
  0
VERTEX
  8
0
  5
797
 10
-15.0060
 20
157.653
 30
0.000000
  70
    32
  0
VERTEX
  8
0
  5
798
 10
-15.0000
 20
158.000
 30
0.000000
  70
    32
  0
VERTEX
  8
0
  5
799
 10
-15.0060
 20
158.347
 30
0.000000
  70
    32
  0
VERTEX
  8
0
  5
79A
 10
-15.0241
 20
158.693
 30
0.000000
  70
    32
  0
VERTEX
  8
0
  5
79B
 10
-15.0541
 20
159.038
 30
0.000000
  70
    32
  0
VERTEX
  8
0
  5
79C
 10
-15.0961
 20
159.379
 30
0.000000
  70
    32
  0
VERTEX
  8
0
  5
79D
 10
-15.1498
 20
159.718
 30
0.000000
  70
    32
  0
VERTEX
  8
0
  5
79E
 10
-15.2153
 20
160.053
 30
0.000000
  70
    32
  0
VERTEX
  8
0
  5
79F
 10
-15.2923
 20
160.382
 30
0.000000
  70
    32
  0
VERTEX
  8
0
  5
7A0
 10
-15.3806
 20
160.706
 30
0.000000
  70
    32
  0
VERTEX
  8
0
  5
7A1
 10
-15.4801
 20
161.023
 30
0.000000
  70
    32
  0
VERTEX
  8
0
  5
7A2
 10
-15.5904
 20
161.333
 30
0.000000
  70
    32
  0
VERTEX
  8
0
  5
7A3
 10
-15.7114
 20
161.635
 30
0.000000
  70
    32
  0
VERTEX
  8
0
  5
7A4
 10
-15.8427
 20
161.928
 30
0.000000
  70
    32
  0
VERTEX
  8
0
  5
7A5
 10
-15.9840
 20
162.212
 30
0.000000
  70
    32
  0
VERTEX
  8
0
  5
7A6
 10
-16.1349
 20
162.486
 30
0.000000
  70
    32
  0
VERTEX
  8
0
  5
7A7
 10
-16.2952
 20
162.749
 30
0.000000
  70
    32
  0
VERTEX
  8
0
  5
7A8
 10
-16.4645
 20
163.000
 30
0.000000
  70
    32
  0
VERTEX
  8
0
  5
7A9
 10
-16.6422
 20
163.239
 30
0.000000
  70
    32
  0
VERTEX
  8
0
  5
7AA
 10
-16.8280
 20
163.466
 30
0.000000
  70
    32
  0
VERTEX
  8
0
  5
7AB
 10
-17.0215
 20
163.680
 30
0.000000
  70
    32
  0
VERTEX
  8
0
  5
7AC
 10
-17.2221
 20
163.879
 30
0.000000
  70
    32
  0
VERTEX
  8
0
  5
7AD
 10
-17.4295
 20
164.065
 30
0.000000
  70
    32
  0
VERTEX
  8
0
  5
7AE
 10
-17.6430
 20
164.236
 30
0.000000
  70
    32
  0
VERTEX
  8
0
  5
7AF
 10
-17.8622
 20
164.392
 30
0.000000
  70
    32
  0
VERTEX
  8
0
  5
7B0
 10
-18.0866
 20
164.533
 30
0.000000
  70
    32
  0
VERTEX
  8
0
  5
7B1
 10
-18.3156
 20
164.658
 30
0.000000
  70
    32
  0
VERTEX
  8
0
  5
7B2
 10
-18.5486
 20
164.767
 30
0.000000
  70
    32
  0
VERTEX
  8
0
  5
7B3
 10
-18.7851
 20
164.859
 30
0.000000
  70
    32
  0
VERTEX
  8
0
  5
7B4
 10
-19.0245
 20
164.935
 30
0.000000
  70
    32
  0
VERTEX
  8
0
  5
7B5
 10
-19.2663
 20
164.995
 30
0.000000
  70
    32
  0
VERTEX
  8
0
  5
7B6
 10
-19.5099
 20
165.037
 30
0.000000
  70
    32
  0
VERTEX
  8
0
  5
7B7
 10
-19.7547
 20
165.063
 30
0.000000
  70
    32
  0
VERTEX
  8
0
  5
7B8
 10
-20.0000
 20
165.071
 30
0.000000
  70
    32
  0
SEQEND
  8
0
  5
7B9
  0
POLYLINE
  5
4D
  8
0
 10
-17.499999999999709
 20
152.69669914110088
 30
0.0
 66
     1
 70
     8
  0
VERTEX
  8
0
  5
7BA
 10
-17.5000
 20
152.697
 30
0.000000
  70
    32
  0
VERTEX
  8
0
  5
7BB
 10
-17.5030
 20
152.783
 30
0.000000
  70
    32
  0
VERTEX
  8
0
  5
7BC
 10
-17.5120
 20
152.870
 30
0.000000
  70
    32
  0
VERTEX
  8
0
  5
7BD
 10
-17.5271
 20
152.956
 30
0.000000
  70
    32
  0
VERTEX
  8
0
  5
7BE
 10
-17.5480
 20
153.042
 30
0.000000
  70
    32
  0
VERTEX
  8
0
  5
7BF
 10
-17.5749
 20
153.126
 30
0.000000
  70
    32
  0
VERTEX
  8
0
  5
7C0
 10
-17.6076
 20
153.210
 30
0.000000
  70
    32
  0
VERTEX
  8
0
  5
7C1
 10
-17.6461
 20
153.292
 30
0.000000
  70
    32
  0
VERTEX
  8
0
  5
7C2
 10
-17.6903
 20
153.373
 30
0.000000
  70
    32
  0
VERTEX
  8
0
  5
7C3
 10
-17.7400
 20
153.453
 30
0.000000
  70
    32
  0
VERTEX
  8
0
  5
7C4
 10
-17.7952
 20
153.530
 30
0.000000
  70
    32
  0
VERTEX
  8
0
  5
7C5
 10
-17.8557
 20
153.606
 30
0.000000
  70
    32
  0
VERTEX
  8
0
  5
7C6
 10
-17.9213
 20
153.679
 30
0.000000
  70
    32
  0
VERTEX
  8
0
  5
7C7
 10
-17.9920
 20
153.750
 30
0.000000
  70
    32
  0
VERTEX
  8
0
  5
7C8
 10
-18.0675
 20
153.818
 30
0.000000
  70
    32
  0
VERTEX
  8
0
  5
7C9
 10
-18.1476
 20
153.884
 30
0.000000
  70
    32
  0
VERTEX
  8
0
  5
7CA
 10
-18.2322
 20
153.947
 30
0.000000
  70
    32
  0
VERTEX
  8
0
  5
7CB
 10
-18.3211
 20
154.007
 30
0.000000
  70
    32
  0
VERTEX
  8
0
  5
7CC
 10
-18.4140
 20
154.063
 30
0.000000
  70
    32
  0
VERTEX
  8
0
  5
7CD
 10
-18.5108
 20
154.117
 30
0.000000
  70
    32
  0
VERTEX
  8
0
  5
7CE
 10
-18.6111
 20
154.167
 30
0.000000
  70
    32
  0
VERTEX
  8
0
  5
7CF
 10
-18.7147
 20
154.213
 30
0.000000
  70
    32
  0
VERTEX
  8
0
  5
7D0
 10
-18.8215
 20
154.256
 30
0.000000
  70
    32
  0
VERTEX
  8
0
  5
7D1
 10
-18.9311
 20
154.295
 30
0.000000
  70
    32
  0
VERTEX
  8
0
  5
7D2
 10
-19.0433
 20
154.330
 30
0.000000
  70
    32
  0
VERTEX
  8
0
  5
7D3
 10
-19.1578
 20
154.361
 30
0.000000
  70
    32
  0
VERTEX
  8
0
  5
7D4
 10
-19.2743
 20
154.388
 30
0.000000
  70
    32
  0
VERTEX
  8
0
  5
7D5
 10
-19.3925
 20
154.411
 30
0.000000
  70
    32
  0
VERTEX
  8
0
  5
7D6
 10
-19.5123
 20
154.430
 30
0.000000
  70
    32
  0
VERTEX
  8
0
  5
7D7
 10
-19.6332
 20
154.445
 30
0.000000
  70
    32
  0
VERTEX
  8
0
  5
7D8
 10
-19.7550
 20
154.456
 30
0.000000
  70
    32
  0
VERTEX
  8
0
  5
7D9
 10
-19.8773
 20
154.462
 30
0.000000
  70
    32
  0
VERTEX
  8
0
  5
7DA
 10
-20.0000
 20
154.464
 30
0.000000
  70
    32
  0
VERTEX
  8
0
  5
7DB
 10
-20.1227
 20
154.462
 30
0.000000
  70
    32
  0
VERTEX
  8
0
  5
7DC
 10
-20.2450
 20
154.456
 30
0.000000
  70
    32
  0
VERTEX
  8
0
  5
7DD
 10
-20.3668
 20
154.445
 30
0.000000
  70
    32
  0
VERTEX
  8
0
  5
7DE
 10
-20.4877
 20
154.430
 30
0.000000
  70
    32
  0
VERTEX
  8
0
  5
7DF
 10
-20.6075
 20
154.411
 30
0.000000
  70
    32
  0
VERTEX
  8
0
  5
7E0
 10
-20.7257
 20
154.388
 30
0.000000
  70
    32
  0
VERTEX
  8
0
  5
7E1
 10
-20.8422
 20
154.361
 30
0.000000
  70
    32
  0
VERTEX
  8
0
  5
7E2
 10
-20.9567
 20
154.330
 30
0.000000
  70
    32
  0
VERTEX
  8
0
  5
7E3
 10
-21.0689
 20
154.295
 30
0.000000
  70
    32
  0
VERTEX
  8
0
  5
7E4
 10
-21.1785
 20
154.256
 30
0.000000
  70
    32
  0
VERTEX
  8
0
  5
7E5
 10
-21.2853
 20
154.213
 30
0.000000
  70
    32
  0
VERTEX
  8
0
  5
7E6
 10
-21.3889
 20
154.167
 30
0.000000
  70
    32
  0
VERTEX
  8
0
  5
7E7
 10
-21.4892
 20
154.117
 30
0.000000
  70
    32
  0
VERTEX
  8
0
  5
7E8
 10
-21.5860
 20
154.063
 30
0.000000
  70
    32
  0
VERTEX
  8
0
  5
7E9
 10
-21.6789
 20
154.007
 30
0.000000
  70
    32
  0
VERTEX
  8
0
  5
7EA
 10
-21.7678
 20
153.947
 30
0.000000
  70
    32
  0
VERTEX
  8
0
  5
7EB
 10
-21.8524
 20
153.884
 30
0.000000
  70
    32
  0
VERTEX
  8
0
  5
7EC
 10
-21.9325
 20
153.818
 30
0.000000
  70
    32
  0
VERTEX
  8
0
  5
7ED
 10
-22.0080
 20
153.750
 30
0.000000
  70
    32
  0
VERTEX
  8
0
  5
7EE
 10
-22.0787
 20
153.679
 30
0.000000
  70
    32
  0
VERTEX
  8
0
  5
7EF
 10
-22.1443
 20
153.606
 30
0.000000
  70
    32
  0
VERTEX
  8
0
  5
7F0
 10
-22.2048
 20
153.530
 30
0.000000
  70
    32
  0
VERTEX
  8
0
  5
7F1
 10
-22.2600
 20
153.453
 30
0.000000
  70
    32
  0
VERTEX
  8
0
  5
7F2
 10
-22.3097
 20
153.373
 30
0.000000
  70
    32
  0
VERTEX
  8
0
  5
7F3
 10
-22.3539
 20
153.292
 30
0.000000
  70
    32
  0
VERTEX
  8
0
  5
7F4
 10
-22.3924
 20
153.210
 30
0.000000
  70
    32
  0
VERTEX
  8
0
  5
7F5
 10
-22.4251
 20
153.126
 30
0.000000
  70
    32
  0
VERTEX
  8
0
  5
7F6
 10
-22.4520
 20
153.042
 30
0.000000
  70
    32
  0
VERTEX
  8
0
  5
7F7
 10
-22.4729
 20
152.956
 30
0.000000
  70
    32
  0
VERTEX
  8
0
  5
7F8
 10
-22.4880
 20
152.870
 30
0.000000
  70
    32
  0
VERTEX
  8
0
  5
7F9
 10
-22.4970
 20
152.783
 30
0.000000
  70
    32
  0
VERTEX
  8
0
  5
7FA
 10
-22.5000
 20
152.697
 30
0.000000
  70
    32
  0
VERTEX
  8
0
  5
7FB
 10
-22.4970
 20
152.610
 30
0.000000
  70
    32
  0
VERTEX
  8
0
  5
7FC
 10
-22.4880
 20
152.523
 30
0.000000
  70
    32
  0
VERTEX
  8
0
  5
7FD
 10
-22.4729
 20
152.437
 30
0.000000
  70
    32
  0
VERTEX
  8
0
  5
7FE
 10
-22.4520
 20
152.352
 30
0.000000
  70
    32
  0
VERTEX
  8
0
  5
7FF
 10
-22.4251
 20
152.267
 30
0.000000
  70
    32
  0
VERTEX
  8
0
  5
800
 10
-22.3924
 20
152.184
 30
0.000000
  70
    32
  0
VERTEX
  8
0
  5
801
 10
-22.3539
 20
152.101
 30
0.000000
  70
    32
  0
VERTEX
  8
0
  5
802
 10
-22.3097
 20
152.020
 30
0.000000
  70
    32
  0
VERTEX
  8
0
  5
803
 10
-22.2600
 20
151.941
 30
0.000000
  70
    32
  0
VERTEX
  8
0
  5
804
 10
-22.2048
 20
151.863
 30
0.000000
  70
    32
  0
VERTEX
  8
0
  5
805
 10
-22.1443
 20
151.788
 30
0.000000
  70
    32
  0
VERTEX
  8
0
  5
806
 10
-22.0787
 20
151.715
 30
0.000000
  70
    32
  0
VERTEX
  8
0
  5
807
 10
-22.0080
 20
151.644
 30
0.000000
  70
    32
  0
VERTEX
  8
0
  5
808
 10
-21.9325
 20
151.575
 30
0.000000
  70
    32
  0
VERTEX
  8
0
  5
809
 10
-21.8524
 20
151.510
 30
0.000000
  70
    32
  0
VERTEX
  8
0
  5
80A
 10
-21.7678
 20
151.447
 30
0.000000
  70
    32
  0
VERTEX
  8
0
  5
80B
 10
-21.6789
 20
151.387
 30
0.000000
  70
    32
  0
VERTEX
  8
0
  5
80C
 10
-21.5860
 20
151.330
 30
0.000000
  70
    32
  0
VERTEX
  8
0
  5
80D
 10
-21.4892
 20
151.277
 30
0.000000
  70
    32
  0
VERTEX
  8
0
  5
80E
 10
-21.3889
 20
151.227
 30
0.000000
  70
    32
  0
VERTEX
  8
0
  5
80F
 10
-21.2853
 20
151.180
 30
0.000000
  70
    32
  0
VERTEX
  8
0
  5
810
 10
-21.1785
 20
151.138
 30
0.000000
  70
    32
  0
VERTEX
  8
0
  5
811
 10
-21.0689
 20
151.099
 30
0.000000
  70
    32
  0
VERTEX
  8
0
  5
812
 10
-20.9567
 20
151.063
 30
0.000000
  70
    32
  0
VERTEX
  8
0
  5
813
 10
-20.8422
 20
151.032
 30
0.000000
  70
    32
  0
VERTEX
  8
0
  5
814
 10
-20.7257
 20
151.005
 30
0.000000
  70
    32
  0
VERTEX
  8
0
  5
815
 10
-20.6075
 20
150.982
 30
0.000000
  70
    32
  0
VERTEX
  8
0
  5
816
 10
-20.4877
 20
150.963
 30
0.000000
  70
    32
  0
VERTEX
  8
0
  5
817
 10
-20.3668
 20
150.948
 30
0.000000
  70
    32
  0
VERTEX
  8
0
  5
818
 10
-20.2450
 20
150.937
 30
0.000000
  70
    32
  0
VERTEX
  8
0
  5
819
 10
-20.1227
 20
150.931
 30
0.000000
  70
    32
  0
VERTEX
  8
0
  5
81A
 10
-20.0000
 20
150.929
 30
0.000000
  70
    32
  0
VERTEX
  8
0
  5
81B
 10
-19.8773
 20
150.931
 30
0.000000
  70
    32
  0
VERTEX
  8
0
  5
81C
 10
-19.7550
 20
150.937
 30
0.000000
  70
    32
  0
VERTEX
  8
0
  5
81D
 10
-19.6332
 20
150.948
 30
0.000000
  70
    32
  0
VERTEX
  8
0
  5
81E
 10
-19.5123
 20
150.963
 30
0.000000
  70
    32
  0
VERTEX
  8
0
  5
81F
 10
-19.3925
 20
150.982
 30
0.000000
  70
    32
  0
VERTEX
  8
0
  5
820
 10
-19.2743
 20
151.005
 30
0.000000
  70
    32
  0
VERTEX
  8
0
  5
821
 10
-19.1578
 20
151.032
 30
0.000000
  70
    32
  0
VERTEX
  8
0
  5
822
 10
-19.0433
 20
151.063
 30
0.000000
  70
    32
  0
VERTEX
  8
0
  5
823
 10
-18.9311
 20
151.099
 30
0.000000
  70
    32
  0
VERTEX
  8
0
  5
824
 10
-18.8215
 20
151.138
 30
0.000000
  70
    32
  0
VERTEX
  8
0
  5
825
 10
-18.7147
 20
151.180
 30
0.000000
  70
    32
  0
VERTEX
  8
0
  5
826
 10
-18.6111
 20
151.227
 30
0.000000
  70
    32
  0
VERTEX
  8
0
  5
827
 10
-18.5108
 20
151.277
 30
0.000000
  70
    32
  0
VERTEX
  8
0
  5
828
 10
-18.4140
 20
151.330
 30
0.000000
  70
    32
  0
VERTEX
  8
0
  5
829
 10
-18.3211
 20
151.387
 30
0.000000
  70
    32
  0
VERTEX
  8
0
  5
82A
 10
-18.2322
 20
151.447
 30
0.000000
  70
    32
  0
VERTEX
  8
0
  5
82B
 10
-18.1476
 20
151.510
 30
0.000000
  70
    32
  0
VERTEX
  8
0
  5
82C
 10
-18.0675
 20
151.575
 30
0.000000
  70
    32
  0
VERTEX
  8
0
  5
82D
 10
-17.9920
 20
151.644
 30
0.000000
  70
    32
  0
VERTEX
  8
0
  5
82E
 10
-17.9213
 20
151.715
 30
0.000000
  70
    32
  0
VERTEX
  8
0
  5
82F
 10
-17.8557
 20
151.788
 30
0.000000
  70
    32
  0
VERTEX
  8
0
  5
830
 10
-17.7952
 20
151.863
 30
0.000000
  70
    32
  0
VERTEX
  8
0
  5
831
 10
-17.7400
 20
151.941
 30
0.000000
  70
    32
  0
VERTEX
  8
0
  5
832
 10
-17.6903
 20
152.020
 30
0.000000
  70
    32
  0
VERTEX
  8
0
  5
833
 10
-17.6461
 20
152.101
 30
0.000000
  70
    32
  0
VERTEX
  8
0
  5
834
 10
-17.6076
 20
152.184
 30
0.000000
  70
    32
  0
VERTEX
  8
0
  5
835
 10
-17.5749
 20
152.267
 30
0.000000
  70
    32
  0
VERTEX
  8
0
  5
836
 10
-17.5480
 20
152.352
 30
0.000000
  70
    32
  0
VERTEX
  8
0
  5
837
 10
-17.5271
 20
152.437
 30
0.000000
  70
    32
  0
VERTEX
  8
0
  5
838
 10
-17.5120
 20
152.523
 30
0.000000
  70
    32
  0
VERTEX
  8
0
  5
839
 10
-17.5030
 20
152.610
 30
0.000000
  70
    32
  0
VERTEX
  8
0
  5
83A
 10
-17.5000
 20
152.697
 30
0.000000
  70
    32
  0
SEQEND
  8
0
  5
83B
  0
POLYLINE
  5
4E
  8
0
 10
-15.285954792089505
 20
155.64297739604478
 30
0.0
 66
     1
 70
     8
  0
VERTEX
  8
0
  5
83C
 10
-15.2860
 20
155.643
 30
0.000000
  70
    32
  0
VERTEX
  8
0
  5
83D
 10
-15.3189
 20
155.707
 30
0.000000
  70
    32
  0
VERTEX
  8
0
  5
83E
 10
-15.3535
 20
155.770
 30
0.000000
  70
    32
  0
VERTEX
  8
0
  5
83F
 10
-15.3899
 20
155.833
 30
0.000000
  70
    32
  0
VERTEX
  8
0
  5
840
 10
-15.4280
 20
155.896
 30
0.000000
  70
    32
  0
VERTEX
  8
0
  5
841
 10
-15.4678
 20
155.958
 30
0.000000
  70
    32
  0
VERTEX
  8
0
  5
842
 10
-15.5092
 20
156.019
 30
0.000000
  70
    32
  0
VERTEX
  8
0
  5
843
 10
-15.5523
 20
156.080
 30
0.000000
  70
    32
  0
VERTEX
  8
0
  5
844
 10
-15.5971
 20
156.140
 30
0.000000
  70
    32
  0
VERTEX
  8
0
  5
845
 10
-15.6435
 20
156.199
 30
0.000000
  70
    32
  0
VERTEX
  8
0
  5
846
 10
-15.6915
 20
156.258
 30
0.000000
  70
    32
  0
VERTEX
  8
0
  5
847
 10
-15.7411
 20
156.317
 30
0.000000
  70
    32
  0
VERTEX
  8
0
  5
848
 10
-15.7922
 20
156.374
 30
0.000000
  70
    32
  0
VERTEX
  8
0
  5
849
 10
-15.8450
 20
156.431
 30
0.000000
  70
    32
  0
VERTEX
  8
0
  5
84A
 10
-15.8992
 20
156.487
 30
0.000000
  70
    32
  0
VERTEX
  8
0
  5
84B
 10
-15.9550
 20
156.543
 30
0.000000
  70
    32
  0
VERTEX
  8
0
  5
84C
 10
-16.0123
 20
156.597
 30
0.000000
  70
    32
  0
VERTEX
  8
0
  5
84D
 10
-16.0710
 20
156.651
 30
0.000000
  70
    32
  0
VERTEX
  8
0
  5
84E
 10
-16.1312
 20
156.704
 30
0.000000
  70
    32
  0
VERTEX
  8
0
  5
84F
 10
-16.1928
 20
156.756
 30
0.000000
  70
    32
  0
VERTEX
  8
0
  5
850
 10
-16.2559
 20
156.808
 30
0.000000
  70
    32
  0
VERTEX
  8
0
  5
851
 10
-16.3203
 20
156.858
 30
0.000000
  70
    32
  0
VERTEX
  8
0
  5
852
 10
-16.3861
 20
156.908
 30
0.000000
  70
    32
  0
VERTEX
  8
0
  5
853
 10
-16.4532
 20
156.956
 30
0.000000
  70
    32
  0
VERTEX
  8
0
  5
854
 10
-16.5217
 20
157.004
 30
0.000000
  70
    32
  0
VERTEX
  8
0
  5
855
 10
-16.5914
 20
157.051
 30
0.000000
  70
    32
  0
VERTEX
  8
0
  5
856
 10
-16.6624
 20
157.097
 30
0.000000
  70
    32
  0
VERTEX
  8
0
  5
857
 10
-16.7346
 20
157.142
 30
0.000000
  70
    32
  0
VERTEX
  8
0
  5
858
 10
-16.8080
 20
157.186
 30
0.000000
  70
    32
  0
VERTEX
  8
0
  5
859
 10
-16.8826
 20
157.229
 30
0.000000
  70
    32
  0
VERTEX
  8
0
  5
85A
 10
-16.9584
 20
157.271
 30
0.000000
  70
    32
  0
VERTEX
  8
0
  5
85B
 10
-17.0353
 20
157.311
 30
0.000000
  70
    32
  0
VERTEX
  8
0
  5
85C
 10
-17.1132
 20
157.351
 30
0.000000
  70
    32
  0
VERTEX
  8
0
  5
85D
 10
-17.1923
 20
157.390
 30
0.000000
  70
    32
  0
VERTEX
  8
0
  5
85E
 10
-17.2724
 20
157.428
 30
0.000000
  70
    32
  0
VERTEX
  8
0
  5
85F
 10
-17.3535
 20
157.464
 30
0.000000
  70
    32
  0
VERTEX
  8
0
  5
860
 10
-17.4356
 20
157.500
 30
0.000000
  70
    32
  0
VERTEX
  8
0
  5
861
 10
-17.5186
 20
157.534
 30
0.000000
  70
    32
  0
VERTEX
  8
0
  5
862
 10
-17.6025
 20
157.567
 30
0.000000
  70
    32
  0
VERTEX
  8
0
  5
863
 10
-17.6874
 20
157.599
 30
0.000000
  70
    32
  0
VERTEX
  8
0
  5
864
 10
-17.7731
 20
157.630
 30
0.000000
  70
    32
  0
VERTEX
  8
0
  5
865
 10
-17.8596
 20
157.660
 30
0.000000
  70
    32
  0
VERTEX
  8
0
  5
866
 10
-17.9469
 20
157.688
 30
0.000000
  70
    32
  0
VERTEX
  8
0
  5
867
 10
-18.0349
 20
157.716
 30
0.000000
  70
    32
  0
VERTEX
  8
0
  5
868
 10
-18.1237
 20
157.742
 30
0.000000
  70
    32
  0
VERTEX
  8
0
  5
869
 10
-18.2132
 20
157.767
 30
0.000000
  70
    32
  0
VERTEX
  8
0
  5
86A
 10
-18.3033
 20
157.790
 30
0.000000
  70
    32
  0
VERTEX
  8
0
  5
86B
 10
-18.3941
 20
157.813
 30
0.000000
  70
    32
  0
VERTEX
  8
0
  5
86C
 10
-18.4855
 20
157.834
 30
0.000000
  70
    32
  0
VERTEX
  8
0
  5
86D
 10
-18.5774
 20
157.854
 30
0.000000
  70
    32
  0
VERTEX
  8
0
  5
86E
 10
-18.6698
 20
157.873
 30
0.000000
  70
    32
  0
VERTEX
  8
0
  5
86F
 10
-18.7628
 20
157.890
 30
0.000000
  70
    32
  0
VERTEX
  8
0
  5
870
 10
-18.8562
 20
157.906
 30
0.000000
  70
    32
  0
VERTEX
  8
0
  5
871
 10
-18.9500
 20
157.921
 30
0.000000
  70
    32
  0
VERTEX
  8
0
  5
872
 10
-19.0442
 20
157.935
 30
0.000000
  70
    32
  0
VERTEX
  8
0
  5
873
 10
-19.1388
 20
157.947
 30
0.000000
  70
    32
  0
VERTEX
  8
0
  5
874
 10
-19.2337
 20
157.958
 30
0.000000
  70
    32
  0
VERTEX
  8
0
  5
875
 10
-19.3289
 20
157.968
 30
0.000000
  70
    32
  0
VERTEX
  8
0
  5
876
 10
-19.4243
 20
157.976
 30
0.000000
  70
    32
  0
VERTEX
  8
0
  5
877
 10
-19.5199
 20
157.984
 30
0.000000
  70
    32
  0
VERTEX
  8
0
  5
878
 10
-19.6157
 20
157.990
 30
0.000000
  70
    32
  0
VERTEX
  8
0
  5
879
 10
-19.7117
 20
157.994
 30
0.000000
  70
    32
  0
VERTEX
  8
0
  5
87A
 10
-19.8077
 20
157.997
 30
0.000000
  70
    32
  0
VERTEX
  8
0
  5
87B
 10
-19.9038
 20
157.999
 30
0.000000
  70
    32
  0
VERTEX
  8
0
  5
87C
 10
-20.0000
 20
158.000
 30
0.000000
  70
    32
  0
VERTEX
  8
0
  5
87D
 10
-20.0962
 20
157.999
 30
0.000000
  70
    32
  0
VERTEX
  8
0
  5
87E
 10
-20.1923
 20
157.997
 30
0.000000
  70
    32
  0
VERTEX
  8
0
  5
87F
 10
-20.2883
 20
157.994
 30
0.000000
  70
    32
  0
VERTEX
  8
0
  5
880
 10
-20.3843
 20
157.990
 30
0.000000
  70
    32
  0
VERTEX
  8
0
  5
881
 10
-20.4801
 20
157.984
 30
0.000000
  70
    32
  0
VERTEX
  8
0
  5
882
 10
-20.5757
 20
157.976
 30
0.000000
  70
    32
  0
VERTEX
  8
0
  5
883
 10
-20.6711
 20
157.968
 30
0.000000
  70
    32
  0
VERTEX
  8
0
  5
884
 10
-20.7663
 20
157.958
 30
0.000000
  70
    32
  0
VERTEX
  8
0
  5
885
 10
-20.8612
 20
157.947
 30
0.000000
  70
    32
  0
VERTEX
  8
0
  5
886
 10
-20.9558
 20
157.935
 30
0.000000
  70
    32
  0
VERTEX
  8
0
  5
887
 10
-21.0500
 20
157.921
 30
0.000000
  70
    32
  0
VERTEX
  8
0
  5
888
 10
-21.1438
 20
157.906
 30
0.000000
  70
    32
  0
VERTEX
  8
0
  5
889
 10
-21.2372
 20
157.890
 30
0.000000
  70
    32
  0
VERTEX
  8
0
  5
88A
 10
-21.3302
 20
157.873
 30
0.000000
  70
    32
  0
VERTEX
  8
0
  5
88B
 10
-21.4226
 20
157.854
 30
0.000000
  70
    32
  0
VERTEX
  8
0
  5
88C
 10
-21.5145
 20
157.834
 30
0.000000
  70
    32
  0
VERTEX
  8
0
  5
88D
 10
-21.6059
 20
157.813
 30
0.000000
  70
    32
  0
VERTEX
  8
0
  5
88E
 10
-21.6967
 20
157.790
 30
0.000000
  70
    32
  0
VERTEX
  8
0
  5
88F
 10
-21.7868
 20
157.767
 30
0.000000
  70
    32
  0
VERTEX
  8
0
  5
890
 10
-21.8763
 20
157.742
 30
0.000000
  70
    32
  0
VERTEX
  8
0
  5
891
 10
-21.9651
 20
157.716
 30
0.000000
  70
    32
  0
VERTEX
  8
0
  5
892
 10
-22.0531
 20
157.688
 30
0.000000
  70
    32
  0
VERTEX
  8
0
  5
893
 10
-22.1404
 20
157.660
 30
0.000000
  70
    32
  0
VERTEX
  8
0
  5
894
 10
-22.2269
 20
157.630
 30
0.000000
  70
    32
  0
VERTEX
  8
0
  5
895
 10
-22.3126
 20
157.599
 30
0.000000
  70
    32
  0
VERTEX
  8
0
  5
896
 10
-22.3975
 20
157.567
 30
0.000000
  70
    32
  0
VERTEX
  8
0
  5
897
 10
-22.4814
 20
157.534
 30
0.000000
  70
    32
  0
VERTEX
  8
0
  5
898
 10
-22.5644
 20
157.500
 30
0.000000
  70
    32
  0
VERTEX
  8
0
  5
899
 10
-22.6465
 20
157.464
 30
0.000000
  70
    32
  0
VERTEX
  8
0
  5
89A
 10
-22.7276
 20
157.428
 30
0.000000
  70
    32
  0
VERTEX
  8
0
  5
89B
 10
-22.8077
 20
157.390
 30
0.000000
  70
    32
  0
VERTEX
  8
0
  5
89C
 10
-22.8868
 20
157.351
 30
0.000000
  70
    32
  0
VERTEX
  8
0
  5
89D
 10
-22.9647
 20
157.311
 30
0.000000
  70
    32
  0
VERTEX
  8
0
  5
89E
 10
-23.0416
 20
157.271
 30
0.000000
  70
    32
  0
VERTEX
  8
0
  5
89F
 10
-23.1174
 20
157.229
 30
0.000000
  70
    32
  0
VERTEX
  8
0
  5
8A0
 10
-23.1920
 20
157.186
 30
0.000000
  70
    32
  0
VERTEX
  8
0
  5
8A1
 10
-23.2654
 20
157.142
 30
0.000000
  70
    32
  0
VERTEX
  8
0
  5
8A2
 10
-23.3376
 20
157.097
 30
0.000000
  70
    32
  0
VERTEX
  8
0
  5
8A3
 10
-23.4086
 20
157.051
 30
0.000000
  70
    32
  0
VERTEX
  8
0
  5
8A4
 10
-23.4783
 20
157.004
 30
0.000000
  70
    32
  0
VERTEX
  8
0
  5
8A5
 10
-23.5468
 20
156.956
 30
0.000000
  70
    32
  0
VERTEX
  8
0
  5
8A6
 10
-23.6139
 20
156.908
 30
0.000000
  70
    32
  0
VERTEX
  8
0
  5
8A7
 10
-23.6797
 20
156.858
 30
0.000000
  70
    32
  0
VERTEX
  8
0
  5
8A8
 10
-23.7441
 20
156.808
 30
0.000000
  70
    32
  0
VERTEX
  8
0
  5
8A9
 10
-23.8072
 20
156.756
 30
0.000000
  70
    32
  0
VERTEX
  8
0
  5
8AA
 10
-23.8688
 20
156.704
 30
0.000000
  70
    32
  0
VERTEX
  8
0
  5
8AB
 10
-23.9290
 20
156.651
 30
0.000000
  70
    32
  0
VERTEX
  8
0
  5
8AC
 10
-23.9877
 20
156.597
 30
0.000000
  70
    32
  0
VERTEX
  8
0
  5
8AD
 10
-24.0450
 20
156.543
 30
0.000000
  70
    32
  0
VERTEX
  8
0
  5
8AE
 10
-24.1008
 20
156.487
 30
0.000000
  70
    32
  0
VERTEX
  8
0
  5
8AF
 10
-24.1550
 20
156.431
 30
0.000000
  70
    32
  0
VERTEX
  8
0
  5
8B0
 10
-24.2078
 20
156.374
 30
0.000000
  70
    32
  0
VERTEX
  8
0
  5
8B1
 10
-24.2589
 20
156.317
 30
0.000000
  70
    32
  0
VERTEX
  8
0
  5
8B2
 10
-24.3085
 20
156.258
 30
0.000000
  70
    32
  0
VERTEX
  8
0
  5
8B3
 10
-24.3565
 20
156.199
 30
0.000000
  70
    32
  0
VERTEX
  8
0
  5
8B4
 10
-24.4029
 20
156.140
 30
0.000000
  70
    32
  0
VERTEX
  8
0
  5
8B5
 10
-24.4477
 20
156.080
 30
0.000000
  70
    32
  0
VERTEX
  8
0
  5
8B6
 10
-24.4908
 20
156.019
 30
0.000000
  70
    32
  0
VERTEX
  8
0
  5
8B7
 10
-24.5322
 20
155.958
 30
0.000000
  70
    32
  0
VERTEX
  8
0
  5
8B8
 10
-24.5720
 20
155.896
 30
0.000000
  70
    32
  0
VERTEX
  8
0
  5
8B9
 10
-24.6101
 20
155.833
 30
0.000000
  70
    32
  0
VERTEX
  8
0
  5
8BA
 10
-24.6465
 20
155.770
 30
0.000000
  70
    32
  0
VERTEX
  8
0
  5
8BB
 10
-24.6811
 20
155.707
 30
0.000000
  70
    32
  0
VERTEX
  8
0
  5
8BC
 10
-24.7140
 20
155.643
 30
0.000000
  70
    32
  0
SEQEND
  8
0
  5
8BD
  0
POLYLINE
  5
4F
  8
0
  6
HIDDEN
 62
     8
 10
18.55889642981532
 20
46.229000000000049
 30
0.0
 66
     1
 70
     8
  0
VERTEX
  8
0
  5
8BE
 10
18.5589
 20
46.2290
 30
0.000000
  70
    32
  0
VERTEX
  8
0
  5
8BF
 10
18.4681
 20
46.1443
 30
0.000000
  70
    32
  0
VERTEX
  8
0
  5
8C0
 10
18.3798
 20
46.0545
 30
0.000000
  70
    32
  0
VERTEX
  8
0
  5
8C1
 10
18.2941
 20
45.9597
 30
0.000000
  70
    32
  0
VERTEX
  8
0
  5
8C2
 10
18.2112
 20
45.8601
 30
0.000000
  70
    32
  0
VERTEX
  8
0
  5
8C3
 10
18.1312
 20
45.7559
 30
0.000000
  70
    32
  0
VERTEX
  8
0
  5
8C4
 10
18.0542
 20
45.6472
 30
0.000000
  70
    32
  0
VERTEX
  8
0
  5
8C5
 10
17.9804
 20
45.5342
 30
0.000000
  70
    32
  0
VERTEX
  8
0
  5
8C6
 10
17.9098
 20
45.4171
 30
0.000000
  70
    32
  0
VERTEX
  8
0
  5
8C7
 10
17.8427
 20
45.2961
 30
0.000000
  70
    32
  0
VERTEX
  8
0
  5
8C8
 10
17.7791
 20
45.1714
 30
0.000000
  70
    32
  0
VERTEX
  8
0
  5
8C9
 10
17.7190
 20
45.0431
 30
0.000000
  70
    32
  0
VERTEX
  8
0
  5
8CA
 10
17.6627
 20
44.9115
 30
0.000000
  70
    32
  0
VERTEX
  8
0
  5
8CB
 10
17.6101
 20
44.7768
 30
0.000000
  70
    32
  0
VERTEX
  8
0
  5
8CC
 10
17.5615
 20
44.6392
 30
0.000000
  70
    32
  0
VERTEX
  8
0
  5
8CD
 10
17.5167
 20
44.4990
 30
0.000000
  70
    32
  0
VERTEX
  8
0
  5
8CE
 10
17.4761
 20
44.3563
 30
0.000000
  70
    32
  0
VERTEX
  8
0
  5
8CF
 10
17.4395
 20
44.2114
 30
0.000000
  70
    32
  0
VERTEX
  8
0
  5
8D0
 10
17.4071
 20
44.0646
 30
0.000000
  70
    32
  0
VERTEX
  8
0
  5
8D1
 10
17.3788
 20
43.9160
 30
0.000000
  70
    32
  0
VERTEX
  8
0
  5
8D2
 10
17.3549
 20
43.7660
 30
0.000000
  70
    32
  0
VERTEX
  8
0
  5
8D3
 10
17.3352
 20
43.6147
 30
0.000000
  70
    32
  0
VERTEX
  8
0
  5
8D4
 10
17.3199
 20
43.4624
 30
0.000000
  70
    32
  0
VERTEX
  8
0
  5
8D5
 10
17.3089
 20
43.3093
 30
0.000000
  70
    32
  0
VERTEX
  8
0
  5
8D6
 10
17.3022
 20
43.1558
 30
0.000000
  70
    32
  0
VERTEX
  8
0
  5
8D7
 10
17.3000
 20
43.0020
 30
0.000000
  70
    32
  0
VERTEX
  8
0
  5
8D8
 10
17.3021
 20
42.8482
 30
0.000000
  70
    32
  0
VERTEX
  8
0
  5
8D9
 10
17.3086
 20
42.6946
 30
0.000000
  70
    32
  0
VERTEX
  8
0
  5
8DA
 10
17.3195
 20
42.5416
 30
0.000000
  70
    32
  0
VERTEX
  8
0
  5
8DB
 10
17.3348
 20
42.3893
 30
0.000000
  70
    32
  0
VERTEX
  8
0
  5
8DC
 10
17.3543
 20
42.2379
 30
0.000000
  70
    32
  0
VERTEX
  8
0
  5
8DD
 10
17.3782
 20
42.0878
 30
0.000000
  70
    32
  0
VERTEX
  8
0
  5
8DE
 10
17.4063
 20
41.9392
 30
0.000000
  70
    32
  0
VERTEX
  8
0
  5
8DF
 10
17.4386
 20
41.7923
 30
0.000000
  70
    32
  0
VERTEX
  8
0
  5
8E0
 10
17.4751
 20
41.6474
 30
0.000000
  70
    32
  0
VERTEX
  8
0
  5
8E1
 10
17.5156
 20
41.5047
 30
0.000000
  70
    32
  0
VERTEX
  8
0
  5
8E2
 10
17.5603
 20
41.3644
 30
0.000000
  70
    32
  0
VERTEX
  8
0
  5
8E3
 10
17.6088
 20
41.2267
 30
0.000000
  70
    32
  0
VERTEX
  8
0
  5
8E4
 10
17.6613
 20
41.0920
 30
0.000000
  70
    32
  0
VERTEX
  8
0
  5
8E5
 10
17.7175
 20
40.9603
 30
0.000000
  70
    32
  0
VERTEX
  8
0
  5
8E6
 10
17.7775
 20
40.8319
 30
0.000000
  70
    32
  0
VERTEX
  8
0
  5
8E7
 10
17.8410
 20
40.7071
 30
0.000000
  70
    32
  0
VERTEX
  8
0
  5
8E8
 10
17.9081
 20
40.5860
 30
0.000000
  70
    32
  0
VERTEX
  8
0
  5
8E9
 10
17.9785
 20
40.4688
 30
0.000000
  70
    32
  0
VERTEX
  8
0
  5
8EA
 10
18.0523
 20
40.3557
 30
0.000000
  70
    32
  0
VERTEX
  8
0
  5
8EB
 10
18.1291
 20
40.2468
 30
0.000000
  70
    32
  0
VERTEX
  8
0
  5
8EC
 10
18.2091
 20
40.1425
 30
0.000000
  70
    32
  0
VERTEX
  8
0
  5
8ED
 10
18.2919
 20
40.0428
 30
0.000000
  70
    32
  0
VERTEX
  8
0
  5
8EE
 10
18.3775
 20
39.9479
 30
0.000000
  70
    32
  0
VERTEX
  8
0
  5
8EF
 10
18.4658
 20
39.8580
 30
0.000000
  70
    32
  0
VERTEX
  8
0
  5
8F0
 10
18.5565
 20
39.7731
 30
0.000000
  70
    32
  0
VERTEX
  8
0
  5
8F1
 10
18.6496
 20
39.6935
 30
0.000000
  70
    32
  0
VERTEX
  8
0
  5
8F2
 10
18.7449
 20
39.6193
 30
0.000000
  70
    32
  0
VERTEX
  8
0
  5
8F3
 10
18.8422
 20
39.5505
 30
0.000000
  70
    32
  0
VERTEX
  8
0
  5
8F4
 10
18.9414
 20
39.4874
 30
0.000000
  70
    32
  0
VERTEX
  8
0
  5
8F5
 10
19.0423
 20
39.4299
 30
0.000000
  70
    32
  0
VERTEX
  8
0
  5
8F6
 10
19.1447
 20
39.3783
 30
0.000000
  70
    32
  0
VERTEX
  8
0
  5
8F7
 10
19.2486
 20
39.3325
 30
0.000000
  70
    32
  0
VERTEX
  8
0
  5
8F8
 10
19.3536
 20
39.2927
 30
0.000000
  70
    32
  0
VERTEX
  8
0
  5
8F9
 10
19.4598
 20
39.2588
 30
0.000000
  70
    32
  0
VERTEX
  8
0
  5
8FA
 10
19.5667
 20
39.2311
 30
0.000000
  70
    32
  0
VERTEX
  8
0
  5
8FB
 10
19.6744
 20
39.2095
 30
0.000000
  70
    32
  0
VERTEX
  8
0
  5
8FC
 10
19.7827
 20
39.1940
 30
0.000000
  70
    32
  0
VERTEX
  8
0
  5
8FD
 10
19.8912
 20
39.1847
 30
0.000000
  70
    32
  0
VERTEX
  8
0
  5
8FE
 10
20.0000
 20
39.1816
 30
0.000000
  70
    32
  0
VERTEX
  8
0
  5
8FF
 10
20.1088
 20
39.1847
 30
0.000000
  70
    32
  0
VERTEX
  8
0
  5
900
 10
20.2173
 20
39.1940
 30
0.000000
  70
    32
  0
VERTEX
  8
0
  5
901
 10
20.3256
 20
39.2095
 30
0.000000
  70
    32
  0
VERTEX
  8
0
  5
902
 10
20.4333
 20
39.2311
 30
0.000000
  70
    32
  0
VERTEX
  8
0
  5
903
 10
20.5402
 20
39.2588
 30
0.000000
  70
    32
  0
VERTEX
  8
0
  5
904
 10
20.6464
 20
39.2927
 30
0.000000
  70
    32
  0
VERTEX
  8
0
  5
905
 10
20.7514
 20
39.3325
 30
0.000000
  70
    32
  0
VERTEX
  8
0
  5
906
 10
20.8553
 20
39.3783
 30
0.000000
  70
    32
  0
VERTEX
  8
0
  5
907
 10
20.9577
 20
39.4299
 30
0.000000
  70
    32
  0
VERTEX
  8
0
  5
908
 10
21.0586
 20
39.4874
 30
0.000000
  70
    32
  0
VERTEX
  8
0
  5
909
 10
21.1578
 20
39.5505
 30
0.000000
  70
    32
  0
VERTEX
  8
0
  5
90A
 10
21.2551
 20
39.6193
 30
0.000000
  70
    32
  0
VERTEX
  8
0
  5
90B
 10
21.3504
 20
39.6935
 30
0.000000
  70
    32
  0
VERTEX
  8
0
  5
90C
 10
21.4435
 20
39.7731
 30
0.000000
  70
    32
  0
VERTEX
  8
0
  5
90D
 10
21.5342
 20
39.8580
 30
0.000000
  70
    32
  0
VERTEX
  8
0
  5
90E
 10
21.6225
 20
39.9479
 30
0.000000
  70
    32
  0
VERTEX
  8
0
  5
90F
 10
21.7081
 20
40.0428
 30
0.000000
  70
    32
  0
VERTEX
  8
0
  5
910
 10
21.7909
 20
40.1425
 30
0.000000
  70
    32
  0
VERTEX
  8
0
  5
911
 10
21.8709
 20
40.2468
 30
0.000000
  70
    32
  0
VERTEX
  8
0
  5
912
 10
21.9477
 20
40.3557
 30
0.000000
  70
    32
  0
VERTEX
  8
0
  5
913
 10
22.0215
 20
40.4688
 30
0.000000
  70
    32
  0
VERTEX
  8
0
  5
914
 10
22.0919
 20
40.5860
 30
0.000000
  70
    32
  0
VERTEX
  8
0
  5
915
 10
22.1590
 20
40.7071
 30
0.000000
  70
    32
  0
VERTEX
  8
0
  5
916
 10
22.2225
 20
40.8319
 30
0.000000
  70
    32
  0
VERTEX
  8
0
  5
917
 10
22.2825
 20
40.9603
 30
0.000000
  70
    32
  0
VERTEX
  8
0
  5
918
 10
22.3387
 20
41.0920
 30
0.000000
  70
    32
  0
VERTEX
  8
0
  5
919
 10
22.3912
 20
41.2267
 30
0.000000
  70
    32
  0
VERTEX
  8
0
  5
91A
 10
22.4397
 20
41.3644
 30
0.000000
  70
    32
  0
VERTEX
  8
0
  5
91B
 10
22.4844
 20
41.5047
 30
0.000000
  70
    32
  0
VERTEX
  8
0
  5
91C
 10
22.5249
 20
41.6474
 30
0.000000
  70
    32
  0
VERTEX
  8
0
  5
91D
 10
22.5614
 20
41.7923
 30
0.000000
  70
    32
  0
VERTEX
  8
0
  5
91E
 10
22.5937
 20
41.9392
 30
0.000000
  70
    32
  0
VERTEX
  8
0
  5
91F
 10
22.6218
 20
42.0878
 30
0.000000
  70
    32
  0
VERTEX
  8
0
  5
920
 10
22.6457
 20
42.2379
 30
0.000000
  70
    32
  0
VERTEX
  8
0
  5
921
 10
22.6652
 20
42.3893
 30
0.000000
  70
    32
  0
VERTEX
  8
0
  5
922
 10
22.6805
 20
42.5416
 30
0.000000
  70
    32
  0
VERTEX
  8
0
  5
923
 10
22.6914
 20
42.6946
 30
0.000000
  70
    32
  0
VERTEX
  8
0
  5
924
 10
22.6979
 20
42.8482
 30
0.000000
  70
    32
  0
VERTEX
  8
0
  5
925
 10
22.7000
 20
43.0020
 30
0.000000
  70
    32
  0
VERTEX
  8
0
  5
926
 10
22.6978
 20
43.1558
 30
0.000000
  70
    32
  0
VERTEX
  8
0
  5
927
 10
22.6911
 20
43.3093
 30
0.000000
  70
    32
  0
VERTEX
  8
0
  5
928
 10
22.6801
 20
43.4624
 30
0.000000
  70
    32
  0
VERTEX
  8
0
  5
929
 10
22.6648
 20
43.6147
 30
0.000000
  70
    32
  0
VERTEX
  8
0
  5
92A
 10
22.6451
 20
43.7660
 30
0.000000
  70
    32
  0
VERTEX
  8
0
  5
92B
 10
22.6212
 20
43.9160
 30
0.000000
  70
    32
  0
VERTEX
  8
0
  5
92C
 10
22.5929
 20
44.0646
 30
0.000000
  70
    32
  0
VERTEX
  8
0
  5
92D
 10
22.5605
 20
44.2114
 30
0.000000
  70
    32
  0
VERTEX
  8
0
  5
92E
 10
22.5239
 20
44.3563
 30
0.000000
  70
    32
  0
VERTEX
  8
0
  5
92F
 10
22.4833
 20
44.4990
 30
0.000000
  70
    32
  0
VERTEX
  8
0
  5
930
 10
22.4385
 20
44.6392
 30
0.000000
  70
    32
  0
VERTEX
  8
0
  5
931
 10
22.3899
 20
44.7768
 30
0.000000
  70
    32
  0
VERTEX
  8
0
  5
932
 10
22.3373
 20
44.9115
 30
0.000000
  70
    32
  0
VERTEX
  8
0
  5
933
 10
22.2810
 20
45.0431
 30
0.000000
  70
    32
  0
VERTEX
  8
0
  5
934
 10
22.2209
 20
45.1714
 30
0.000000
  70
    32
  0
VERTEX
  8
0
  5
935
 10
22.1573
 20
45.2961
 30
0.000000
  70
    32
  0
VERTEX
  8
0
  5
936
 10
22.0902
 20
45.4171
 30
0.000000
  70
    32
  0
VERTEX
  8
0
  5
937
 10
22.0196
 20
45.5342
 30
0.000000
  70
    32
  0
VERTEX
  8
0
  5
938
 10
21.9458
 20
45.6472
 30
0.000000
  70
    32
  0
VERTEX
  8
0
  5
939
 10
21.8688
 20
45.7559
 30
0.000000
  70
    32
  0
VERTEX
  8
0
  5
93A
 10
21.7888
 20
45.8601
 30
0.000000
  70
    32
  0
VERTEX
  8
0
  5
93B
 10
21.7059
 20
45.9597
 30
0.000000
  70
    32
  0
VERTEX
  8
0
  5
93C
 10
21.6202
 20
46.0545
 30
0.000000
  70
    32
  0
VERTEX
  8
0
  5
93D
 10
21.5319
 20
46.1443
 30
0.000000
  70
    32
  0
VERTEX
  8
0
  5
93E
 10
21.4411
 20
46.2290
 30
0.000000
  70
    32
  0
SEQEND
  8
0
  5
93F
  0
POLYLINE
  5
50
  8
0
 10
20.000000000000281
 20
60.071067811865426
 30
0.0
 66
     1
 70
     8
  0
VERTEX
  8
0
  5
940
 10
20.0000
 20
60.0711
 30
0.000000
  70
    32
  0
VERTEX
  8
0
  5
941
 10
19.7547
 20
60.0626
 30
0.000000
  70
    32
  0
VERTEX
  8
0
  5
942
 10
19.5099
 20
60.0370
 30
0.000000
  70
    32
  0
VERTEX
  8
0
  5
943
 10
19.2663
 20
59.9945
 30
0.000000
  70
    32
  0
VERTEX
  8
0
  5
944
 10
19.0245
 20
59.9352
 30
0.000000
  70
    32
  0
VERTEX
  8
0
  5
945
 10
18.7851
 20
59.8592
 30
0.000000
  70
    32
  0
VERTEX
  8
0
  5
946
 10
18.5486
 20
59.7666
 30
0.000000
  70
    32
  0
VERTEX
  8
0
  5
947
 10
18.3156
 20
59.6577
 30
0.000000
  70
    32
  0
VERTEX
  8
0
  5
948
 10
18.0866
 20
59.5328
 30
0.000000
  70
    32
  0
VERTEX
  8
0
  5
949
 10
17.8622
 20
59.3922
 30
0.000000
  70
    32
  0
VERTEX
  8
0
  5
94A
 10
17.6430
 20
59.2361
 30
0.000000
  70
    32
  0
VERTEX
  8
0
  5
94B
 10
17.4295
 20
59.0651
 30
0.000000
  70
    32
  0
VERTEX
  8
0
  5
94C
 10
17.2221
 20
58.8794
 30
0.000000
  70
    32
  0
VERTEX
  8
0
  5
94D
 10
17.0215
 20
58.6795
 30
0.000000
  70
    32
  0
VERTEX
  8
0
  5
94E
 10
16.8280
 20
58.4660
 30
0.000000
  70
    32
  0
VERTEX
  8
0
  5
94F
 10
16.6422
 20
58.2393
 30
0.000000
  70
    32
  0
VERTEX
  8
0
  5
950
 10
16.4645
 20
58.0000
 30
0.000000
  70
    32
  0
VERTEX
  8
0
  5
951
 10
16.2952
 20
57.7486
 30
0.000000
  70
    32
  0
VERTEX
  8
0
  5
952
 10
16.1349
 20
57.4858
 30
0.000000
  70
    32
  0
VERTEX
  8
0
  5
953
 10
15.9840
 20
57.2122
 30
0.000000
  70
    32
  0
VERTEX
  8
0
  5
954
 10
15.8427
 20
56.9285
 30
0.000000
  70
    32
  0
VERTEX
  8
0
  5
955
 10
15.7114
 20
56.6353
 30
0.000000
  70
    32
  0
VERTEX
  8
0
  5
956
 10
15.5904
 20
56.3333
 30
0.000000
  70
    32
  0
VERTEX
  8
0
  5
957
 10
15.4801
 20
56.0233
 30
0.000000
  70
    32
  0
VERTEX
  8
0
  5
958
 10
15.3806
 20
55.7060
 30
0.000000
  70
    32
  0
VERTEX
  8
0
  5
959
 10
15.2923
 20
55.3822
 30
0.000000
  70
    32
  0
VERTEX
  8
0
  5
95A
 10
15.2153
 20
55.0526
 30
0.000000
  70
    32
  0
VERTEX
  8
0
  5
95B
 10
15.1498
 20
54.7181
 30
0.000000
  70
    32
  0
VERTEX
  8
0
  5
95C
 10
15.0961
 20
54.3795
 30
0.000000
  70
    32
  0
VERTEX
  8
0
  5
95D
 10
15.0541
 20
54.0375
 30
0.000000
  70
    32
  0
VERTEX
  8
0
  5
95E
 10
15.0241
 20
53.6931
 30
0.000000
  70
    32
  0
VERTEX
  8
0
  5
95F
 10
15.0060
 20
53.3470
 30
0.000000
  70
    32
  0
VERTEX
  8
0
  5
960
 10
15.0000
 20
53.0000
 30
0.000000
  70
    32
  0
VERTEX
  8
0
  5
961
 10
15.0060
 20
52.6530
 30
0.000000
  70
    32
  0
VERTEX
  8
0
  5
962
 10
15.0241
 20
52.3069
 30
0.000000
  70
    32
  0
VERTEX
  8
0
  5
963
 10
15.0541
 20
51.9625
 30
0.000000
  70
    32
  0
VERTEX
  8
0
  5
964
 10
15.0961
 20
51.6205
 30
0.000000
  70
    32
  0
VERTEX
  8
0
  5
965
 10
15.1498
 20
51.2819
 30
0.000000
  70
    32
  0
VERTEX
  8
0
  5
966
 10
15.2153
 20
50.9474
 30
0.000000
  70
    32
  0
VERTEX
  8
0
  5
967
 10
15.2923
 20
50.6178
 30
0.000000
  70
    32
  0
VERTEX
  8
0
  5
968
 10
15.3806
 20
50.2940
 30
0.000000
  70
    32
  0
VERTEX
  8
0
  5
969
 10
15.4801
 20
49.9767
 30
0.000000
  70
    32
  0
VERTEX
  8
0
  5
96A
 10
15.5904
 20
49.6667
 30
0.000000
  70
    32
  0
VERTEX
  8
0
  5
96B
 10
15.7114
 20
49.3647
 30
0.000000
  70
    32
  0
VERTEX
  8
0
  5
96C
 10
15.8427
 20
49.0715
 30
0.000000
  70
    32
  0
VERTEX
  8
0
  5
96D
 10
15.9840
 20
48.7878
 30
0.000000
  70
    32
  0
VERTEX
  8
0
  5
96E
 10
16.1349
 20
48.5142
 30
0.000000
  70
    32
  0
VERTEX
  8
0
  5
96F
 10
16.2952
 20
48.2514
 30
0.000000
  70
    32
  0
VERTEX
  8
0
  5
970
 10
16.4645
 20
48.0000
 30
0.000000
  70
    32
  0
VERTEX
  8
0
  5
971
 10
16.6422
 20
47.7607
 30
0.000000
  70
    32
  0
VERTEX
  8
0
  5
972
 10
16.8280
 20
47.5340
 30
0.000000
  70
    32
  0
VERTEX
  8
0
  5
973
 10
17.0215
 20
47.3205
 30
0.000000
  70
    32
  0
VERTEX
  8
0
  5
974
 10
17.2221
 20
47.1206
 30
0.000000
  70
    32
  0
VERTEX
  8
0
  5
975
 10
17.4295
 20
46.9349
 30
0.000000
  70
    32
  0
VERTEX
  8
0
  5
976
 10
17.6430
 20
46.7639
 30
0.000000
  70
    32
  0
VERTEX
  8
0
  5
977
 10
17.8622
 20
46.6078
 30
0.000000
  70
    32
  0
VERTEX
  8
0
  5
978
 10
18.0866
 20
46.4672
 30
0.000000
  70
    32
  0
VERTEX
  8
0
  5
979
 10
18.3156
 20
46.3423
 30
0.000000
  70
    32
  0
VERTEX
  8
0
  5
97A
 10
18.5486
 20
46.2334
 30
0.000000
  70
    32
  0
VERTEX
  8
0
  5
97B
 10
18.7851
 20
46.1408
 30
0.000000
  70
    32
  0
VERTEX
  8
0
  5
97C
 10
19.0245
 20
46.0648
 30
0.000000
  70
    32
  0
VERTEX
  8
0
  5
97D
 10
19.2663
 20
46.0055
 30
0.000000
  70
    32
  0
VERTEX
  8
0
  5
97E
 10
19.5099
 20
45.9630
 30
0.000000
  70
    32
  0
VERTEX
  8
0
  5
97F
 10
19.7547
 20
45.9374
 30
0.000000
  70
    32
  0
VERTEX
  8
0
  5
980
 10
20.0000
 20
45.9289
 30
0.000000
  70
    32
  0
VERTEX
  8
0
  5
981
 10
20.2453
 20
45.9374
 30
0.000000
  70
    32
  0
VERTEX
  8
0
  5
982
 10
20.4901
 20
45.9630
 30
0.000000
  70
    32
  0
VERTEX
  8
0
  5
983
 10
20.7337
 20
46.0055
 30
0.000000
  70
    32
  0
VERTEX
  8
0
  5
984
 10
20.9755
 20
46.0648
 30
0.000000
  70
    32
  0
VERTEX
  8
0
  5
985
 10
21.2149
 20
46.1408
 30
0.000000
  70
    32
  0
VERTEX
  8
0
  5
986
 10
21.4514
 20
46.2334
 30
0.000000
  70
    32
  0
VERTEX
  8
0
  5
987
 10
21.6844
 20
46.3423
 30
0.000000
  70
    32
  0
VERTEX
  8
0
  5
988
 10
21.9134
 20
46.4672
 30
0.000000
  70
    32
  0
VERTEX
  8
0
  5
989
 10
22.1378
 20
46.6078
 30
0.000000
  70
    32
  0
VERTEX
  8
0
  5
98A
 10
22.3570
 20
46.7639
 30
0.000000
  70
    32
  0
VERTEX
  8
0
  5
98B
 10
22.5705
 20
46.9349
 30
0.000000
  70
    32
  0
VERTEX
  8
0
  5
98C
 10
22.7779
 20
47.1206
 30
0.000000
  70
    32
  0
VERTEX
  8
0
  5
98D
 10
22.9785
 20
47.3205
 30
0.000000
  70
    32
  0
VERTEX
  8
0
  5
98E
 10
23.1720
 20
47.5340
 30
0.000000
  70
    32
  0
VERTEX
  8
0
  5
98F
 10
23.3578
 20
47.7607
 30
0.000000
  70
    32
  0
VERTEX
  8
0
  5
990
 10
23.5355
 20
48.0000
 30
0.000000
  70
    32
  0
VERTEX
  8
0
  5
991
 10
23.7048
 20
48.2514
 30
0.000000
  70
    32
  0
VERTEX
  8
0
  5
992
 10
23.8651
 20
48.5142
 30
0.000000
  70
    32
  0
VERTEX
  8
0
  5
993
 10
24.0160
 20
48.7878
 30
0.000000
  70
    32
  0
VERTEX
  8
0
  5
994
 10
24.1573
 20
49.0715
 30
0.000000
  70
    32
  0
VERTEX
  8
0
  5
995
 10
24.2886
 20
49.3647
 30
0.000000
  70
    32
  0
VERTEX
  8
0
  5
996
 10
24.4096
 20
49.6667
 30
0.000000
  70
    32
  0
VERTEX
  8
0
  5
997
 10
24.5199
 20
49.9767
 30
0.000000
  70
    32
  0
VERTEX
  8
0
  5
998
 10
24.6194
 20
50.2940
 30
0.000000
  70
    32
  0
VERTEX
  8
0
  5
999
 10
24.7077
 20
50.6178
 30
0.000000
  70
    32
  0
VERTEX
  8
0
  5
99A
 10
24.7847
 20
50.9474
 30
0.000000
  70
    32
  0
VERTEX
  8
0
  5
99B
 10
24.8502
 20
51.2819
 30
0.000000
  70
    32
  0
VERTEX
  8
0
  5
99C
 10
24.9039
 20
51.6205
 30
0.000000
  70
    32
  0
VERTEX
  8
0
  5
99D
 10
24.9459
 20
51.9625
 30
0.000000
  70
    32
  0
VERTEX
  8
0
  5
99E
 10
24.9759
 20
52.3069
 30
0.000000
  70
    32
  0
VERTEX
  8
0
  5
99F
 10
24.9940
 20
52.6530
 30
0.000000
  70
    32
  0
VERTEX
  8
0
  5
9A0
 10
25.0000
 20
53.0000
 30
0.000000
  70
    32
  0
VERTEX
  8
0
  5
9A1
 10
24.9940
 20
53.3470
 30
0.000000
  70
    32
  0
VERTEX
  8
0
  5
9A2
 10
24.9759
 20
53.6931
 30
0.000000
  70
    32
  0
VERTEX
  8
0
  5
9A3
 10
24.9459
 20
54.0375
 30
0.000000
  70
    32
  0
VERTEX
  8
0
  5
9A4
 10
24.9039
 20
54.3795
 30
0.000000
  70
    32
  0
VERTEX
  8
0
  5
9A5
 10
24.8502
 20
54.7181
 30
0.000000
  70
    32
  0
VERTEX
  8
0
  5
9A6
 10
24.7847
 20
55.0526
 30
0.000000
  70
    32
  0
VERTEX
  8
0
  5
9A7
 10
24.7077
 20
55.3822
 30
0.000000
  70
    32
  0
VERTEX
  8
0
  5
9A8
 10
24.6194
 20
55.7060
 30
0.000000
  70
    32
  0
VERTEX
  8
0
  5
9A9
 10
24.5199
 20
56.0233
 30
0.000000
  70
    32
  0
VERTEX
  8
0
  5
9AA
 10
24.4096
 20
56.3333
 30
0.000000
  70
    32
  0
VERTEX
  8
0
  5
9AB
 10
24.2886
 20
56.6353
 30
0.000000
  70
    32
  0
VERTEX
  8
0
  5
9AC
 10
24.1573
 20
56.9285
 30
0.000000
  70
    32
  0
VERTEX
  8
0
  5
9AD
 10
24.0160
 20
57.2122
 30
0.000000
  70
    32
  0
VERTEX
  8
0
  5
9AE
 10
23.8651
 20
57.4858
 30
0.000000
  70
    32
  0
VERTEX
  8
0
  5
9AF
 10
23.7048
 20
57.7486
 30
0.000000
  70
    32
  0
VERTEX
  8
0
  5
9B0
 10
23.5355
 20
58.0000
 30
0.000000
  70
    32
  0
VERTEX
  8
0
  5
9B1
 10
23.3578
 20
58.2393
 30
0.000000
  70
    32
  0
VERTEX
  8
0
  5
9B2
 10
23.1720
 20
58.4660
 30
0.000000
  70
    32
  0
VERTEX
  8
0
  5
9B3
 10
22.9785
 20
58.6795
 30
0.000000
  70
    32
  0
VERTEX
  8
0
  5
9B4
 10
22.7779
 20
58.8794
 30
0.000000
  70
    32
  0
VERTEX
  8
0
  5
9B5
 10
22.5705
 20
59.0651
 30
0.000000
  70
    32
  0
VERTEX
  8
0
  5
9B6
 10
22.3570
 20
59.2361
 30
0.000000
  70
    32
  0
VERTEX
  8
0
  5
9B7
 10
22.1378
 20
59.3922
 30
0.000000
  70
    32
  0
VERTEX
  8
0
  5
9B8
 10
21.9134
 20
59.5328
 30
0.000000
  70
    32
  0
VERTEX
  8
0
  5
9B9
 10
21.6844
 20
59.6577
 30
0.000000
  70
    32
  0
VERTEX
  8
0
  5
9BA
 10
21.4514
 20
59.7666
 30
0.000000
  70
    32
  0
VERTEX
  8
0
  5
9BB
 10
21.2149
 20
59.8592
 30
0.000000
  70
    32
  0
VERTEX
  8
0
  5
9BC
 10
20.9755
 20
59.9352
 30
0.000000
  70
    32
  0
VERTEX
  8
0
  5
9BD
 10
20.7337
 20
59.9945
 30
0.000000
  70
    32
  0
VERTEX
  8
0
  5
9BE
 10
20.4901
 20
60.0370
 30
0.000000
  70
    32
  0
VERTEX
  8
0
  5
9BF
 10
20.2453
 20
60.0626
 30
0.000000
  70
    32
  0
VERTEX
  8
0
  5
9C0
 10
20.0000
 20
60.0711
 30
0.000000
  70
    32
  0
SEQEND
  8
0
  5
9C1
  0
POLYLINE
  5
51
  8
0
 10
22.500000000000281
 20
47.696699141100893
 30
0.0
 66
     1
 70
     8
  0
VERTEX
  8
0
  5
9C2
 10
22.5000
 20
47.6967
 30
0.000000
  70
    32
  0
VERTEX
  8
0
  5
9C3
 10
22.4970
 20
47.7834
 30
0.000000
  70
    32
  0
VERTEX
  8
0
  5
9C4
 10
22.4880
 20
47.8700
 30
0.000000
  70
    32
  0
VERTEX
  8
0
  5
9C5
 10
22.4729
 20
47.9561
 30
0.000000
  70
    32
  0
VERTEX
  8
0
  5
9C6
 10
22.4520
 20
48.0416
 30
0.000000
  70
    32
  0
VERTEX
  8
0
  5
9C7
 10
22.4251
 20
48.1262
 30
0.000000
  70
    32
  0
VERTEX
  8
0
  5
9C8
 10
22.3924
 20
48.2099
 30
0.000000
  70
    32
  0
VERTEX
  8
0
  5
9C9
 10
22.3539
 20
48.2922
 30
0.000000
  70
    32
  0
VERTEX
  8
0
  5
9CA
 10
22.3097
 20
48.3732
 30
0.000000
  70
    32
  0
VERTEX
  8
0
  5
9CB
 10
22.2600
 20
48.4525
 30
0.000000
  70
    32
  0
VERTEX
  8
0
  5
9CC
 10
22.2048
 20
48.5300
 30
0.000000
  70
    32
  0
VERTEX
  8
0
  5
9CD
 10
22.1443
 20
48.6055
 30
0.000000
  70
    32
  0
VERTEX
  8
0
  5
9CE
 10
22.0787
 20
48.6788
 30
0.000000
  70
    32
  0
VERTEX
  8
0
  5
9CF
 10
22.0080
 20
48.7498
 30
0.000000
  70
    32
  0
VERTEX
  8
0
  5
9D0
 10
21.9325
 20
48.8182
 30
0.000000
  70
    32
  0
VERTEX
  8
0
  5
9D1
 10
21.8524
 20
48.8839
 30
0.000000
  70
    32
  0
VERTEX
  8
0
  5
9D2
 10
21.7678
 20
48.9467
 30
0.000000
  70
    32
  0
VERTEX
  8
0
  5
9D3
 10
21.6789
 20
49.0065
 30
0.000000
  70
    32
  0
VERTEX
  8
0
  5
9D4
 10
21.5860
 20
49.0632
 30
0.000000
  70
    32
  0
VERTEX
  8
0
  5
9D5
 10
21.4892
 20
49.1166
 30
0.000000
  70
    32
  0
VERTEX
  8
0
  5
9D6
 10
21.3889
 20
49.1665
 30
0.000000
  70
    32
  0
VERTEX
  8
0
  5
9D7
 10
21.2853
 20
49.2130
 30
0.000000
  70
    32
  0
VERTEX
  8
0
  5
9D8
 10
21.1785
 20
49.2557
 30
0.000000
  70
    32
  0
VERTEX
  8
0
  5
9D9
 10
21.0689
 20
49.2947
 30
0.000000
  70
    32
  0
VERTEX
  8
0
  5
9DA
 10
20.9567
 20
49.3299
 30
0.000000
  70
    32
  0
VERTEX
  8
0
  5
9DB
 10
20.8422
 20
49.3611
 30
0.000000
  70
    32
  0
VERTEX
  8
0
  5
9DC
 10
20.7257
 20
49.3883
 30
0.000000
  70
    32
  0
VERTEX
  8
0
  5
9DD
 10
20.6075
 20
49.4115
 30
0.000000
  70
    32
  0
VERTEX
  8
0
  5
9DE
 10
20.4877
 20
49.4305
 30
0.000000
  70
    32
  0
VERTEX
  8
0
  5
9DF
 10
20.3668
 20
49.4453
 30
0.000000
  70
    32
  0
VERTEX
  8
0
  5
9E0
 10
20.2450
 20
49.4560
 30
0.000000
  70
    32
  0
VERTEX
  8
0
  5
9E1
 10
20.1227
 20
49.4623
 30
0.000000
  70
    32
  0
VERTEX
  8
0
  5
9E2
 10
20.0000
 20
49.4645
 30
0.000000
  70
    32
  0
VERTEX
  8
0
  5
9E3
 10
19.8773
 20
49.4623
 30
0.000000
  70
    32
  0
VERTEX
  8
0
  5
9E4
 10
19.7550
 20
49.4560
 30
0.000000
  70
    32
  0
VERTEX
  8
0
  5
9E5
 10
19.6332
 20
49.4453
 30
0.000000
  70
    32
  0
VERTEX
  8
0
  5
9E6
 10
19.5123
 20
49.4305
 30
0.000000
  70
    32
  0
VERTEX
  8
0
  5
9E7
 10
19.3925
 20
49.4115
 30
0.000000
  70
    32
  0
VERTEX
  8
0
  5
9E8
 10
19.2743
 20
49.3883
 30
0.000000
  70
    32
  0
VERTEX
  8
0
  5
9E9
 10
19.1578
 20
49.3611
 30
0.000000
  70
    32
  0
VERTEX
  8
0
  5
9EA
 10
19.0433
 20
49.3299
 30
0.000000
  70
    32
  0
VERTEX
  8
0
  5
9EB
 10
18.9311
 20
49.2947
 30
0.000000
  70
    32
  0
VERTEX
  8
0
  5
9EC
 10
18.8215
 20
49.2557
 30
0.000000
  70
    32
  0
VERTEX
  8
0
  5
9ED
 10
18.7147
 20
49.2130
 30
0.000000
  70
    32
  0
VERTEX
  8
0
  5
9EE
 10
18.6111
 20
49.1665
 30
0.000000
  70
    32
  0
VERTEX
  8
0
  5
9EF
 10
18.5108
 20
49.1166
 30
0.000000
  70
    32
  0
VERTEX
  8
0
  5
9F0
 10
18.4140
 20
49.0632
 30
0.000000
  70
    32
  0
VERTEX
  8
0
  5
9F1
 10
18.3211
 20
49.0065
 30
0.000000
  70
    32
  0
VERTEX
  8
0
  5
9F2
 10
18.2322
 20
48.9467
 30
0.000000
  70
    32
  0
VERTEX
  8
0
  5
9F3
 10
18.1476
 20
48.8839
 30
0.000000
  70
    32
  0
VERTEX
  8
0
  5
9F4
 10
18.0675
 20
48.8182
 30
0.000000
  70
    32
  0
VERTEX
  8
0
  5
9F5
 10
17.9920
 20
48.7498
 30
0.000000
  70
    32
  0
VERTEX
  8
0
  5
9F6
 10
17.9213
 20
48.6788
 30
0.000000
  70
    32
  0
VERTEX
  8
0
  5
9F7
 10
17.8557
 20
48.6055
 30
0.000000
  70
    32
  0
VERTEX
  8
0
  5
9F8
 10
17.7952
 20
48.5300
 30
0.000000
  70
    32
  0
VERTEX
  8
0
  5
9F9
 10
17.7400
 20
48.4525
 30
0.000000
  70
    32
  0
VERTEX
  8
0
  5
9FA
 10
17.6903
 20
48.3732
 30
0.000000
  70
    32
  0
VERTEX
  8
0
  5
9FB
 10
17.6461
 20
48.2922
 30
0.000000
  70
    32
  0
VERTEX
  8
0
  5
9FC
 10
17.6076
 20
48.2099
 30
0.000000
  70
    32
  0
VERTEX
  8
0
  5
9FD
 10
17.5749
 20
48.1262
 30
0.000000
  70
    32
  0
VERTEX
  8
0
  5
9FE
 10
17.5480
 20
48.0416
 30
0.000000
  70
    32
  0
VERTEX
  8
0
  5
9FF
 10
17.5271
 20
47.9561
 30
0.000000
  70
    32
  0
VERTEX
  8
0
  5
A00
 10
17.5120
 20
47.8700
 30
0.000000
  70
    32
  0
VERTEX
  8
0
  5
A01
 10
17.5030
 20
47.7834
 30
0.000000
  70
    32
  0
VERTEX
  8
0
  5
A02
 10
17.5000
 20
47.6967
 30
0.000000
  70
    32
  0
VERTEX
  8
0
  5
A03
 10
17.5030
 20
47.6100
 30
0.000000
  70
    32
  0
VERTEX
  8
0
  5
A04
 10
17.5120
 20
47.5234
 30
0.000000
  70
    32
  0
VERTEX
  8
0
  5
A05
 10
17.5271
 20
47.4373
 30
0.000000
  70
    32
  0
VERTEX
  8
0
  5
A06
 10
17.5480
 20
47.3518
 30
0.000000
  70
    32
  0
VERTEX
  8
0
  5
A07
 10
17.5749
 20
47.2672
 30
0.000000
  70
    32
  0
VERTEX
  8
0
  5
A08
 10
17.6076
 20
47.1835
 30
0.000000
  70
    32
  0
VERTEX
  8
0
  5
A09
 10
17.6461
 20
47.1012
 30
0.000000
  70
    32
  0
VERTEX
  8
0
  5
A0A
 10
17.6903
 20
47.0202
 30
0.000000
  70
    32
  0
VERTEX
  8
0
  5
A0B
 10
17.7400
 20
46.9409
 30
0.000000
  70
    32
  0
VERTEX
  8
0
  5
A0C
 10
17.7952
 20
46.8634
 30
0.000000
  70
    32
  0
VERTEX
  8
0
  5
A0D
 10
17.8557
 20
46.7879
 30
0.000000
  70
    32
  0
VERTEX
  8
0
  5
A0E
 10
17.9213
 20
46.7146
 30
0.000000
  70
    32
  0
VERTEX
  8
0
  5
A0F
 10
17.9920
 20
46.6436
 30
0.000000
  70
    32
  0
VERTEX
  8
0
  5
A10
 10
18.0675
 20
46.5752
 30
0.000000
  70
    32
  0
VERTEX
  8
0
  5
A11
 10
18.1476
 20
46.5095
 30
0.000000
  70
    32
  0
VERTEX
  8
0
  5
A12
 10
18.2322
 20
46.4467
 30
0.000000
  70
    32
  0
VERTEX
  8
0
  5
A13
 10
18.3211
 20
46.3869
 30
0.000000
  70
    32
  0
VERTEX
  8
0
  5
A14
 10
18.4140
 20
46.3302
 30
0.000000
  70
    32
  0
VERTEX
  8
0
  5
A15
 10
18.5108
 20
46.2768
 30
0.000000
  70
    32
  0
VERTEX
  8
0
  5
A16
 10
18.6111
 20
46.2269
 30
0.000000
  70
    32
  0
VERTEX
  8
0
  5
A17
 10
18.7147
 20
46.1804
 30
0.000000
  70
    32
  0
VERTEX
  8
0
  5
A18
 10
18.8215
 20
46.1377
 30
0.000000
  70
    32
  0
VERTEX
  8
0
  5
A19
 10
18.9311
 20
46.0987
 30
0.000000
  70
    32
  0
VERTEX
  8
0
  5
A1A
 10
19.0433
 20
46.0635
 30
0.000000
  70
    32
  0
VERTEX
  8
0
  5
A1B
 10
19.1578
 20
46.0323
 30
0.000000
  70
    32
  0
VERTEX
  8
0
  5
A1C
 10
19.2743
 20
46.0051
 30
0.000000
  70
    32
  0
VERTEX
  8
0
  5
A1D
 10
19.3925
 20
45.9819
 30
0.000000
  70
    32
  0
VERTEX
  8
0
  5
A1E
 10
19.5123
 20
45.9629
 30
0.000000
  70
    32
  0
VERTEX
  8
0
  5
A1F
 10
19.6332
 20
45.9481
 30
0.000000
  70
    32
  0
VERTEX
  8
0
  5
A20
 10
19.7550
 20
45.9374
 30
0.000000
  70
    32
  0
VERTEX
  8
0
  5
A21
 10
19.8773
 20
45.9311
 30
0.000000
  70
    32
  0
VERTEX
  8
0
  5
A22
 10
20.0000
 20
45.9289
 30
0.000000
  70
    32
  0
VERTEX
  8
0
  5
A23
 10
20.1227
 20
45.9311
 30
0.000000
  70
    32
  0
VERTEX
  8
0
  5
A24
 10
20.2450
 20
45.9374
 30
0.000000
  70
    32
  0
VERTEX
  8
0
  5
A25
 10
20.3668
 20
45.9481
 30
0.000000
  70
    32
  0
VERTEX
  8
0
  5
A26
 10
20.4877
 20
45.9629
 30
0.000000
  70
    32
  0
VERTEX
  8
0
  5
A27
 10
20.6075
 20
45.9819
 30
0.000000
  70
    32
  0
VERTEX
  8
0
  5
A28
 10
20.7257
 20
46.0051
 30
0.000000
  70
    32
  0
VERTEX
  8
0
  5
A29
 10
20.8422
 20
46.0323
 30
0.000000
  70
    32
  0
VERTEX
  8
0
  5
A2A
 10
20.9567
 20
46.0635
 30
0.000000
  70
    32
  0
VERTEX
  8
0
  5
A2B
 10
21.0689
 20
46.0987
 30
0.000000
  70
    32
  0
VERTEX
  8
0
  5
A2C
 10
21.1785
 20
46.1377
 30
0.000000
  70
    32
  0
VERTEX
  8
0
  5
A2D
 10
21.2853
 20
46.1804
 30
0.000000
  70
    32
  0
VERTEX
  8
0
  5
A2E
 10
21.3889
 20
46.2269
 30
0.000000
  70
    32
  0
VERTEX
  8
0
  5
A2F
 10
21.4892
 20
46.2768
 30
0.000000
  70
    32
  0
VERTEX
  8
0
  5
A30
 10
21.5860
 20
46.3302
 30
0.000000
  70
    32
  0
VERTEX
  8
0
  5
A31
 10
21.6789
 20
46.3869
 30
0.000000
  70
    32
  0
VERTEX
  8
0
  5
A32
 10
21.7678
 20
46.4467
 30
0.000000
  70
    32
  0
VERTEX
  8
0
  5
A33
 10
21.8524
 20
46.5095
 30
0.000000
  70
    32
  0
VERTEX
  8
0
  5
A34
 10
21.9325
 20
46.5752
 30
0.000000
  70
    32
  0
VERTEX
  8
0
  5
A35
 10
22.0080
 20
46.6436
 30
0.000000
  70
    32
  0
VERTEX
  8
0
  5
A36
 10
22.0787
 20
46.7146
 30
0.000000
  70
    32
  0
VERTEX
  8
0
  5
A37
 10
22.1443
 20
46.7879
 30
0.000000
  70
    32
  0
VERTEX
  8
0
  5
A38
 10
22.2048
 20
46.8634
 30
0.000000
  70
    32
  0
VERTEX
  8
0
  5
A39
 10
22.2600
 20
46.9409
 30
0.000000
  70
    32
  0
VERTEX
  8
0
  5
A3A
 10
22.3097
 20
47.0202
 30
0.000000
  70
    32
  0
VERTEX
  8
0
  5
A3B
 10
22.3539
 20
47.1012
 30
0.000000
  70
    32
  0
VERTEX
  8
0
  5
A3C
 10
22.3924
 20
47.1835
 30
0.000000
  70
    32
  0
VERTEX
  8
0
  5
A3D
 10
22.4251
 20
47.2672
 30
0.000000
  70
    32
  0
VERTEX
  8
0
  5
A3E
 10
22.4520
 20
47.3518
 30
0.000000
  70
    32
  0
VERTEX
  8
0
  5
A3F
 10
22.4729
 20
47.4373
 30
0.000000
  70
    32
  0
VERTEX
  8
0
  5
A40
 10
22.4880
 20
47.5234
 30
0.000000
  70
    32
  0
VERTEX
  8
0
  5
A41
 10
22.4970
 20
47.6100
 30
0.000000
  70
    32
  0
VERTEX
  8
0
  5
A42
 10
22.5000
 20
47.6967
 30
0.000000
  70
    32
  0
SEQEND
  8
0
  5
A43
  0
POLYLINE
  5
52
  8
0
 10
24.714045207910484
 20
50.64297739604482
 30
0.0
 66
     1
 70
     8
  0
VERTEX
  8
0
  5
A44
 10
24.7140
 20
50.6430
 30
0.000000
  70
    32
  0
VERTEX
  8
0
  5
A45
 10
24.6811
 20
50.7069
 30
0.000000
  70
    32
  0
VERTEX
  8
0
  5
A46
 10
24.6465
 20
50.7703
 30
0.000000
  70
    32
  0
VERTEX
  8
0
  5
A47
 10
24.6101
 20
50.8332
 30
0.000000
  70
    32
  0
VERTEX
  8
0
  5
A48
 10
24.5720
 20
50.8957
 30
0.000000
  70
    32
  0
VERTEX
  8
0
  5
A49
 10
24.5322
 20
50.9576
 30
0.000000
  70
    32
  0
VERTEX
  8
0
  5
A4A
 10
24.4908
 20
51.0190
 30
0.000000
  70
    32
  0
VERTEX
  8
0
  5
A4B
 10
24.4477
 20
51.0797
 30
0.000000
  70
    32
  0
VERTEX
  8
0
  5
A4C
 10
24.4029
 20
51.1399
 30
0.000000
  70
    32
  0
VERTEX
  8
0
  5
A4D
 10
24.3565
 20
51.1995
 30
0.000000
  70
    32
  0
VERTEX
  8
0
  5
A4E
 10
24.3085
 20
51.2584
 30
0.000000
  70
    32
  0
VERTEX
  8
0
  5
A4F
 10
24.2589
 20
51.3167
 30
0.000000
  70
    32
  0
VERTEX
  8
0
  5
A50
 10
24.2078
 20
51.3743
 30
0.000000
  70
    32
  0
VERTEX
  8
0
  5
A51
 10
24.1550
 20
51.4311
 30
0.000000
  70
    32
  0
VERTEX
  8
0
  5
A52
 10
24.1008
 20
51.4873
 30
0.000000
  70
    32
  0
VERTEX
  8
0
  5
A53
 10
24.0450
 20
51.5427
 30
0.000000
  70
    32
  0
VERTEX
  8
0
  5
A54
 10
23.9877
 20
51.5973
 30
0.000000
  70
    32
  0
VERTEX
  8
0
  5
A55
 10
23.9290
 20
51.6511
 30
0.000000
  70
    32
  0
VERTEX
  8
0
  5
A56
 10
23.8688
 20
51.7042
 30
0.000000
  70
    32
  0
VERTEX
  8
0
  5
A57
 10
23.8072
 20
51.7564
 30
0.000000
  70
    32
  0
VERTEX
  8
0
  5
A58
 10
23.7441
 20
51.8077
 30
0.000000
  70
    32
  0
VERTEX
  8
0
  5
A59
 10
23.6797
 20
51.8582
 30
0.000000
  70
    32
  0
VERTEX
  8
0
  5
A5A
 10
23.6139
 20
51.9078
 30
0.000000
  70
    32
  0
VERTEX
  8
0
  5
A5B
 10
23.5468
 20
51.9565
 30
0.000000
  70
    32
  0
VERTEX
  8
0
  5
A5C
 10
23.4783
 20
52.0043
 30
0.000000
  70
    32
  0
VERTEX
  8
0
  5
A5D
 10
23.4086
 20
52.0511
 30
0.000000
  70
    32
  0
VERTEX
  8
0
  5
A5E
 10
23.3376
 20
52.0970
 30
0.000000
  70
    32
  0
VERTEX
  8
0
  5
A5F
 10
23.2654
 20
52.1419
 30
0.000000
  70
    32
  0
VERTEX
  8
0
  5
A60
 10
23.1920
 20
52.1858
 30
0.000000
  70
    32
  0
VERTEX
  8
0
  5
A61
 10
23.1174
 20
52.2287
 30
0.000000
  70
    32
  0
VERTEX
  8
0
  5
A62
 10
23.0416
 20
52.2706
 30
0.000000
  70
    32
  0
VERTEX
  8
0
  5
A63
 10
22.9647
 20
52.3114
 30
0.000000
  70
    32
  0
VERTEX
  8
0
  5
A64
 10
22.8868
 20
52.3512
 30
0.000000
  70
    32
  0
VERTEX
  8
0
  5
A65
 10
22.8077
 20
52.3899
 30
0.000000
  70
    32
  0
VERTEX
  8
0
  5
A66
 10
22.7276
 20
52.4276
 30
0.000000
  70
    32
  0
VERTEX
  8
0
  5
A67
 10
22.6465
 20
52.4641
 30
0.000000
  70
    32
  0
VERTEX
  8
0
  5
A68
 10
22.5644
 20
52.4996
 30
0.000000
  70
    32
  0
VERTEX
  8
0
  5
A69
 10
22.4814
 20
52.5339
 30
0.000000
  70
    32
  0
VERTEX
  8
0
  5
A6A
 10
22.3975
 20
52.5671
 30
0.000000
  70
    32
  0
VERTEX
  8
0
  5
A6B
 10
22.3126
 20
52.5991
 30
0.000000
  70
    32
  0
VERTEX
  8
0
  5
A6C
 10
22.2269
 20
52.6300
 30
0.000000
  70
    32
  0
VERTEX
  8
0
  5
A6D
 10
22.1404
 20
52.6597
 30
0.000000
  70
    32
  0
VERTEX
  8
0
  5
A6E
 10
22.0531
 20
52.6882
 30
0.000000
  70
    32
  0
VERTEX
  8
0
  5
A6F
 10
21.9651
 20
52.7155
 30
0.000000
  70
    32
  0
VERTEX
  8
0
  5
A70
 10
21.8763
 20
52.7416
 30
0.000000
  70
    32
  0
VERTEX
  8
0
  5
A71
 10
21.7868
 20
52.7665
 30
0.000000
  70
    32
  0
VERTEX
  8
0
  5
A72
 10
21.6967
 20
52.7902
 30
0.000000
  70
    32
  0
VERTEX
  8
0
  5
A73
 10
21.6059
 20
52.8127
 30
0.000000
  70
    32
  0
VERTEX
  8
0
  5
A74
 10
21.5145
 20
52.8339
 30
0.000000
  70
    32
  0
VERTEX
  8
0
  5
A75
 10
21.4226
 20
52.8539
 30
0.000000
  70
    32
  0
VERTEX
  8
0
  5
A76
 10
21.3302
 20
52.8726
 30
0.000000
  70
    32
  0
VERTEX
  8
0
  5
A77
 10
21.2372
 20
52.8901
 30
0.000000
  70
    32
  0
VERTEX
  8
0
  5
A78
 10
21.1438
 20
52.9062
 30
0.000000
  70
    32
  0
VERTEX
  8
0
  5
A79
 10
21.0500
 20
52.9212
 30
0.000000
  70
    32
  0
VERTEX
  8
0
  5
A7A
 10
20.9558
 20
52.9348
 30
0.000000
  70
    32
  0
VERTEX
  8
0
  5
A7B
 10
20.8612
 20
52.9472
 30
0.000000
  70
    32
  0
VERTEX
  8
0
  5
A7C
 10
20.7663
 20
52.9582
 30
0.000000
  70
    32
  0
VERTEX
  8
0
  5
A7D
 10
20.6711
 20
52.9680
 30
0.000000
  70
    32
  0
VERTEX
  8
0
  5
A7E
 10
20.5757
 20
52.9765
 30
0.000000
  70
    32
  0
VERTEX
  8
0
  5
A7F
 10
20.4801
 20
52.9837
 30
0.000000
  70
    32
  0
VERTEX
  8
0
  5
A80
 10
20.3843
 20
52.9895
 30
0.000000
  70
    32
  0
VERTEX
  8
0
  5
A81
 10
20.2883
 20
52.9941
 30
0.000000
  70
    32
  0
VERTEX
  8
0
  5
A82
 10
20.1923
 20
52.9974
 30
0.000000
  70
    32
  0
VERTEX
  8
0
  5
A83
 10
20.0962
 20
52.9993
 30
0.000000
  70
    32
  0
VERTEX
  8
0
  5
A84
 10
20.0000
 20
53.0000
 30
0.000000
  70
    32
  0
VERTEX
  8
0
  5
A85
 10
19.9038
 20
52.9993
 30
0.000000
  70
    32
  0
VERTEX
  8
0
  5
A86
 10
19.8077
 20
52.9974
 30
0.000000
  70
    32
  0
VERTEX
  8
0
  5
A87
 10
19.7117
 20
52.9941
 30
0.000000
  70
    32
  0
VERTEX
  8
0
  5
A88
 10
19.6157
 20
52.9895
 30
0.000000
  70
    32
  0
VERTEX
  8
0
  5
A89
 10
19.5199
 20
52.9837
 30
0.000000
  70
    32
  0
VERTEX
  8
0
  5
A8A
 10
19.4243
 20
52.9765
 30
0.000000
  70
    32
  0
VERTEX
  8
0
  5
A8B
 10
19.3289
 20
52.9680
 30
0.000000
  70
    32
  0
VERTEX
  8
0
  5
A8C
 10
19.2337
 20
52.9582
 30
0.000000
  70
    32
  0
VERTEX
  8
0
  5
A8D
 10
19.1388
 20
52.9472
 30
0.000000
  70
    32
  0
VERTEX
  8
0
  5
A8E
 10
19.0442
 20
52.9348
 30
0.000000
  70
    32
  0
VERTEX
  8
0
  5
A8F
 10
18.9500
 20
52.9212
 30
0.000000
  70
    32
  0
VERTEX
  8
0
  5
A90
 10
18.8562
 20
52.9062
 30
0.000000
  70
    32
  0
VERTEX
  8
0
  5
A91
 10
18.7628
 20
52.8901
 30
0.000000
  70
    32
  0
VERTEX
  8
0
  5
A92
 10
18.6698
 20
52.8726
 30
0.000000
  70
    32
  0
VERTEX
  8
0
  5
A93
 10
18.5774
 20
52.8539
 30
0.000000
  70
    32
  0
VERTEX
  8
0
  5
A94
 10
18.4855
 20
52.8339
 30
0.000000
  70
    32
  0
VERTEX
  8
0
  5
A95
 10
18.3941
 20
52.8127
 30
0.000000
  70
    32
  0
VERTEX
  8
0
  5
A96
 10
18.3033
 20
52.7902
 30
0.000000
  70
    32
  0
VERTEX
  8
0
  5
A97
 10
18.2132
 20
52.7665
 30
0.000000
  70
    32
  0
VERTEX
  8
0
  5
A98
 10
18.1237
 20
52.7416
 30
0.000000
  70
    32
  0
VERTEX
  8
0
  5
A99
 10
18.0349
 20
52.7155
 30
0.000000
  70
    32
  0
VERTEX
  8
0
  5
A9A
 10
17.9469
 20
52.6882
 30
0.000000
  70
    32
  0
VERTEX
  8
0
  5
A9B
 10
17.8596
 20
52.6597
 30
0.000000
  70
    32
  0
VERTEX
  8
0
  5
A9C
 10
17.7731
 20
52.6300
 30
0.000000
  70
    32
  0
VERTEX
  8
0
  5
A9D
 10
17.6874
 20
52.5991
 30
0.000000
  70
    32
  0
VERTEX
  8
0
  5
A9E
 10
17.6025
 20
52.5671
 30
0.000000
  70
    32
  0
VERTEX
  8
0
  5
A9F
 10
17.5186
 20
52.5339
 30
0.000000
  70
    32
  0
VERTEX
  8
0
  5
AA0
 10
17.4356
 20
52.4996
 30
0.000000
  70
    32
  0
VERTEX
  8
0
  5
AA1
 10
17.3535
 20
52.4641
 30
0.000000
  70
    32
  0
VERTEX
  8
0
  5
AA2
 10
17.2724
 20
52.4276
 30
0.000000
  70
    32
  0
VERTEX
  8
0
  5
AA3
 10
17.1923
 20
52.3899
 30
0.000000
  70
    32
  0
VERTEX
  8
0
  5
AA4
 10
17.1132
 20
52.3512
 30
0.000000
  70
    32
  0
VERTEX
  8
0
  5
AA5
 10
17.0353
 20
52.3114
 30
0.000000
  70
    32
  0
VERTEX
  8
0
  5
AA6
 10
16.9584
 20
52.2706
 30
0.000000
  70
    32
  0
VERTEX
  8
0
  5
AA7
 10
16.8826
 20
52.2287
 30
0.000000
  70
    32
  0
VERTEX
  8
0
  5
AA8
 10
16.8080
 20
52.1858
 30
0.000000
  70
    32
  0
VERTEX
  8
0
  5
AA9
 10
16.7346
 20
52.1419
 30
0.000000
  70
    32
  0
VERTEX
  8
0
  5
AAA
 10
16.6624
 20
52.0970
 30
0.000000
  70
    32
  0
VERTEX
  8
0
  5
AAB
 10
16.5914
 20
52.0511
 30
0.000000
  70
    32
  0
VERTEX
  8
0
  5
AAC
 10
16.5217
 20
52.0043
 30
0.000000
  70
    32
  0
VERTEX
  8
0
  5
AAD
 10
16.4532
 20
51.9565
 30
0.000000
  70
    32
  0
VERTEX
  8
0
  5
AAE
 10
16.3861
 20
51.9078
 30
0.000000
  70
    32
  0
VERTEX
  8
0
  5
AAF
 10
16.3203
 20
51.8582
 30
0.000000
  70
    32
  0
VERTEX
  8
0
  5
AB0
 10
16.2559
 20
51.8077
 30
0.000000
  70
    32
  0
VERTEX
  8
0
  5
AB1
 10
16.1928
 20
51.7564
 30
0.000000
  70
    32
  0
VERTEX
  8
0
  5
AB2
 10
16.1312
 20
51.7042
 30
0.000000
  70
    32
  0
VERTEX
  8
0
  5
AB3
 10
16.0710
 20
51.6511
 30
0.000000
  70
    32
  0
VERTEX
  8
0
  5
AB4
 10
16.0123
 20
51.5973
 30
0.000000
  70
    32
  0
VERTEX
  8
0
  5
AB5
 10
15.9550
 20
51.5427
 30
0.000000
  70
    32
  0
VERTEX
  8
0
  5
AB6
 10
15.8992
 20
51.4873
 30
0.000000
  70
    32
  0
VERTEX
  8
0
  5
AB7
 10
15.8450
 20
51.4311
 30
0.000000
  70
    32
  0
VERTEX
  8
0
  5
AB8
 10
15.7922
 20
51.3743
 30
0.000000
  70
    32
  0
VERTEX
  8
0
  5
AB9
 10
15.7411
 20
51.3167
 30
0.000000
  70
    32
  0
VERTEX
  8
0
  5
ABA
 10
15.6915
 20
51.2584
 30
0.000000
  70
    32
  0
VERTEX
  8
0
  5
ABB
 10
15.6435
 20
51.1995
 30
0.000000
  70
    32
  0
VERTEX
  8
0
  5
ABC
 10
15.5971
 20
51.1399
 30
0.000000
  70
    32
  0
VERTEX
  8
0
  5
ABD
 10
15.5523
 20
51.0797
 30
0.000000
  70
    32
  0
VERTEX
  8
0
  5
ABE
 10
15.5092
 20
51.0190
 30
0.000000
  70
    32
  0
VERTEX
  8
0
  5
ABF
 10
15.4678
 20
50.9576
 30
0.000000
  70
    32
  0
VERTEX
  8
0
  5
AC0
 10
15.4280
 20
50.8957
 30
0.000000
  70
    32
  0
VERTEX
  8
0
  5
AC1
 10
15.3899
 20
50.8332
 30
0.000000
  70
    32
  0
VERTEX
  8
0
  5
AC2
 10
15.3535
 20
50.7703
 30
0.000000
  70
    32
  0
VERTEX
  8
0
  5
AC3
 10
15.3189
 20
50.7069
 30
0.000000
  70
    32
  0
VERTEX
  8
0
  5
AC4
 10
15.2860
 20
50.6430
 30
0.000000
  70
    32
  0
SEQEND
  8
0
  5
AC5
  0
POLYLINE
  5
53
  8
0
 10
24.714045207910484
 20
85.642977396044827
 30
0.0
 66
     1
 70
     8
  0
VERTEX
  8
0
  5
AC6
 10
24.7140
 20
85.6430
 30
0.000000
  70
    32
  0
VERTEX
  8
0
  5
AC7
 10
24.6811
 20
85.7069
 30
0.000000
  70
    32
  0
VERTEX
  8
0
  5
AC8
 10
24.6465
 20
85.7703
 30
0.000000
  70
    32
  0
VERTEX
  8
0
  5
AC9
 10
24.6101
 20
85.8332
 30
0.000000
  70
    32
  0
VERTEX
  8
0
  5
ACA
 10
24.5720
 20
85.8957
 30
0.000000
  70
    32
  0
VERTEX
  8
0
  5
ACB
 10
24.5322
 20
85.9576
 30
0.000000
  70
    32
  0
VERTEX
  8
0
  5
ACC
 10
24.4908
 20
86.0190
 30
0.000000
  70
    32
  0
VERTEX
  8
0
  5
ACD
 10
24.4477
 20
86.0797
 30
0.000000
  70
    32
  0
VERTEX
  8
0
  5
ACE
 10
24.4029
 20
86.1399
 30
0.000000
  70
    32
  0
VERTEX
  8
0
  5
ACF
 10
24.3565
 20
86.1995
 30
0.000000
  70
    32
  0
VERTEX
  8
0
  5
AD0
 10
24.3085
 20
86.2584
 30
0.000000
  70
    32
  0
VERTEX
  8
0
  5
AD1
 10
24.2589
 20
86.3167
 30
0.000000
  70
    32
  0
VERTEX
  8
0
  5
AD2
 10
24.2078
 20
86.3743
 30
0.000000
  70
    32
  0
VERTEX
  8
0
  5
AD3
 10
24.1550
 20
86.4311
 30
0.000000
  70
    32
  0
VERTEX
  8
0
  5
AD4
 10
24.1008
 20
86.4873
 30
0.000000
  70
    32
  0
VERTEX
  8
0
  5
AD5
 10
24.0450
 20
86.5427
 30
0.000000
  70
    32
  0
VERTEX
  8
0
  5
AD6
 10
23.9877
 20
86.5973
 30
0.000000
  70
    32
  0
VERTEX
  8
0
  5
AD7
 10
23.9290
 20
86.6511
 30
0.000000
  70
    32
  0
VERTEX
  8
0
  5
AD8
 10
23.8688
 20
86.7042
 30
0.000000
  70
    32
  0
VERTEX
  8
0
  5
AD9
 10
23.8072
 20
86.7564
 30
0.000000
  70
    32
  0
VERTEX
  8
0
  5
ADA
 10
23.7441
 20
86.8077
 30
0.000000
  70
    32
  0
VERTEX
  8
0
  5
ADB
 10
23.6797
 20
86.8582
 30
0.000000
  70
    32
  0
VERTEX
  8
0
  5
ADC
 10
23.6139
 20
86.9078
 30
0.000000
  70
    32
  0
VERTEX
  8
0
  5
ADD
 10
23.5468
 20
86.9565
 30
0.000000
  70
    32
  0
VERTEX
  8
0
  5
ADE
 10
23.4783
 20
87.0043
 30
0.000000
  70
    32
  0
VERTEX
  8
0
  5
ADF
 10
23.4086
 20
87.0511
 30
0.000000
  70
    32
  0
VERTEX
  8
0
  5
AE0
 10
23.3376
 20
87.0970
 30
0.000000
  70
    32
  0
VERTEX
  8
0
  5
AE1
 10
23.2654
 20
87.1419
 30
0.000000
  70
    32
  0
VERTEX
  8
0
  5
AE2
 10
23.1920
 20
87.1858
 30
0.000000
  70
    32
  0
VERTEX
  8
0
  5
AE3
 10
23.1174
 20
87.2287
 30
0.000000
  70
    32
  0
VERTEX
  8
0
  5
AE4
 10
23.0416
 20
87.2706
 30
0.000000
  70
    32
  0
VERTEX
  8
0
  5
AE5
 10
22.9647
 20
87.3114
 30
0.000000
  70
    32
  0
VERTEX
  8
0
  5
AE6
 10
22.8868
 20
87.3512
 30
0.000000
  70
    32
  0
VERTEX
  8
0
  5
AE7
 10
22.8077
 20
87.3899
 30
0.000000
  70
    32
  0
VERTEX
  8
0
  5
AE8
 10
22.7276
 20
87.4276
 30
0.000000
  70
    32
  0
VERTEX
  8
0
  5
AE9
 10
22.6465
 20
87.4641
 30
0.000000
  70
    32
  0
VERTEX
  8
0
  5
AEA
 10
22.5644
 20
87.4996
 30
0.000000
  70
    32
  0
VERTEX
  8
0
  5
AEB
 10
22.4814
 20
87.5339
 30
0.000000
  70
    32
  0
VERTEX
  8
0
  5
AEC
 10
22.3975
 20
87.5671
 30
0.000000
  70
    32
  0
VERTEX
  8
0
  5
AED
 10
22.3126
 20
87.5991
 30
0.000000
  70
    32
  0
VERTEX
  8
0
  5
AEE
 10
22.2269
 20
87.6300
 30
0.000000
  70
    32
  0
VERTEX
  8
0
  5
AEF
 10
22.1404
 20
87.6597
 30
0.000000
  70
    32
  0
VERTEX
  8
0
  5
AF0
 10
22.0531
 20
87.6882
 30
0.000000
  70
    32
  0
VERTEX
  8
0
  5
AF1
 10
21.9651
 20
87.7155
 30
0.000000
  70
    32
  0
VERTEX
  8
0
  5
AF2
 10
21.8763
 20
87.7416
 30
0.000000
  70
    32
  0
VERTEX
  8
0
  5
AF3
 10
21.7868
 20
87.7665
 30
0.000000
  70
    32
  0
VERTEX
  8
0
  5
AF4
 10
21.6967
 20
87.7902
 30
0.000000
  70
    32
  0
VERTEX
  8
0
  5
AF5
 10
21.6059
 20
87.8127
 30
0.000000
  70
    32
  0
VERTEX
  8
0
  5
AF6
 10
21.5145
 20
87.8339
 30
0.000000
  70
    32
  0
VERTEX
  8
0
  5
AF7
 10
21.4226
 20
87.8539
 30
0.000000
  70
    32
  0
VERTEX
  8
0
  5
AF8
 10
21.3302
 20
87.8726
 30
0.000000
  70
    32
  0
VERTEX
  8
0
  5
AF9
 10
21.2372
 20
87.8901
 30
0.000000
  70
    32
  0
VERTEX
  8
0
  5
AFA
 10
21.1438
 20
87.9062
 30
0.000000
  70
    32
  0
VERTEX
  8
0
  5
AFB
 10
21.0500
 20
87.9212
 30
0.000000
  70
    32
  0
VERTEX
  8
0
  5
AFC
 10
20.9558
 20
87.9348
 30
0.000000
  70
    32
  0
VERTEX
  8
0
  5
AFD
 10
20.8612
 20
87.9472
 30
0.000000
  70
    32
  0
VERTEX
  8
0
  5
AFE
 10
20.7663
 20
87.9582
 30
0.000000
  70
    32
  0
VERTEX
  8
0
  5
AFF
 10
20.6711
 20
87.9680
 30
0.000000
  70
    32
  0
VERTEX
  8
0
  5
B00
 10
20.5757
 20
87.9765
 30
0.000000
  70
    32
  0
VERTEX
  8
0
  5
B01
 10
20.4801
 20
87.9837
 30
0.000000
  70
    32
  0
VERTEX
  8
0
  5
B02
 10
20.3843
 20
87.9895
 30
0.000000
  70
    32
  0
VERTEX
  8
0
  5
B03
 10
20.2883
 20
87.9941
 30
0.000000
  70
    32
  0
VERTEX
  8
0
  5
B04
 10
20.1923
 20
87.9974
 30
0.000000
  70
    32
  0
VERTEX
  8
0
  5
B05
 10
20.0962
 20
87.9993
 30
0.000000
  70
    32
  0
VERTEX
  8
0
  5
B06
 10
20.0000
 20
88.0000
 30
0.000000
  70
    32
  0
VERTEX
  8
0
  5
B07
 10
19.9038
 20
87.9993
 30
0.000000
  70
    32
  0
VERTEX
  8
0
  5
B08
 10
19.8077
 20
87.9974
 30
0.000000
  70
    32
  0
VERTEX
  8
0
  5
B09
 10
19.7117
 20
87.9941
 30
0.000000
  70
    32
  0
VERTEX
  8
0
  5
B0A
 10
19.6157
 20
87.9895
 30
0.000000
  70
    32
  0
VERTEX
  8
0
  5
B0B
 10
19.5199
 20
87.9837
 30
0.000000
  70
    32
  0
VERTEX
  8
0
  5
B0C
 10
19.4243
 20
87.9765
 30
0.000000
  70
    32
  0
VERTEX
  8
0
  5
B0D
 10
19.3289
 20
87.9680
 30
0.000000
  70
    32
  0
VERTEX
  8
0
  5
B0E
 10
19.2337
 20
87.9582
 30
0.000000
  70
    32
  0
VERTEX
  8
0
  5
B0F
 10
19.1388
 20
87.9472
 30
0.000000
  70
    32
  0
VERTEX
  8
0
  5
B10
 10
19.0442
 20
87.9348
 30
0.000000
  70
    32
  0
VERTEX
  8
0
  5
B11
 10
18.9500
 20
87.9212
 30
0.000000
  70
    32
  0
VERTEX
  8
0
  5
B12
 10
18.8562
 20
87.9062
 30
0.000000
  70
    32
  0
VERTEX
  8
0
  5
B13
 10
18.7628
 20
87.8901
 30
0.000000
  70
    32
  0
VERTEX
  8
0
  5
B14
 10
18.6698
 20
87.8726
 30
0.000000
  70
    32
  0
VERTEX
  8
0
  5
B15
 10
18.5774
 20
87.8539
 30
0.000000
  70
    32
  0
VERTEX
  8
0
  5
B16
 10
18.4855
 20
87.8339
 30
0.000000
  70
    32
  0
VERTEX
  8
0
  5
B17
 10
18.3941
 20
87.8127
 30
0.000000
  70
    32
  0
VERTEX
  8
0
  5
B18
 10
18.3033
 20
87.7902
 30
0.000000
  70
    32
  0
VERTEX
  8
0
  5
B19
 10
18.2132
 20
87.7665
 30
0.000000
  70
    32
  0
VERTEX
  8
0
  5
B1A
 10
18.1237
 20
87.7416
 30
0.000000
  70
    32
  0
VERTEX
  8
0
  5
B1B
 10
18.0349
 20
87.7155
 30
0.000000
  70
    32
  0
VERTEX
  8
0
  5
B1C
 10
17.9469
 20
87.6882
 30
0.000000
  70
    32
  0
VERTEX
  8
0
  5
B1D
 10
17.8596
 20
87.6597
 30
0.000000
  70
    32
  0
VERTEX
  8
0
  5
B1E
 10
17.7731
 20
87.6300
 30
0.000000
  70
    32
  0
VERTEX
  8
0
  5
B1F
 10
17.6874
 20
87.5991
 30
0.000000
  70
    32
  0
VERTEX
  8
0
  5
B20
 10
17.6025
 20
87.5671
 30
0.000000
  70
    32
  0
VERTEX
  8
0
  5
B21
 10
17.5186
 20
87.5339
 30
0.000000
  70
    32
  0
VERTEX
  8
0
  5
B22
 10
17.4356
 20
87.4996
 30
0.000000
  70
    32
  0
VERTEX
  8
0
  5
B23
 10
17.3535
 20
87.4641
 30
0.000000
  70
    32
  0
VERTEX
  8
0
  5
B24
 10
17.2724
 20
87.4276
 30
0.000000
  70
    32
  0
VERTEX
  8
0
  5
B25
 10
17.1923
 20
87.3899
 30
0.000000
  70
    32
  0
VERTEX
  8
0
  5
B26
 10
17.1132
 20
87.3512
 30
0.000000
  70
    32
  0
VERTEX
  8
0
  5
B27
 10
17.0353
 20
87.3114
 30
0.000000
  70
    32
  0
VERTEX
  8
0
  5
B28
 10
16.9584
 20
87.2706
 30
0.000000
  70
    32
  0
VERTEX
  8
0
  5
B29
 10
16.8826
 20
87.2287
 30
0.000000
  70
    32
  0
VERTEX
  8
0
  5
B2A
 10
16.8080
 20
87.1858
 30
0.000000
  70
    32
  0
VERTEX
  8
0
  5
B2B
 10
16.7346
 20
87.1419
 30
0.000000
  70
    32
  0
VERTEX
  8
0
  5
B2C
 10
16.6624
 20
87.0970
 30
0.000000
  70
    32
  0
VERTEX
  8
0
  5
B2D
 10
16.5914
 20
87.0511
 30
0.000000
  70
    32
  0
VERTEX
  8
0
  5
B2E
 10
16.5217
 20
87.0043
 30
0.000000
  70
    32
  0
VERTEX
  8
0
  5
B2F
 10
16.4532
 20
86.9565
 30
0.000000
  70
    32
  0
VERTEX
  8
0
  5
B30
 10
16.3861
 20
86.9078
 30
0.000000
  70
    32
  0
VERTEX
  8
0
  5
B31
 10
16.3203
 20
86.8582
 30
0.000000
  70
    32
  0
VERTEX
  8
0
  5
B32
 10
16.2559
 20
86.8077
 30
0.000000
  70
    32
  0
VERTEX
  8
0
  5
B33
 10
16.1928
 20
86.7564
 30
0.000000
  70
    32
  0
VERTEX
  8
0
  5
B34
 10
16.1312
 20
86.7042
 30
0.000000
  70
    32
  0
VERTEX
  8
0
  5
B35
 10
16.0710
 20
86.6511
 30
0.000000
  70
    32
  0
VERTEX
  8
0
  5
B36
 10
16.0123
 20
86.5973
 30
0.000000
  70
    32
  0
VERTEX
  8
0
  5
B37
 10
15.9550
 20
86.5427
 30
0.000000
  70
    32
  0
VERTEX
  8
0
  5
B38
 10
15.8992
 20
86.4873
 30
0.000000
  70
    32
  0
VERTEX
  8
0
  5
B39
 10
15.8450
 20
86.4311
 30
0.000000
  70
    32
  0
VERTEX
  8
0
  5
B3A
 10
15.7922
 20
86.3743
 30
0.000000
  70
    32
  0
VERTEX
  8
0
  5
B3B
 10
15.7411
 20
86.3167
 30
0.000000
  70
    32
  0
VERTEX
  8
0
  5
B3C
 10
15.6915
 20
86.2584
 30
0.000000
  70
    32
  0
VERTEX
  8
0
  5
B3D
 10
15.6435
 20
86.1995
 30
0.000000
  70
    32
  0
VERTEX
  8
0
  5
B3E
 10
15.5971
 20
86.1399
 30
0.000000
  70
    32
  0
VERTEX
  8
0
  5
B3F
 10
15.5523
 20
86.0797
 30
0.000000
  70
    32
  0
VERTEX
  8
0
  5
B40
 10
15.5092
 20
86.0190
 30
0.000000
  70
    32
  0
VERTEX
  8
0
  5
B41
 10
15.4678
 20
85.9576
 30
0.000000
  70
    32
  0
VERTEX
  8
0
  5
B42
 10
15.4280
 20
85.8957
 30
0.000000
  70
    32
  0
VERTEX
  8
0
  5
B43
 10
15.3899
 20
85.8332
 30
0.000000
  70
    32
  0
VERTEX
  8
0
  5
B44
 10
15.3535
 20
85.7703
 30
0.000000
  70
    32
  0
VERTEX
  8
0
  5
B45
 10
15.3189
 20
85.7069
 30
0.000000
  70
    32
  0
VERTEX
  8
0
  5
B46
 10
15.2860
 20
85.6430
 30
0.000000
  70
    32
  0
SEQEND
  8
0
  5
B47
  0
POLYLINE
  5
54
  8
0
 10
22.500000000000281
 20
82.696699141100893
 30
0.0
 66
     1
 70
     8
  0
VERTEX
  8
0
  5
B48
 10
22.5000
 20
82.6967
 30
0.000000
  70
    32
  0
VERTEX
  8
0
  5
B49
 10
22.4970
 20
82.7834
 30
0.000000
  70
    32
  0
VERTEX
  8
0
  5
B4A
 10
22.4880
 20
82.8700
 30
0.000000
  70
    32
  0
VERTEX
  8
0
  5
B4B
 10
22.4729
 20
82.9561
 30
0.000000
  70
    32
  0
VERTEX
  8
0
  5
B4C
 10
22.4520
 20
83.0416
 30
0.000000
  70
    32
  0
VERTEX
  8
0
  5
B4D
 10
22.4251
 20
83.1262
 30
0.000000
  70
    32
  0
VERTEX
  8
0
  5
B4E
 10
22.3924
 20
83.2099
 30
0.000000
  70
    32
  0
VERTEX
  8
0
  5
B4F
 10
22.3539
 20
83.2922
 30
0.000000
  70
    32
  0
VERTEX
  8
0
  5
B50
 10
22.3097
 20
83.3732
 30
0.000000
  70
    32
  0
VERTEX
  8
0
  5
B51
 10
22.2600
 20
83.4525
 30
0.000000
  70
    32
  0
VERTEX
  8
0
  5
B52
 10
22.2048
 20
83.5300
 30
0.000000
  70
    32
  0
VERTEX
  8
0
  5
B53
 10
22.1443
 20
83.6055
 30
0.000000
  70
    32
  0
VERTEX
  8
0
  5
B54
 10
22.0787
 20
83.6788
 30
0.000000
  70
    32
  0
VERTEX
  8
0
  5
B55
 10
22.0080
 20
83.7498
 30
0.000000
  70
    32
  0
VERTEX
  8
0
  5
B56
 10
21.9325
 20
83.8182
 30
0.000000
  70
    32
  0
VERTEX
  8
0
  5
B57
 10
21.8524
 20
83.8839
 30
0.000000
  70
    32
  0
VERTEX
  8
0
  5
B58
 10
21.7678
 20
83.9467
 30
0.000000
  70
    32
  0
VERTEX
  8
0
  5
B59
 10
21.6789
 20
84.0065
 30
0.000000
  70
    32
  0
VERTEX
  8
0
  5
B5A
 10
21.5860
 20
84.0632
 30
0.000000
  70
    32
  0
VERTEX
  8
0
  5
B5B
 10
21.4892
 20
84.1166
 30
0.000000
  70
    32
  0
VERTEX
  8
0
  5
B5C
 10
21.3889
 20
84.1665
 30
0.000000
  70
    32
  0
VERTEX
  8
0
  5
B5D
 10
21.2853
 20
84.2130
 30
0.000000
  70
    32
  0
VERTEX
  8
0
  5
B5E
 10
21.1785
 20
84.2557
 30
0.000000
  70
    32
  0
VERTEX
  8
0
  5
B5F
 10
21.0689
 20
84.2947
 30
0.000000
  70
    32
  0
VERTEX
  8
0
  5
B60
 10
20.9567
 20
84.3299
 30
0.000000
  70
    32
  0
VERTEX
  8
0
  5
B61
 10
20.8422
 20
84.3611
 30
0.000000
  70
    32
  0
VERTEX
  8
0
  5
B62
 10
20.7257
 20
84.3883
 30
0.000000
  70
    32
  0
VERTEX
  8
0
  5
B63
 10
20.6075
 20
84.4115
 30
0.000000
  70
    32
  0
VERTEX
  8
0
  5
B64
 10
20.4877
 20
84.4305
 30
0.000000
  70
    32
  0
VERTEX
  8
0
  5
B65
 10
20.3668
 20
84.4453
 30
0.000000
  70
    32
  0
VERTEX
  8
0
  5
B66
 10
20.2450
 20
84.4560
 30
0.000000
  70
    32
  0
VERTEX
  8
0
  5
B67
 10
20.1227
 20
84.4623
 30
0.000000
  70
    32
  0
VERTEX
  8
0
  5
B68
 10
20.0000
 20
84.4645
 30
0.000000
  70
    32
  0
VERTEX
  8
0
  5
B69
 10
19.8773
 20
84.4623
 30
0.000000
  70
    32
  0
VERTEX
  8
0
  5
B6A
 10
19.7550
 20
84.4560
 30
0.000000
  70
    32
  0
VERTEX
  8
0
  5
B6B
 10
19.6332
 20
84.4453
 30
0.000000
  70
    32
  0
VERTEX
  8
0
  5
B6C
 10
19.5123
 20
84.4305
 30
0.000000
  70
    32
  0
VERTEX
  8
0
  5
B6D
 10
19.3925
 20
84.4115
 30
0.000000
  70
    32
  0
VERTEX
  8
0
  5
B6E
 10
19.2743
 20
84.3883
 30
0.000000
  70
    32
  0
VERTEX
  8
0
  5
B6F
 10
19.1578
 20
84.3611
 30
0.000000
  70
    32
  0
VERTEX
  8
0
  5
B70
 10
19.0433
 20
84.3299
 30
0.000000
  70
    32
  0
VERTEX
  8
0
  5
B71
 10
18.9311
 20
84.2947
 30
0.000000
  70
    32
  0
VERTEX
  8
0
  5
B72
 10
18.8215
 20
84.2557
 30
0.000000
  70
    32
  0
VERTEX
  8
0
  5
B73
 10
18.7147
 20
84.2130
 30
0.000000
  70
    32
  0
VERTEX
  8
0
  5
B74
 10
18.6111
 20
84.1665
 30
0.000000
  70
    32
  0
VERTEX
  8
0
  5
B75
 10
18.5108
 20
84.1166
 30
0.000000
  70
    32
  0
VERTEX
  8
0
  5
B76
 10
18.4140
 20
84.0632
 30
0.000000
  70
    32
  0
VERTEX
  8
0
  5
B77
 10
18.3211
 20
84.0065
 30
0.000000
  70
    32
  0
VERTEX
  8
0
  5
B78
 10
18.2322
 20
83.9467
 30
0.000000
  70
    32
  0
VERTEX
  8
0
  5
B79
 10
18.1476
 20
83.8839
 30
0.000000
  70
    32
  0
VERTEX
  8
0
  5
B7A
 10
18.0675
 20
83.8182
 30
0.000000
  70
    32
  0
VERTEX
  8
0
  5
B7B
 10
17.9920
 20
83.7498
 30
0.000000
  70
    32
  0
VERTEX
  8
0
  5
B7C
 10
17.9213
 20
83.6788
 30
0.000000
  70
    32
  0
VERTEX
  8
0
  5
B7D
 10
17.8557
 20
83.6055
 30
0.000000
  70
    32
  0
VERTEX
  8
0
  5
B7E
 10
17.7952
 20
83.5300
 30
0.000000
  70
    32
  0
VERTEX
  8
0
  5
B7F
 10
17.7400
 20
83.4525
 30
0.000000
  70
    32
  0
VERTEX
  8
0
  5
B80
 10
17.6903
 20
83.3732
 30
0.000000
  70
    32
  0
VERTEX
  8
0
  5
B81
 10
17.6461
 20
83.2922
 30
0.000000
  70
    32
  0
VERTEX
  8
0
  5
B82
 10
17.6076
 20
83.2099
 30
0.000000
  70
    32
  0
VERTEX
  8
0
  5
B83
 10
17.5749
 20
83.1262
 30
0.000000
  70
    32
  0
VERTEX
  8
0
  5
B84
 10
17.5480
 20
83.0416
 30
0.000000
  70
    32
  0
VERTEX
  8
0
  5
B85
 10
17.5271
 20
82.9561
 30
0.000000
  70
    32
  0
VERTEX
  8
0
  5
B86
 10
17.5120
 20
82.8700
 30
0.000000
  70
    32
  0
VERTEX
  8
0
  5
B87
 10
17.5030
 20
82.7834
 30
0.000000
  70
    32
  0
VERTEX
  8
0
  5
B88
 10
17.5000
 20
82.6967
 30
0.000000
  70
    32
  0
VERTEX
  8
0
  5
B89
 10
17.5030
 20
82.6100
 30
0.000000
  70
    32
  0
VERTEX
  8
0
  5
B8A
 10
17.5120
 20
82.5234
 30
0.000000
  70
    32
  0
VERTEX
  8
0
  5
B8B
 10
17.5271
 20
82.4373
 30
0.000000
  70
    32
  0
VERTEX
  8
0
  5
B8C
 10
17.5480
 20
82.3518
 30
0.000000
  70
    32
  0
VERTEX
  8
0
  5
B8D
 10
17.5749
 20
82.2672
 30
0.000000
  70
    32
  0
VERTEX
  8
0
  5
B8E
 10
17.6076
 20
82.1835
 30
0.000000
  70
    32
  0
VERTEX
  8
0
  5
B8F
 10
17.6461
 20
82.1012
 30
0.000000
  70
    32
  0
VERTEX
  8
0
  5
B90
 10
17.6903
 20
82.0202
 30
0.000000
  70
    32
  0
VERTEX
  8
0
  5
B91
 10
17.7400
 20
81.9409
 30
0.000000
  70
    32
  0
VERTEX
  8
0
  5
B92
 10
17.7952
 20
81.8634
 30
0.000000
  70
    32
  0
VERTEX
  8
0
  5
B93
 10
17.8557
 20
81.7879
 30
0.000000
  70
    32
  0
VERTEX
  8
0
  5
B94
 10
17.9213
 20
81.7146
 30
0.000000
  70
    32
  0
VERTEX
  8
0
  5
B95
 10
17.9920
 20
81.6436
 30
0.000000
  70
    32
  0
VERTEX
  8
0
  5
B96
 10
18.0675
 20
81.5752
 30
0.000000
  70
    32
  0
VERTEX
  8
0
  5
B97
 10
18.1476
 20
81.5095
 30
0.000000
  70
    32
  0
VERTEX
  8
0
  5
B98
 10
18.2322
 20
81.4467
 30
0.000000
  70
    32
  0
VERTEX
  8
0
  5
B99
 10
18.3211
 20
81.3869
 30
0.000000
  70
    32
  0
VERTEX
  8
0
  5
B9A
 10
18.4140
 20
81.3302
 30
0.000000
  70
    32
  0
VERTEX
  8
0
  5
B9B
 10
18.5108
 20
81.2768
 30
0.000000
  70
    32
  0
VERTEX
  8
0
  5
B9C
 10
18.6111
 20
81.2269
 30
0.000000
  70
    32
  0
VERTEX
  8
0
  5
B9D
 10
18.7147
 20
81.1804
 30
0.000000
  70
    32
  0
VERTEX
  8
0
  5
B9E
 10
18.8215
 20
81.1377
 30
0.000000
  70
    32
  0
VERTEX
  8
0
  5
B9F
 10
18.9311
 20
81.0987
 30
0.000000
  70
    32
  0
VERTEX
  8
0
  5
BA0
 10
19.0433
 20
81.0635
 30
0.000000
  70
    32
  0
VERTEX
  8
0
  5
BA1
 10
19.1578
 20
81.0323
 30
0.000000
  70
    32
  0
VERTEX
  8
0
  5
BA2
 10
19.2743
 20
81.0051
 30
0.000000
  70
    32
  0
VERTEX
  8
0
  5
BA3
 10
19.3925
 20
80.9819
 30
0.000000
  70
    32
  0
VERTEX
  8
0
  5
BA4
 10
19.5123
 20
80.9629
 30
0.000000
  70
    32
  0
VERTEX
  8
0
  5
BA5
 10
19.6332
 20
80.9481
 30
0.000000
  70
    32
  0
VERTEX
  8
0
  5
BA6
 10
19.7550
 20
80.9374
 30
0.000000
  70
    32
  0
VERTEX
  8
0
  5
BA7
 10
19.8773
 20
80.9311
 30
0.000000
  70
    32
  0
VERTEX
  8
0
  5
BA8
 10
20.0000
 20
80.9289
 30
0.000000
  70
    32
  0
VERTEX
  8
0
  5
BA9
 10
20.1227
 20
80.9311
 30
0.000000
  70
    32
  0
VERTEX
  8
0
  5
BAA
 10
20.2450
 20
80.9374
 30
0.000000
  70
    32
  0
VERTEX
  8
0
  5
BAB
 10
20.3668
 20
80.9481
 30
0.000000
  70
    32
  0
VERTEX
  8
0
  5
BAC
 10
20.4877
 20
80.9629
 30
0.000000
  70
    32
  0
VERTEX
  8
0
  5
BAD
 10
20.6075
 20
80.9819
 30
0.000000
  70
    32
  0
VERTEX
  8
0
  5
BAE
 10
20.7257
 20
81.0051
 30
0.000000
  70
    32
  0
VERTEX
  8
0
  5
BAF
 10
20.8422
 20
81.0323
 30
0.000000
  70
    32
  0
VERTEX
  8
0
  5
BB0
 10
20.9567
 20
81.0635
 30
0.000000
  70
    32
  0
VERTEX
  8
0
  5
BB1
 10
21.0689
 20
81.0987
 30
0.000000
  70
    32
  0
VERTEX
  8
0
  5
BB2
 10
21.1785
 20
81.1377
 30
0.000000
  70
    32
  0
VERTEX
  8
0
  5
BB3
 10
21.2853
 20
81.1804
 30
0.000000
  70
    32
  0
VERTEX
  8
0
  5
BB4
 10
21.3889
 20
81.2269
 30
0.000000
  70
    32
  0
VERTEX
  8
0
  5
BB5
 10
21.4892
 20
81.2768
 30
0.000000
  70
    32
  0
VERTEX
  8
0
  5
BB6
 10
21.5860
 20
81.3302
 30
0.000000
  70
    32
  0
VERTEX
  8
0
  5
BB7
 10
21.6789
 20
81.3869
 30
0.000000
  70
    32
  0
VERTEX
  8
0
  5
BB8
 10
21.7678
 20
81.4467
 30
0.000000
  70
    32
  0
VERTEX
  8
0
  5
BB9
 10
21.8524
 20
81.5095
 30
0.000000
  70
    32
  0
VERTEX
  8
0
  5
BBA
 10
21.9325
 20
81.5752
 30
0.000000
  70
    32
  0
VERTEX
  8
0
  5
BBB
 10
22.0080
 20
81.6436
 30
0.000000
  70
    32
  0
VERTEX
  8
0
  5
BBC
 10
22.0787
 20
81.7146
 30
0.000000
  70
    32
  0
VERTEX
  8
0
  5
BBD
 10
22.1443
 20
81.7879
 30
0.000000
  70
    32
  0
VERTEX
  8
0
  5
BBE
 10
22.2048
 20
81.8634
 30
0.000000
  70
    32
  0
VERTEX
  8
0
  5
BBF
 10
22.2600
 20
81.9409
 30
0.000000
  70
    32
  0
VERTEX
  8
0
  5
BC0
 10
22.3097
 20
82.0202
 30
0.000000
  70
    32
  0
VERTEX
  8
0
  5
BC1
 10
22.3539
 20
82.1012
 30
0.000000
  70
    32
  0
VERTEX
  8
0
  5
BC2
 10
22.3924
 20
82.1835
 30
0.000000
  70
    32
  0
VERTEX
  8
0
  5
BC3
 10
22.4251
 20
82.2672
 30
0.000000
  70
    32
  0
VERTEX
  8
0
  5
BC4
 10
22.4520
 20
82.3518
 30
0.000000
  70
    32
  0
VERTEX
  8
0
  5
BC5
 10
22.4729
 20
82.4373
 30
0.000000
  70
    32
  0
VERTEX
  8
0
  5
BC6
 10
22.4880
 20
82.5234
 30
0.000000
  70
    32
  0
VERTEX
  8
0
  5
BC7
 10
22.4970
 20
82.6100
 30
0.000000
  70
    32
  0
VERTEX
  8
0
  5
BC8
 10
22.5000
 20
82.6967
 30
0.000000
  70
    32
  0
SEQEND
  8
0
  5
BC9
  0
POLYLINE
  5
55
  8
0
 10
20.000000000000281
 20
95.071067811865433
 30
0.0
 66
     1
 70
     8
  0
VERTEX
  8
0
  5
BCA
 10
20.0000
 20
95.0711
 30
0.000000
  70
    32
  0
VERTEX
  8
0
  5
BCB
 10
19.7547
 20
95.0626
 30
0.000000
  70
    32
  0
VERTEX
  8
0
  5
BCC
 10
19.5099
 20
95.0370
 30
0.000000
  70
    32
  0
VERTEX
  8
0
  5
BCD
 10
19.2663
 20
94.9945
 30
0.000000
  70
    32
  0
VERTEX
  8
0
  5
BCE
 10
19.0245
 20
94.9352
 30
0.000000
  70
    32
  0
VERTEX
  8
0
  5
BCF
 10
18.7851
 20
94.8592
 30
0.000000
  70
    32
  0
VERTEX
  8
0
  5
BD0
 10
18.5486
 20
94.7666
 30
0.000000
  70
    32
  0
VERTEX
  8
0
  5
BD1
 10
18.3156
 20
94.6577
 30
0.000000
  70
    32
  0
VERTEX
  8
0
  5
BD2
 10
18.0866
 20
94.5328
 30
0.000000
  70
    32
  0
VERTEX
  8
0
  5
BD3
 10
17.8622
 20
94.3922
 30
0.000000
  70
    32
  0
VERTEX
  8
0
  5
BD4
 10
17.6430
 20
94.2361
 30
0.000000
  70
    32
  0
VERTEX
  8
0
  5
BD5
 10
17.4295
 20
94.0651
 30
0.000000
  70
    32
  0
VERTEX
  8
0
  5
BD6
 10
17.2221
 20
93.8794
 30
0.000000
  70
    32
  0
VERTEX
  8
0
  5
BD7
 10
17.0215
 20
93.6795
 30
0.000000
  70
    32
  0
VERTEX
  8
0
  5
BD8
 10
16.8280
 20
93.4660
 30
0.000000
  70
    32
  0
VERTEX
  8
0
  5
BD9
 10
16.6422
 20
93.2393
 30
0.000000
  70
    32
  0
VERTEX
  8
0
  5
BDA
 10
16.4645
 20
93.0000
 30
0.000000
  70
    32
  0
VERTEX
  8
0
  5
BDB
 10
16.2952
 20
92.7486
 30
0.000000
  70
    32
  0
VERTEX
  8
0
  5
BDC
 10
16.1349
 20
92.4858
 30
0.000000
  70
    32
  0
VERTEX
  8
0
  5
BDD
 10
15.9840
 20
92.2122
 30
0.000000
  70
    32
  0
VERTEX
  8
0
  5
BDE
 10
15.8427
 20
91.9285
 30
0.000000
  70
    32
  0
VERTEX
  8
0
  5
BDF
 10
15.7114
 20
91.6353
 30
0.000000
  70
    32
  0
VERTEX
  8
0
  5
BE0
 10
15.5904
 20
91.3333
 30
0.000000
  70
    32
  0
VERTEX
  8
0
  5
BE1
 10
15.4801
 20
91.0233
 30
0.000000
  70
    32
  0
VERTEX
  8
0
  5
BE2
 10
15.3806
 20
90.7060
 30
0.000000
  70
    32
  0
VERTEX
  8
0
  5
BE3
 10
15.2923
 20
90.3822
 30
0.000000
  70
    32
  0
VERTEX
  8
0
  5
BE4
 10
15.2153
 20
90.0526
 30
0.000000
  70
    32
  0
VERTEX
  8
0
  5
BE5
 10
15.1498
 20
89.7181
 30
0.000000
  70
    32
  0
VERTEX
  8
0
  5
BE6
 10
15.0961
 20
89.3795
 30
0.000000
  70
    32
  0
VERTEX
  8
0
  5
BE7
 10
15.0541
 20
89.0375
 30
0.000000
  70
    32
  0
VERTEX
  8
0
  5
BE8
 10
15.0241
 20
88.6931
 30
0.000000
  70
    32
  0
VERTEX
  8
0
  5
BE9
 10
15.0060
 20
88.3470
 30
0.000000
  70
    32
  0
VERTEX
  8
0
  5
BEA
 10
15.0000
 20
88.0000
 30
0.000000
  70
    32
  0
VERTEX
  8
0
  5
BEB
 10
15.0060
 20
87.6530
 30
0.000000
  70
    32
  0
VERTEX
  8
0
  5
BEC
 10
15.0241
 20
87.3069
 30
0.000000
  70
    32
  0
VERTEX
  8
0
  5
BED
 10
15.0541
 20
86.9625
 30
0.000000
  70
    32
  0
VERTEX
  8
0
  5
BEE
 10
15.0961
 20
86.6205
 30
0.000000
  70
    32
  0
VERTEX
  8
0
  5
BEF
 10
15.1498
 20
86.2819
 30
0.000000
  70
    32
  0
VERTEX
  8
0
  5
BF0
 10
15.2153
 20
85.9474
 30
0.000000
  70
    32
  0
VERTEX
  8
0
  5
BF1
 10
15.2923
 20
85.6178
 30
0.000000
  70
    32
  0
VERTEX
  8
0
  5
BF2
 10
15.3806
 20
85.2940
 30
0.000000
  70
    32
  0
VERTEX
  8
0
  5
BF3
 10
15.4801
 20
84.9767
 30
0.000000
  70
    32
  0
VERTEX
  8
0
  5
BF4
 10
15.5904
 20
84.6667
 30
0.000000
  70
    32
  0
VERTEX
  8
0
  5
BF5
 10
15.7114
 20
84.3647
 30
0.000000
  70
    32
  0
VERTEX
  8
0
  5
BF6
 10
15.8427
 20
84.0715
 30
0.000000
  70
    32
  0
VERTEX
  8
0
  5
BF7
 10
15.9840
 20
83.7878
 30
0.000000
  70
    32
  0
VERTEX
  8
0
  5
BF8
 10
16.1349
 20
83.5142
 30
0.000000
  70
    32
  0
VERTEX
  8
0
  5
BF9
 10
16.2952
 20
83.2514
 30
0.000000
  70
    32
  0
VERTEX
  8
0
  5
BFA
 10
16.4645
 20
83.0000
 30
0.000000
  70
    32
  0
VERTEX
  8
0
  5
BFB
 10
16.6422
 20
82.7607
 30
0.000000
  70
    32
  0
VERTEX
  8
0
  5
BFC
 10
16.8280
 20
82.5340
 30
0.000000
  70
    32
  0
VERTEX
  8
0
  5
BFD
 10
17.0215
 20
82.3205
 30
0.000000
  70
    32
  0
VERTEX
  8
0
  5
BFE
 10
17.2221
 20
82.1206
 30
0.000000
  70
    32
  0
VERTEX
  8
0
  5
BFF
 10
17.4295
 20
81.9349
 30
0.000000
  70
    32
  0
VERTEX
  8
0
  5
C00
 10
17.6430
 20
81.7639
 30
0.000000
  70
    32
  0
VERTEX
  8
0
  5
C01
 10
17.8622
 20
81.6078
 30
0.000000
  70
    32
  0
VERTEX
  8
0
  5
C02
 10
18.0866
 20
81.4672
 30
0.000000
  70
    32
  0
VERTEX
  8
0
  5
C03
 10
18.3156
 20
81.3423
 30
0.000000
  70
    32
  0
VERTEX
  8
0
  5
C04
 10
18.5486
 20
81.2334
 30
0.000000
  70
    32
  0
VERTEX
  8
0
  5
C05
 10
18.7851
 20
81.1408
 30
0.000000
  70
    32
  0
VERTEX
  8
0
  5
C06
 10
19.0245
 20
81.0648
 30
0.000000
  70
    32
  0
VERTEX
  8
0
  5
C07
 10
19.2663
 20
81.0055
 30
0.000000
  70
    32
  0
VERTEX
  8
0
  5
C08
 10
19.5099
 20
80.9630
 30
0.000000
  70
    32
  0
VERTEX
  8
0
  5
C09
 10
19.7547
 20
80.9374
 30
0.000000
  70
    32
  0
VERTEX
  8
0
  5
C0A
 10
20.0000
 20
80.9289
 30
0.000000
  70
    32
  0
VERTEX
  8
0
  5
C0B
 10
20.2453
 20
80.9374
 30
0.000000
  70
    32
  0
VERTEX
  8
0
  5
C0C
 10
20.4901
 20
80.9630
 30
0.000000
  70
    32
  0
VERTEX
  8
0
  5
C0D
 10
20.7337
 20
81.0055
 30
0.000000
  70
    32
  0
VERTEX
  8
0
  5
C0E
 10
20.9755
 20
81.0648
 30
0.000000
  70
    32
  0
VERTEX
  8
0
  5
C0F
 10
21.2149
 20
81.1408
 30
0.000000
  70
    32
  0
VERTEX
  8
0
  5
C10
 10
21.4514
 20
81.2334
 30
0.000000
  70
    32
  0
VERTEX
  8
0
  5
C11
 10
21.6844
 20
81.3423
 30
0.000000
  70
    32
  0
VERTEX
  8
0
  5
C12
 10
21.9134
 20
81.4672
 30
0.000000
  70
    32
  0
VERTEX
  8
0
  5
C13
 10
22.1378
 20
81.6078
 30
0.000000
  70
    32
  0
VERTEX
  8
0
  5
C14
 10
22.3570
 20
81.7639
 30
0.000000
  70
    32
  0
VERTEX
  8
0
  5
C15
 10
22.5705
 20
81.9349
 30
0.000000
  70
    32
  0
VERTEX
  8
0
  5
C16
 10
22.7779
 20
82.1206
 30
0.000000
  70
    32
  0
VERTEX
  8
0
  5
C17
 10
22.9785
 20
82.3205
 30
0.000000
  70
    32
  0
VERTEX
  8
0
  5
C18
 10
23.1720
 20
82.5340
 30
0.000000
  70
    32
  0
VERTEX
  8
0
  5
C19
 10
23.3578
 20
82.7607
 30
0.000000
  70
    32
  0
VERTEX
  8
0
  5
C1A
 10
23.5355
 20
83.0000
 30
0.000000
  70
    32
  0
VERTEX
  8
0
  5
C1B
 10
23.7048
 20
83.2514
 30
0.000000
  70
    32
  0
VERTEX
  8
0
  5
C1C
 10
23.8651
 20
83.5142
 30
0.000000
  70
    32
  0
VERTEX
  8
0
  5
C1D
 10
24.0160
 20
83.7878
 30
0.000000
  70
    32
  0
VERTEX
  8
0
  5
C1E
 10
24.1573
 20
84.0715
 30
0.000000
  70
    32
  0
VERTEX
  8
0
  5
C1F
 10
24.2886
 20
84.3647
 30
0.000000
  70
    32
  0
VERTEX
  8
0
  5
C20
 10
24.4096
 20
84.6667
 30
0.000000
  70
    32
  0
VERTEX
  8
0
  5
C21
 10
24.5199
 20
84.9767
 30
0.000000
  70
    32
  0
VERTEX
  8
0
  5
C22
 10
24.6194
 20
85.2940
 30
0.000000
  70
    32
  0
VERTEX
  8
0
  5
C23
 10
24.7077
 20
85.6178
 30
0.000000
  70
    32
  0
VERTEX
  8
0
  5
C24
 10
24.7847
 20
85.9474
 30
0.000000
  70
    32
  0
VERTEX
  8
0
  5
C25
 10
24.8502
 20
86.2819
 30
0.000000
  70
    32
  0
VERTEX
  8
0
  5
C26
 10
24.9039
 20
86.6205
 30
0.000000
  70
    32
  0
VERTEX
  8
0
  5
C27
 10
24.9459
 20
86.9625
 30
0.000000
  70
    32
  0
VERTEX
  8
0
  5
C28
 10
24.9759
 20
87.3069
 30
0.000000
  70
    32
  0
VERTEX
  8
0
  5
C29
 10
24.9940
 20
87.6530
 30
0.000000
  70
    32
  0
VERTEX
  8
0
  5
C2A
 10
25.0000
 20
88.0000
 30
0.000000
  70
    32
  0
VERTEX
  8
0
  5
C2B
 10
24.9940
 20
88.3470
 30
0.000000
  70
    32
  0
VERTEX
  8
0
  5
C2C
 10
24.9759
 20
88.6931
 30
0.000000
  70
    32
  0
VERTEX
  8
0
  5
C2D
 10
24.9459
 20
89.0375
 30
0.000000
  70
    32
  0
VERTEX
  8
0
  5
C2E
 10
24.9039
 20
89.3795
 30
0.000000
  70
    32
  0
VERTEX
  8
0
  5
C2F
 10
24.8502
 20
89.7181
 30
0.000000
  70
    32
  0
VERTEX
  8
0
  5
C30
 10
24.7847
 20
90.0526
 30
0.000000
  70
    32
  0
VERTEX
  8
0
  5
C31
 10
24.7077
 20
90.3822
 30
0.000000
  70
    32
  0
VERTEX
  8
0
  5
C32
 10
24.6194
 20
90.7060
 30
0.000000
  70
    32
  0
VERTEX
  8
0
  5
C33
 10
24.5199
 20
91.0233
 30
0.000000
  70
    32
  0
VERTEX
  8
0
  5
C34
 10
24.4096
 20
91.3333
 30
0.000000
  70
    32
  0
VERTEX
  8
0
  5
C35
 10
24.2886
 20
91.6353
 30
0.000000
  70
    32
  0
VERTEX
  8
0
  5
C36
 10
24.1573
 20
91.9285
 30
0.000000
  70
    32
  0
VERTEX
  8
0
  5
C37
 10
24.0160
 20
92.2122
 30
0.000000
  70
    32
  0
VERTEX
  8
0
  5
C38
 10
23.8651
 20
92.4858
 30
0.000000
  70
    32
  0
VERTEX
  8
0
  5
C39
 10
23.7048
 20
92.7486
 30
0.000000
  70
    32
  0
VERTEX
  8
0
  5
C3A
 10
23.5355
 20
93.0000
 30
0.000000
  70
    32
  0
VERTEX
  8
0
  5
C3B
 10
23.3578
 20
93.2393
 30
0.000000
  70
    32
  0
VERTEX
  8
0
  5
C3C
 10
23.1720
 20
93.4660
 30
0.000000
  70
    32
  0
VERTEX
  8
0
  5
C3D
 10
22.9785
 20
93.6795
 30
0.000000
  70
    32
  0
VERTEX
  8
0
  5
C3E
 10
22.7779
 20
93.8794
 30
0.000000
  70
    32
  0
VERTEX
  8
0
  5
C3F
 10
22.5705
 20
94.0651
 30
0.000000
  70
    32
  0
VERTEX
  8
0
  5
C40
 10
22.3570
 20
94.2361
 30
0.000000
  70
    32
  0
VERTEX
  8
0
  5
C41
 10
22.1378
 20
94.3922
 30
0.000000
  70
    32
  0
VERTEX
  8
0
  5
C42
 10
21.9134
 20
94.5328
 30
0.000000
  70
    32
  0
VERTEX
  8
0
  5
C43
 10
21.6844
 20
94.6577
 30
0.000000
  70
    32
  0
VERTEX
  8
0
  5
C44
 10
21.4514
 20
94.7666
 30
0.000000
  70
    32
  0
VERTEX
  8
0
  5
C45
 10
21.2149
 20
94.8592
 30
0.000000
  70
    32
  0
VERTEX
  8
0
  5
C46
 10
20.9755
 20
94.9352
 30
0.000000
  70
    32
  0
VERTEX
  8
0
  5
C47
 10
20.7337
 20
94.9945
 30
0.000000
  70
    32
  0
VERTEX
  8
0
  5
C48
 10
20.4901
 20
95.0370
 30
0.000000
  70
    32
  0
VERTEX
  8
0
  5
C49
 10
20.2453
 20
95.0626
 30
0.000000
  70
    32
  0
VERTEX
  8
0
  5
C4A
 10
20.0000
 20
95.0711
 30
0.000000
  70
    32
  0
SEQEND
  8
0
  5
C4B
  0
POLYLINE
  5
56
  8
0
  6
HIDDEN
 62
     8
 10
18.55889642981532
 20
81.229000000000056
 30
0.0
 66
     1
 70
     8
  0
VERTEX
  8
0
  5
C4C
 10
18.5589
 20
81.2290
 30
0.000000
  70
    32
  0
VERTEX
  8
0
  5
C4D
 10
18.4681
 20
81.1443
 30
0.000000
  70
    32
  0
VERTEX
  8
0
  5
C4E
 10
18.3798
 20
81.0545
 30
0.000000
  70
    32
  0
VERTEX
  8
0
  5
C4F
 10
18.2941
 20
80.9597
 30
0.000000
  70
    32
  0
VERTEX
  8
0
  5
C50
 10
18.2112
 20
80.8601
 30
0.000000
  70
    32
  0
VERTEX
  8
0
  5
C51
 10
18.1312
 20
80.7559
 30
0.000000
  70
    32
  0
VERTEX
  8
0
  5
C52
 10
18.0542
 20
80.6472
 30
0.000000
  70
    32
  0
VERTEX
  8
0
  5
C53
 10
17.9804
 20
80.5342
 30
0.000000
  70
    32
  0
VERTEX
  8
0
  5
C54
 10
17.9098
 20
80.4171
 30
0.000000
  70
    32
  0
VERTEX
  8
0
  5
C55
 10
17.8427
 20
80.2961
 30
0.000000
  70
    32
  0
VERTEX
  8
0
  5
C56
 10
17.7791
 20
80.1714
 30
0.000000
  70
    32
  0
VERTEX
  8
0
  5
C57
 10
17.7190
 20
80.0431
 30
0.000000
  70
    32
  0
VERTEX
  8
0
  5
C58
 10
17.6627
 20
79.9115
 30
0.000000
  70
    32
  0
VERTEX
  8
0
  5
C59
 10
17.6101
 20
79.7768
 30
0.000000
  70
    32
  0
VERTEX
  8
0
  5
C5A
 10
17.5615
 20
79.6392
 30
0.000000
  70
    32
  0
VERTEX
  8
0
  5
C5B
 10
17.5167
 20
79.4990
 30
0.000000
  70
    32
  0
VERTEX
  8
0
  5
C5C
 10
17.4761
 20
79.3563
 30
0.000000
  70
    32
  0
VERTEX
  8
0
  5
C5D
 10
17.4395
 20
79.2114
 30
0.000000
  70
    32
  0
VERTEX
  8
0
  5
C5E
 10
17.4071
 20
79.0646
 30
0.000000
  70
    32
  0
VERTEX
  8
0
  5
C5F
 10
17.3788
 20
78.9160
 30
0.000000
  70
    32
  0
VERTEX
  8
0
  5
C60
 10
17.3549
 20
78.7660
 30
0.000000
  70
    32
  0
VERTEX
  8
0
  5
C61
 10
17.3352
 20
78.6147
 30
0.000000
  70
    32
  0
VERTEX
  8
0
  5
C62
 10
17.3199
 20
78.4624
 30
0.000000
  70
    32
  0
VERTEX
  8
0
  5
C63
 10
17.3089
 20
78.3093
 30
0.000000
  70
    32
  0
VERTEX
  8
0
  5
C64
 10
17.3022
 20
78.1558
 30
0.000000
  70
    32
  0
VERTEX
  8
0
  5
C65
 10
17.3000
 20
78.0020
 30
0.000000
  70
    32
  0
VERTEX
  8
0
  5
C66
 10
17.3021
 20
77.8482
 30
0.000000
  70
    32
  0
VERTEX
  8
0
  5
C67
 10
17.3086
 20
77.6946
 30
0.000000
  70
    32
  0
VERTEX
  8
0
  5
C68
 10
17.3195
 20
77.5416
 30
0.000000
  70
    32
  0
VERTEX
  8
0
  5
C69
 10
17.3348
 20
77.3893
 30
0.000000
  70
    32
  0
VERTEX
  8
0
  5
C6A
 10
17.3543
 20
77.2379
 30
0.000000
  70
    32
  0
VERTEX
  8
0
  5
C6B
 10
17.3782
 20
77.0878
 30
0.000000
  70
    32
  0
VERTEX
  8
0
  5
C6C
 10
17.4063
 20
76.9392
 30
0.000000
  70
    32
  0
VERTEX
  8
0
  5
C6D
 10
17.4386
 20
76.7923
 30
0.000000
  70
    32
  0
VERTEX
  8
0
  5
C6E
 10
17.4751
 20
76.6474
 30
0.000000
  70
    32
  0
VERTEX
  8
0
  5
C6F
 10
17.5156
 20
76.5047
 30
0.000000
  70
    32
  0
VERTEX
  8
0
  5
C70
 10
17.5603
 20
76.3644
 30
0.000000
  70
    32
  0
VERTEX
  8
0
  5
C71
 10
17.6088
 20
76.2267
 30
0.000000
  70
    32
  0
VERTEX
  8
0
  5
C72
 10
17.6613
 20
76.0920
 30
0.000000
  70
    32
  0
VERTEX
  8
0
  5
C73
 10
17.7175
 20
75.9603
 30
0.000000
  70
    32
  0
VERTEX
  8
0
  5
C74
 10
17.7775
 20
75.8319
 30
0.000000
  70
    32
  0
VERTEX
  8
0
  5
C75
 10
17.8410
 20
75.7071
 30
0.000000
  70
    32
  0
VERTEX
  8
0
  5
C76
 10
17.9081
 20
75.5860
 30
0.000000
  70
    32
  0
VERTEX
  8
0
  5
C77
 10
17.9785
 20
75.4688
 30
0.000000
  70
    32
  0
VERTEX
  8
0
  5
C78
 10
18.0523
 20
75.3557
 30
0.000000
  70
    32
  0
VERTEX
  8
0
  5
C79
 10
18.1291
 20
75.2468
 30
0.000000
  70
    32
  0
VERTEX
  8
0
  5
C7A
 10
18.2091
 20
75.1425
 30
0.000000
  70
    32
  0
VERTEX
  8
0
  5
C7B
 10
18.2919
 20
75.0428
 30
0.000000
  70
    32
  0
VERTEX
  8
0
  5
C7C
 10
18.3775
 20
74.9479
 30
0.000000
  70
    32
  0
VERTEX
  8
0
  5
C7D
 10
18.4658
 20
74.8580
 30
0.000000
  70
    32
  0
VERTEX
  8
0
  5
C7E
 10
18.5565
 20
74.7731
 30
0.000000
  70
    32
  0
VERTEX
  8
0
  5
C7F
 10
18.6496
 20
74.6935
 30
0.000000
  70
    32
  0
VERTEX
  8
0
  5
C80
 10
18.7449
 20
74.6193
 30
0.000000
  70
    32
  0
VERTEX
  8
0
  5
C81
 10
18.8422
 20
74.5505
 30
0.000000
  70
    32
  0
VERTEX
  8
0
  5
C82
 10
18.9414
 20
74.4874
 30
0.000000
  70
    32
  0
VERTEX
  8
0
  5
C83
 10
19.0423
 20
74.4299
 30
0.000000
  70
    32
  0
VERTEX
  8
0
  5
C84
 10
19.1447
 20
74.3783
 30
0.000000
  70
    32
  0
VERTEX
  8
0
  5
C85
 10
19.2486
 20
74.3325
 30
0.000000
  70
    32
  0
VERTEX
  8
0
  5
C86
 10
19.3536
 20
74.2927
 30
0.000000
  70
    32
  0
VERTEX
  8
0
  5
C87
 10
19.4598
 20
74.2588
 30
0.000000
  70
    32
  0
VERTEX
  8
0
  5
C88
 10
19.5667
 20
74.2311
 30
0.000000
  70
    32
  0
VERTEX
  8
0
  5
C89
 10
19.6744
 20
74.2095
 30
0.000000
  70
    32
  0
VERTEX
  8
0
  5
C8A
 10
19.7827
 20
74.1940
 30
0.000000
  70
    32
  0
VERTEX
  8
0
  5
C8B
 10
19.8912
 20
74.1847
 30
0.000000
  70
    32
  0
VERTEX
  8
0
  5
C8C
 10
20.0000
 20
74.1816
 30
0.000000
  70
    32
  0
VERTEX
  8
0
  5
C8D
 10
20.1088
 20
74.1847
 30
0.000000
  70
    32
  0
VERTEX
  8
0
  5
C8E
 10
20.2173
 20
74.1940
 30
0.000000
  70
    32
  0
VERTEX
  8
0
  5
C8F
 10
20.3256
 20
74.2095
 30
0.000000
  70
    32
  0
VERTEX
  8
0
  5
C90
 10
20.4333
 20
74.2311
 30
0.000000
  70
    32
  0
VERTEX
  8
0
  5
C91
 10
20.5402
 20
74.2588
 30
0.000000
  70
    32
  0
VERTEX
  8
0
  5
C92
 10
20.6464
 20
74.2927
 30
0.000000
  70
    32
  0
VERTEX
  8
0
  5
C93
 10
20.7514
 20
74.3325
 30
0.000000
  70
    32
  0
VERTEX
  8
0
  5
C94
 10
20.8553
 20
74.3783
 30
0.000000
  70
    32
  0
VERTEX
  8
0
  5
C95
 10
20.9577
 20
74.4299
 30
0.000000
  70
    32
  0
VERTEX
  8
0
  5
C96
 10
21.0586
 20
74.4874
 30
0.000000
  70
    32
  0
VERTEX
  8
0
  5
C97
 10
21.1578
 20
74.5505
 30
0.000000
  70
    32
  0
VERTEX
  8
0
  5
C98
 10
21.2551
 20
74.6193
 30
0.000000
  70
    32
  0
VERTEX
  8
0
  5
C99
 10
21.3504
 20
74.6935
 30
0.000000
  70
    32
  0
VERTEX
  8
0
  5
C9A
 10
21.4435
 20
74.7731
 30
0.000000
  70
    32
  0
VERTEX
  8
0
  5
C9B
 10
21.5342
 20
74.8580
 30
0.000000
  70
    32
  0
VERTEX
  8
0
  5
C9C
 10
21.6225
 20
74.9479
 30
0.000000
  70
    32
  0
VERTEX
  8
0
  5
C9D
 10
21.7081
 20
75.0428
 30
0.000000
  70
    32
  0
VERTEX
  8
0
  5
C9E
 10
21.7909
 20
75.1425
 30
0.000000
  70
    32
  0
VERTEX
  8
0
  5
C9F
 10
21.8709
 20
75.2468
 30
0.000000
  70
    32
  0
VERTEX
  8
0
  5
CA0
 10
21.9477
 20
75.3557
 30
0.000000
  70
    32
  0
VERTEX
  8
0
  5
CA1
 10
22.0215
 20
75.4688
 30
0.000000
  70
    32
  0
VERTEX
  8
0
  5
CA2
 10
22.0919
 20
75.5860
 30
0.000000
  70
    32
  0
VERTEX
  8
0
  5
CA3
 10
22.1590
 20
75.7071
 30
0.000000
  70
    32
  0
VERTEX
  8
0
  5
CA4
 10
22.2225
 20
75.8319
 30
0.000000
  70
    32
  0
VERTEX
  8
0
  5
CA5
 10
22.2825
 20
75.9603
 30
0.000000
  70
    32
  0
VERTEX
  8
0
  5
CA6
 10
22.3387
 20
76.0920
 30
0.000000
  70
    32
  0
VERTEX
  8
0
  5
CA7
 10
22.3912
 20
76.2267
 30
0.000000
  70
    32
  0
VERTEX
  8
0
  5
CA8
 10
22.4397
 20
76.3644
 30
0.000000
  70
    32
  0
VERTEX
  8
0
  5
CA9
 10
22.4844
 20
76.5047
 30
0.000000
  70
    32
  0
VERTEX
  8
0
  5
CAA
 10
22.5249
 20
76.6474
 30
0.000000
  70
    32
  0
VERTEX
  8
0
  5
CAB
 10
22.5614
 20
76.7923
 30
0.000000
  70
    32
  0
VERTEX
  8
0
  5
CAC
 10
22.5937
 20
76.9392
 30
0.000000
  70
    32
  0
VERTEX
  8
0
  5
CAD
 10
22.6218
 20
77.0878
 30
0.000000
  70
    32
  0
VERTEX
  8
0
  5
CAE
 10
22.6457
 20
77.2379
 30
0.000000
  70
    32
  0
VERTEX
  8
0
  5
CAF
 10
22.6652
 20
77.3893
 30
0.000000
  70
    32
  0
VERTEX
  8
0
  5
CB0
 10
22.6805
 20
77.5416
 30
0.000000
  70
    32
  0
VERTEX
  8
0
  5
CB1
 10
22.6914
 20
77.6946
 30
0.000000
  70
    32
  0
VERTEX
  8
0
  5
CB2
 10
22.6979
 20
77.8482
 30
0.000000
  70
    32
  0
VERTEX
  8
0
  5
CB3
 10
22.7000
 20
78.0020
 30
0.000000
  70
    32
  0
VERTEX
  8
0
  5
CB4
 10
22.6978
 20
78.1558
 30
0.000000
  70
    32
  0
VERTEX
  8
0
  5
CB5
 10
22.6911
 20
78.3093
 30
0.000000
  70
    32
  0
VERTEX
  8
0
  5
CB6
 10
22.6801
 20
78.4624
 30
0.000000
  70
    32
  0
VERTEX
  8
0
  5
CB7
 10
22.6648
 20
78.6147
 30
0.000000
  70
    32
  0
VERTEX
  8
0
  5
CB8
 10
22.6451
 20
78.7660
 30
0.000000
  70
    32
  0
VERTEX
  8
0
  5
CB9
 10
22.6212
 20
78.9160
 30
0.000000
  70
    32
  0
VERTEX
  8
0
  5
CBA
 10
22.5929
 20
79.0646
 30
0.000000
  70
    32
  0
VERTEX
  8
0
  5
CBB
 10
22.5605
 20
79.2114
 30
0.000000
  70
    32
  0
VERTEX
  8
0
  5
CBC
 10
22.5239
 20
79.3563
 30
0.000000
  70
    32
  0
VERTEX
  8
0
  5
CBD
 10
22.4833
 20
79.4990
 30
0.000000
  70
    32
  0
VERTEX
  8
0
  5
CBE
 10
22.4385
 20
79.6392
 30
0.000000
  70
    32
  0
VERTEX
  8
0
  5
CBF
 10
22.3899
 20
79.7768
 30
0.000000
  70
    32
  0
VERTEX
  8
0
  5
CC0
 10
22.3373
 20
79.9115
 30
0.000000
  70
    32
  0
VERTEX
  8
0
  5
CC1
 10
22.2810
 20
80.0431
 30
0.000000
  70
    32
  0
VERTEX
  8
0
  5
CC2
 10
22.2209
 20
80.1714
 30
0.000000
  70
    32
  0
VERTEX
  8
0
  5
CC3
 10
22.1573
 20
80.2961
 30
0.000000
  70
    32
  0
VERTEX
  8
0
  5
CC4
 10
22.0902
 20
80.4171
 30
0.000000
  70
    32
  0
VERTEX
  8
0
  5
CC5
 10
22.0196
 20
80.5342
 30
0.000000
  70
    32
  0
VERTEX
  8
0
  5
CC6
 10
21.9458
 20
80.6472
 30
0.000000
  70
    32
  0
VERTEX
  8
0
  5
CC7
 10
21.8688
 20
80.7559
 30
0.000000
  70
    32
  0
VERTEX
  8
0
  5
CC8
 10
21.7888
 20
80.8601
 30
0.000000
  70
    32
  0
VERTEX
  8
0
  5
CC9
 10
21.7059
 20
80.9597
 30
0.000000
  70
    32
  0
VERTEX
  8
0
  5
CCA
 10
21.6202
 20
81.0545
 30
0.000000
  70
    32
  0
VERTEX
  8
0
  5
CCB
 10
21.5319
 20
81.1443
 30
0.000000
  70
    32
  0
VERTEX
  8
0
  5
CCC
 10
21.4411
 20
81.2290
 30
0.000000
  70
    32
  0
SEQEND
  8
0
  5
CCD
  0
POLYLINE
  5
57
  8
0
  6
HIDDEN
 62
     8
 10
18.55889642981532
 20
116.22900000000001
 30
0.0
 66
     1
 70
     8
  0
VERTEX
  8
0
  5
CCE
 10
18.5589
 20
116.229
 30
0.000000
  70
    32
  0
VERTEX
  8
0
  5
CCF
 10
18.4681
 20
116.144
 30
0.000000
  70
    32
  0
VERTEX
  8
0
  5
CD0
 10
18.3798
 20
116.054
 30
0.000000
  70
    32
  0
VERTEX
  8
0
  5
CD1
 10
18.2941
 20
115.960
 30
0.000000
  70
    32
  0
VERTEX
  8
0
  5
CD2
 10
18.2112
 20
115.860
 30
0.000000
  70
    32
  0
VERTEX
  8
0
  5
CD3
 10
18.1312
 20
115.756
 30
0.000000
  70
    32
  0
VERTEX
  8
0
  5
CD4
 10
18.0542
 20
115.647
 30
0.000000
  70
    32
  0
VERTEX
  8
0
  5
CD5
 10
17.9804
 20
115.534
 30
0.000000
  70
    32
  0
VERTEX
  8
0
  5
CD6
 10
17.9098
 20
115.417
 30
0.000000
  70
    32
  0
VERTEX
  8
0
  5
CD7
 10
17.8427
 20
115.296
 30
0.000000
  70
    32
  0
VERTEX
  8
0
  5
CD8
 10
17.7791
 20
115.171
 30
0.000000
  70
    32
  0
VERTEX
  8
0
  5
CD9
 10
17.7190
 20
115.043
 30
0.000000
  70
    32
  0
VERTEX
  8
0
  5
CDA
 10
17.6627
 20
114.911
 30
0.000000
  70
    32
  0
VERTEX
  8
0
  5
CDB
 10
17.6101
 20
114.777
 30
0.000000
  70
    32
  0
VERTEX
  8
0
  5
CDC
 10
17.5615
 20
114.639
 30
0.000000
  70
    32
  0
VERTEX
  8
0
  5
CDD
 10
17.5167
 20
114.499
 30
0.000000
  70
    32
  0
VERTEX
  8
0
  5
CDE
 10
17.4761
 20
114.356
 30
0.000000
  70
    32
  0
VERTEX
  8
0
  5
CDF
 10
17.4395
 20
114.211
 30
0.000000
  70
    32
  0
VERTEX
  8
0
  5
CE0
 10
17.4071
 20
114.065
 30
0.000000
  70
    32
  0
VERTEX
  8
0
  5
CE1
 10
17.3788
 20
113.916
 30
0.000000
  70
    32
  0
VERTEX
  8
0
  5
CE2
 10
17.3549
 20
113.766
 30
0.000000
  70
    32
  0
VERTEX
  8
0
  5
CE3
 10
17.3352
 20
113.615
 30
0.000000
  70
    32
  0
VERTEX
  8
0
  5
CE4
 10
17.3199
 20
113.462
 30
0.000000
  70
    32
  0
VERTEX
  8
0
  5
CE5
 10
17.3089
 20
113.309
 30
0.000000
  70
    32
  0
VERTEX
  8
0
  5
CE6
 10
17.3022
 20
113.156
 30
0.000000
  70
    32
  0
VERTEX
  8
0
  5
CE7
 10
17.3000
 20
113.002
 30
0.000000
  70
    32
  0
VERTEX
  8
0
  5
CE8
 10
17.3021
 20
112.848
 30
0.000000
  70
    32
  0
VERTEX
  8
0
  5
CE9
 10
17.3086
 20
112.695
 30
0.000000
  70
    32
  0
VERTEX
  8
0
  5
CEA
 10
17.3195
 20
112.542
 30
0.000000
  70
    32
  0
VERTEX
  8
0
  5
CEB
 10
17.3348
 20
112.389
 30
0.000000
  70
    32
  0
VERTEX
  8
0
  5
CEC
 10
17.3543
 20
112.238
 30
0.000000
  70
    32
  0
VERTEX
  8
0
  5
CED
 10
17.3782
 20
112.088
 30
0.000000
  70
    32
  0
VERTEX
  8
0
  5
CEE
 10
17.4063
 20
111.939
 30
0.000000
  70
    32
  0
VERTEX
  8
0
  5
CEF
 10
17.4386
 20
111.792
 30
0.000000
  70
    32
  0
VERTEX
  8
0
  5
CF0
 10
17.4751
 20
111.647
 30
0.000000
  70
    32
  0
VERTEX
  8
0
  5
CF1
 10
17.5156
 20
111.505
 30
0.000000
  70
    32
  0
VERTEX
  8
0
  5
CF2
 10
17.5603
 20
111.364
 30
0.000000
  70
    32
  0
VERTEX
  8
0
  5
CF3
 10
17.6088
 20
111.227
 30
0.000000
  70
    32
  0
VERTEX
  8
0
  5
CF4
 10
17.6613
 20
111.092
 30
0.000000
  70
    32
  0
VERTEX
  8
0
  5
CF5
 10
17.7175
 20
110.960
 30
0.000000
  70
    32
  0
VERTEX
  8
0
  5
CF6
 10
17.7775
 20
110.832
 30
0.000000
  70
    32
  0
VERTEX
  8
0
  5
CF7
 10
17.8410
 20
110.707
 30
0.000000
  70
    32
  0
VERTEX
  8
0
  5
CF8
 10
17.9081
 20
110.586
 30
0.000000
  70
    32
  0
VERTEX
  8
0
  5
CF9
 10
17.9785
 20
110.469
 30
0.000000
  70
    32
  0
VERTEX
  8
0
  5
CFA
 10
18.0523
 20
110.356
 30
0.000000
  70
    32
  0
VERTEX
  8
0
  5
CFB
 10
18.1291
 20
110.247
 30
0.000000
  70
    32
  0
VERTEX
  8
0
  5
CFC
 10
18.2091
 20
110.143
 30
0.000000
  70
    32
  0
VERTEX
  8
0
  5
CFD
 10
18.2919
 20
110.043
 30
0.000000
  70
    32
  0
VERTEX
  8
0
  5
CFE
 10
18.3775
 20
109.948
 30
0.000000
  70
    32
  0
VERTEX
  8
0
  5
CFF
 10
18.4658
 20
109.858
 30
0.000000
  70
    32
  0
VERTEX
  8
0
  5
D00
 10
18.5565
 20
109.773
 30
0.000000
  70
    32
  0
VERTEX
  8
0
  5
D01
 10
18.6496
 20
109.694
 30
0.000000
  70
    32
  0
VERTEX
  8
0
  5
D02
 10
18.7449
 20
109.619
 30
0.000000
  70
    32
  0
VERTEX
  8
0
  5
D03
 10
18.8422
 20
109.551
 30
0.000000
  70
    32
  0
VERTEX
  8
0
  5
D04
 10
18.9414
 20
109.487
 30
0.000000
  70
    32
  0
VERTEX
  8
0
  5
D05
 10
19.0423
 20
109.430
 30
0.000000
  70
    32
  0
VERTEX
  8
0
  5
D06
 10
19.1447
 20
109.378
 30
0.000000
  70
    32
  0
VERTEX
  8
0
  5
D07
 10
19.2486
 20
109.332
 30
0.000000
  70
    32
  0
VERTEX
  8
0
  5
D08
 10
19.3536
 20
109.293
 30
0.000000
  70
    32
  0
VERTEX
  8
0
  5
D09
 10
19.4598
 20
109.259
 30
0.000000
  70
    32
  0
VERTEX
  8
0
  5
D0A
 10
19.5667
 20
109.231
 30
0.000000
  70
    32
  0
VERTEX
  8
0
  5
D0B
 10
19.6744
 20
109.209
 30
0.000000
  70
    32
  0
VERTEX
  8
0
  5
D0C
 10
19.7827
 20
109.194
 30
0.000000
  70
    32
  0
VERTEX
  8
0
  5
D0D
 10
19.8912
 20
109.185
 30
0.000000
  70
    32
  0
VERTEX
  8
0
  5
D0E
 10
20.0000
 20
109.182
 30
0.000000
  70
    32
  0
VERTEX
  8
0
  5
D0F
 10
20.1088
 20
109.185
 30
0.000000
  70
    32
  0
VERTEX
  8
0
  5
D10
 10
20.2173
 20
109.194
 30
0.000000
  70
    32
  0
VERTEX
  8
0
  5
D11
 10
20.3256
 20
109.209
 30
0.000000
  70
    32
  0
VERTEX
  8
0
  5
D12
 10
20.4333
 20
109.231
 30
0.000000
  70
    32
  0
VERTEX
  8
0
  5
D13
 10
20.5402
 20
109.259
 30
0.000000
  70
    32
  0
VERTEX
  8
0
  5
D14
 10
20.6464
 20
109.293
 30
0.000000
  70
    32
  0
VERTEX
  8
0
  5
D15
 10
20.7514
 20
109.332
 30
0.000000
  70
    32
  0
VERTEX
  8
0
  5
D16
 10
20.8553
 20
109.378
 30
0.000000
  70
    32
  0
VERTEX
  8
0
  5
D17
 10
20.9577
 20
109.430
 30
0.000000
  70
    32
  0
VERTEX
  8
0
  5
D18
 10
21.0586
 20
109.487
 30
0.000000
  70
    32
  0
VERTEX
  8
0
  5
D19
 10
21.1578
 20
109.551
 30
0.000000
  70
    32
  0
VERTEX
  8
0
  5
D1A
 10
21.2551
 20
109.619
 30
0.000000
  70
    32
  0
VERTEX
  8
0
  5
D1B
 10
21.3504
 20
109.694
 30
0.000000
  70
    32
  0
VERTEX
  8
0
  5
D1C
 10
21.4435
 20
109.773
 30
0.000000
  70
    32
  0
VERTEX
  8
0
  5
D1D
 10
21.5342
 20
109.858
 30
0.000000
  70
    32
  0
VERTEX
  8
0
  5
D1E
 10
21.6225
 20
109.948
 30
0.000000
  70
    32
  0
VERTEX
  8
0
  5
D1F
 10
21.7081
 20
110.043
 30
0.000000
  70
    32
  0
VERTEX
  8
0
  5
D20
 10
21.7909
 20
110.143
 30
0.000000
  70
    32
  0
VERTEX
  8
0
  5
D21
 10
21.8709
 20
110.247
 30
0.000000
  70
    32
  0
VERTEX
  8
0
  5
D22
 10
21.9477
 20
110.356
 30
0.000000
  70
    32
  0
VERTEX
  8
0
  5
D23
 10
22.0215
 20
110.469
 30
0.000000
  70
    32
  0
VERTEX
  8
0
  5
D24
 10
22.0919
 20
110.586
 30
0.000000
  70
    32
  0
VERTEX
  8
0
  5
D25
 10
22.1590
 20
110.707
 30
0.000000
  70
    32
  0
VERTEX
  8
0
  5
D26
 10
22.2225
 20
110.832
 30
0.000000
  70
    32
  0
VERTEX
  8
0
  5
D27
 10
22.2825
 20
110.960
 30
0.000000
  70
    32
  0
VERTEX
  8
0
  5
D28
 10
22.3387
 20
111.092
 30
0.000000
  70
    32
  0
VERTEX
  8
0
  5
D29
 10
22.3912
 20
111.227
 30
0.000000
  70
    32
  0
VERTEX
  8
0
  5
D2A
 10
22.4397
 20
111.364
 30
0.000000
  70
    32
  0
VERTEX
  8
0
  5
D2B
 10
22.4844
 20
111.505
 30
0.000000
  70
    32
  0
VERTEX
  8
0
  5
D2C
 10
22.5249
 20
111.647
 30
0.000000
  70
    32
  0
VERTEX
  8
0
  5
D2D
 10
22.5614
 20
111.792
 30
0.000000
  70
    32
  0
VERTEX
  8
0
  5
D2E
 10
22.5937
 20
111.939
 30
0.000000
  70
    32
  0
VERTEX
  8
0
  5
D2F
 10
22.6218
 20
112.088
 30
0.000000
  70
    32
  0
VERTEX
  8
0
  5
D30
 10
22.6457
 20
112.238
 30
0.000000
  70
    32
  0
VERTEX
  8
0
  5
D31
 10
22.6652
 20
112.389
 30
0.000000
  70
    32
  0
VERTEX
  8
0
  5
D32
 10
22.6805
 20
112.542
 30
0.000000
  70
    32
  0
VERTEX
  8
0
  5
D33
 10
22.6914
 20
112.695
 30
0.000000
  70
    32
  0
VERTEX
  8
0
  5
D34
 10
22.6979
 20
112.848
 30
0.000000
  70
    32
  0
VERTEX
  8
0
  5
D35
 10
22.7000
 20
113.002
 30
0.000000
  70
    32
  0
VERTEX
  8
0
  5
D36
 10
22.6978
 20
113.156
 30
0.000000
  70
    32
  0
VERTEX
  8
0
  5
D37
 10
22.6911
 20
113.309
 30
0.000000
  70
    32
  0
VERTEX
  8
0
  5
D38
 10
22.6801
 20
113.462
 30
0.000000
  70
    32
  0
VERTEX
  8
0
  5
D39
 10
22.6648
 20
113.615
 30
0.000000
  70
    32
  0
VERTEX
  8
0
  5
D3A
 10
22.6451
 20
113.766
 30
0.000000
  70
    32
  0
VERTEX
  8
0
  5
D3B
 10
22.6212
 20
113.916
 30
0.000000
  70
    32
  0
VERTEX
  8
0
  5
D3C
 10
22.5929
 20
114.065
 30
0.000000
  70
    32
  0
VERTEX
  8
0
  5
D3D
 10
22.5605
 20
114.211
 30
0.000000
  70
    32
  0
VERTEX
  8
0
  5
D3E
 10
22.5239
 20
114.356
 30
0.000000
  70
    32
  0
VERTEX
  8
0
  5
D3F
 10
22.4833
 20
114.499
 30
0.000000
  70
    32
  0
VERTEX
  8
0
  5
D40
 10
22.4385
 20
114.639
 30
0.000000
  70
    32
  0
VERTEX
  8
0
  5
D41
 10
22.3899
 20
114.777
 30
0.000000
  70
    32
  0
VERTEX
  8
0
  5
D42
 10
22.3373
 20
114.911
 30
0.000000
  70
    32
  0
VERTEX
  8
0
  5
D43
 10
22.2810
 20
115.043
 30
0.000000
  70
    32
  0
VERTEX
  8
0
  5
D44
 10
22.2209
 20
115.171
 30
0.000000
  70
    32
  0
VERTEX
  8
0
  5
D45
 10
22.1573
 20
115.296
 30
0.000000
  70
    32
  0
VERTEX
  8
0
  5
D46
 10
22.0902
 20
115.417
 30
0.000000
  70
    32
  0
VERTEX
  8
0
  5
D47
 10
22.0196
 20
115.534
 30
0.000000
  70
    32
  0
VERTEX
  8
0
  5
D48
 10
21.9458
 20
115.647
 30
0.000000
  70
    32
  0
VERTEX
  8
0
  5
D49
 10
21.8688
 20
115.756
 30
0.000000
  70
    32
  0
VERTEX
  8
0
  5
D4A
 10
21.7888
 20
115.860
 30
0.000000
  70
    32
  0
VERTEX
  8
0
  5
D4B
 10
21.7059
 20
115.960
 30
0.000000
  70
    32
  0
VERTEX
  8
0
  5
D4C
 10
21.6202
 20
116.054
 30
0.000000
  70
    32
  0
VERTEX
  8
0
  5
D4D
 10
21.5319
 20
116.144
 30
0.000000
  70
    32
  0
VERTEX
  8
0
  5
D4E
 10
21.4411
 20
116.229
 30
0.000000
  70
    32
  0
SEQEND
  8
0
  5
D4F
  0
POLYLINE
  5
58
  8
0
 10
20.000000000000281
 20
130.07106781186542
 30
0.0
 66
     1
 70
     8
  0
VERTEX
  8
0
  5
D50
 10
20.0000
 20
130.071
 30
0.000000
  70
    32
  0
VERTEX
  8
0
  5
D51
 10
19.7547
 20
130.063
 30
0.000000
  70
    32
  0
VERTEX
  8
0
  5
D52
 10
19.5099
 20
130.037
 30
0.000000
  70
    32
  0
VERTEX
  8
0
  5
D53
 10
19.2663
 20
129.995
 30
0.000000
  70
    32
  0
VERTEX
  8
0
  5
D54
 10
19.0245
 20
129.935
 30
0.000000
  70
    32
  0
VERTEX
  8
0
  5
D55
 10
18.7851
 20
129.859
 30
0.000000
  70
    32
  0
VERTEX
  8
0
  5
D56
 10
18.5486
 20
129.767
 30
0.000000
  70
    32
  0
VERTEX
  8
0
  5
D57
 10
18.3156
 20
129.658
 30
0.000000
  70
    32
  0
VERTEX
  8
0
  5
D58
 10
18.0866
 20
129.533
 30
0.000000
  70
    32
  0
VERTEX
  8
0
  5
D59
 10
17.8622
 20
129.392
 30
0.000000
  70
    32
  0
VERTEX
  8
0
  5
D5A
 10
17.6430
 20
129.236
 30
0.000000
  70
    32
  0
VERTEX
  8
0
  5
D5B
 10
17.4295
 20
129.065
 30
0.000000
  70
    32
  0
VERTEX
  8
0
  5
D5C
 10
17.2221
 20
128.879
 30
0.000000
  70
    32
  0
VERTEX
  8
0
  5
D5D
 10
17.0215
 20
128.680
 30
0.000000
  70
    32
  0
VERTEX
  8
0
  5
D5E
 10
16.8280
 20
128.466
 30
0.000000
  70
    32
  0
VERTEX
  8
0
  5
D5F
 10
16.6422
 20
128.239
 30
0.000000
  70
    32
  0
VERTEX
  8
0
  5
D60
 10
16.4645
 20
128.000
 30
0.000000
  70
    32
  0
VERTEX
  8
0
  5
D61
 10
16.2952
 20
127.749
 30
0.000000
  70
    32
  0
VERTEX
  8
0
  5
D62
 10
16.1349
 20
127.486
 30
0.000000
  70
    32
  0
VERTEX
  8
0
  5
D63
 10
15.9840
 20
127.212
 30
0.000000
  70
    32
  0
VERTEX
  8
0
  5
D64
 10
15.8427
 20
126.928
 30
0.000000
  70
    32
  0
VERTEX
  8
0
  5
D65
 10
15.7114
 20
126.635
 30
0.000000
  70
    32
  0
VERTEX
  8
0
  5
D66
 10
15.5904
 20
126.333
 30
0.000000
  70
    32
  0
VERTEX
  8
0
  5
D67
 10
15.4801
 20
126.023
 30
0.000000
  70
    32
  0
VERTEX
  8
0
  5
D68
 10
15.3806
 20
125.706
 30
0.000000
  70
    32
  0
VERTEX
  8
0
  5
D69
 10
15.2923
 20
125.382
 30
0.000000
  70
    32
  0
VERTEX
  8
0
  5
D6A
 10
15.2153
 20
125.053
 30
0.000000
  70
    32
  0
VERTEX
  8
0
  5
D6B
 10
15.1498
 20
124.718
 30
0.000000
  70
    32
  0
VERTEX
  8
0
  5
D6C
 10
15.0961
 20
124.379
 30
0.000000
  70
    32
  0
VERTEX
  8
0
  5
D6D
 10
15.0541
 20
124.038
 30
0.000000
  70
    32
  0
VERTEX
  8
0
  5
D6E
 10
15.0241
 20
123.693
 30
0.000000
  70
    32
  0
VERTEX
  8
0
  5
D6F
 10
15.0060
 20
123.347
 30
0.000000
  70
    32
  0
VERTEX
  8
0
  5
D70
 10
15.0000
 20
123.000
 30
0.000000
  70
    32
  0
VERTEX
  8
0
  5
D71
 10
15.0060
 20
122.653
 30
0.000000
  70
    32
  0
VERTEX
  8
0
  5
D72
 10
15.0241
 20
122.307
 30
0.000000
  70
    32
  0
VERTEX
  8
0
  5
D73
 10
15.0541
 20
121.962
 30
0.000000
  70
    32
  0
VERTEX
  8
0
  5
D74
 10
15.0961
 20
121.621
 30
0.000000
  70
    32
  0
VERTEX
  8
0
  5
D75
 10
15.1498
 20
121.282
 30
0.000000
  70
    32
  0
VERTEX
  8
0
  5
D76
 10
15.2153
 20
120.947
 30
0.000000
  70
    32
  0
VERTEX
  8
0
  5
D77
 10
15.2923
 20
120.618
 30
0.000000
  70
    32
  0
VERTEX
  8
0
  5
D78
 10
15.3806
 20
120.294
 30
0.000000
  70
    32
  0
VERTEX
  8
0
  5
D79
 10
15.4801
 20
119.977
 30
0.000000
  70
    32
  0
VERTEX
  8
0
  5
D7A
 10
15.5904
 20
119.667
 30
0.000000
  70
    32
  0
VERTEX
  8
0
  5
D7B
 10
15.7114
 20
119.365
 30
0.000000
  70
    32
  0
VERTEX
  8
0
  5
D7C
 10
15.8427
 20
119.072
 30
0.000000
  70
    32
  0
VERTEX
  8
0
  5
D7D
 10
15.9840
 20
118.788
 30
0.000000
  70
    32
  0
VERTEX
  8
0
  5
D7E
 10
16.1349
 20
118.514
 30
0.000000
  70
    32
  0
VERTEX
  8
0
  5
D7F
 10
16.2952
 20
118.251
 30
0.000000
  70
    32
  0
VERTEX
  8
0
  5
D80
 10
16.4645
 20
118.000
 30
0.000000
  70
    32
  0
VERTEX
  8
0
  5
D81
 10
16.6422
 20
117.761
 30
0.000000
  70
    32
  0
VERTEX
  8
0
  5
D82
 10
16.8280
 20
117.534
 30
0.000000
  70
    32
  0
VERTEX
  8
0
  5
D83
 10
17.0215
 20
117.320
 30
0.000000
  70
    32
  0
VERTEX
  8
0
  5
D84
 10
17.2221
 20
117.121
 30
0.000000
  70
    32
  0
VERTEX
  8
0
  5
D85
 10
17.4295
 20
116.935
 30
0.000000
  70
    32
  0
VERTEX
  8
0
  5
D86
 10
17.6430
 20
116.764
 30
0.000000
  70
    32
  0
VERTEX
  8
0
  5
D87
 10
17.8622
 20
116.608
 30
0.000000
  70
    32
  0
VERTEX
  8
0
  5
D88
 10
18.0866
 20
116.467
 30
0.000000
  70
    32
  0
VERTEX
  8
0
  5
D89
 10
18.3156
 20
116.342
 30
0.000000
  70
    32
  0
VERTEX
  8
0
  5
D8A
 10
18.5486
 20
116.233
 30
0.000000
  70
    32
  0
VERTEX
  8
0
  5
D8B
 10
18.7851
 20
116.141
 30
0.000000
  70
    32
  0
VERTEX
  8
0
  5
D8C
 10
19.0245
 20
116.065
 30
0.000000
  70
    32
  0
VERTEX
  8
0
  5
D8D
 10
19.2663
 20
116.005
 30
0.000000
  70
    32
  0
VERTEX
  8
0
  5
D8E
 10
19.5099
 20
115.963
 30
0.000000
  70
    32
  0
VERTEX
  8
0
  5
D8F
 10
19.7547
 20
115.937
 30
0.000000
  70
    32
  0
VERTEX
  8
0
  5
D90
 10
20.0000
 20
115.929
 30
0.000000
  70
    32
  0
VERTEX
  8
0
  5
D91
 10
20.2453
 20
115.937
 30
0.000000
  70
    32
  0
VERTEX
  8
0
  5
D92
 10
20.4901
 20
115.963
 30
0.000000
  70
    32
  0
VERTEX
  8
0
  5
D93
 10
20.7337
 20
116.005
 30
0.000000
  70
    32
  0
VERTEX
  8
0
  5
D94
 10
20.9755
 20
116.065
 30
0.000000
  70
    32
  0
VERTEX
  8
0
  5
D95
 10
21.2149
 20
116.141
 30
0.000000
  70
    32
  0
VERTEX
  8
0
  5
D96
 10
21.4514
 20
116.233
 30
0.000000
  70
    32
  0
VERTEX
  8
0
  5
D97
 10
21.6844
 20
116.342
 30
0.000000
  70
    32
  0
VERTEX
  8
0
  5
D98
 10
21.9134
 20
116.467
 30
0.000000
  70
    32
  0
VERTEX
  8
0
  5
D99
 10
22.1378
 20
116.608
 30
0.000000
  70
    32
  0
VERTEX
  8
0
  5
D9A
 10
22.3570
 20
116.764
 30
0.000000
  70
    32
  0
VERTEX
  8
0
  5
D9B
 10
22.5705
 20
116.935
 30
0.000000
  70
    32
  0
VERTEX
  8
0
  5
D9C
 10
22.7779
 20
117.121
 30
0.000000
  70
    32
  0
VERTEX
  8
0
  5
D9D
 10
22.9785
 20
117.320
 30
0.000000
  70
    32
  0
VERTEX
  8
0
  5
D9E
 10
23.1720
 20
117.534
 30
0.000000
  70
    32
  0
VERTEX
  8
0
  5
D9F
 10
23.3578
 20
117.761
 30
0.000000
  70
    32
  0
VERTEX
  8
0
  5
DA0
 10
23.5355
 20
118.000
 30
0.000000
  70
    32
  0
VERTEX
  8
0
  5
DA1
 10
23.7048
 20
118.251
 30
0.000000
  70
    32
  0
VERTEX
  8
0
  5
DA2
 10
23.8651
 20
118.514
 30
0.000000
  70
    32
  0
VERTEX
  8
0
  5
DA3
 10
24.0160
 20
118.788
 30
0.000000
  70
    32
  0
VERTEX
  8
0
  5
DA4
 10
24.1573
 20
119.072
 30
0.000000
  70
    32
  0
VERTEX
  8
0
  5
DA5
 10
24.2886
 20
119.365
 30
0.000000
  70
    32
  0
VERTEX
  8
0
  5
DA6
 10
24.4096
 20
119.667
 30
0.000000
  70
    32
  0
VERTEX
  8
0
  5
DA7
 10
24.5199
 20
119.977
 30
0.000000
  70
    32
  0
VERTEX
  8
0
  5
DA8
 10
24.6194
 20
120.294
 30
0.000000
  70
    32
  0
VERTEX
  8
0
  5
DA9
 10
24.7077
 20
120.618
 30
0.000000
  70
    32
  0
VERTEX
  8
0
  5
DAA
 10
24.7847
 20
120.947
 30
0.000000
  70
    32
  0
VERTEX
  8
0
  5
DAB
 10
24.8502
 20
121.282
 30
0.000000
  70
    32
  0
VERTEX
  8
0
  5
DAC
 10
24.9039
 20
121.621
 30
0.000000
  70
    32
  0
VERTEX
  8
0
  5
DAD
 10
24.9459
 20
121.962
 30
0.000000
  70
    32
  0
VERTEX
  8
0
  5
DAE
 10
24.9759
 20
122.307
 30
0.000000
  70
    32
  0
VERTEX
  8
0
  5
DAF
 10
24.9940
 20
122.653
 30
0.000000
  70
    32
  0
VERTEX
  8
0
  5
DB0
 10
25.0000
 20
123.000
 30
0.000000
  70
    32
  0
VERTEX
  8
0
  5
DB1
 10
24.9940
 20
123.347
 30
0.000000
  70
    32
  0
VERTEX
  8
0
  5
DB2
 10
24.9759
 20
123.693
 30
0.000000
  70
    32
  0
VERTEX
  8
0
  5
DB3
 10
24.9459
 20
124.038
 30
0.000000
  70
    32
  0
VERTEX
  8
0
  5
DB4
 10
24.9039
 20
124.379
 30
0.000000
  70
    32
  0
VERTEX
  8
0
  5
DB5
 10
24.8502
 20
124.718
 30
0.000000
  70
    32
  0
VERTEX
  8
0
  5
DB6
 10
24.7847
 20
125.053
 30
0.000000
  70
    32
  0
VERTEX
  8
0
  5
DB7
 10
24.7077
 20
125.382
 30
0.000000
  70
    32
  0
VERTEX
  8
0
  5
DB8
 10
24.6194
 20
125.706
 30
0.000000
  70
    32
  0
VERTEX
  8
0
  5
DB9
 10
24.5199
 20
126.023
 30
0.000000
  70
    32
  0
VERTEX
  8
0
  5
DBA
 10
24.4096
 20
126.333
 30
0.000000
  70
    32
  0
VERTEX
  8
0
  5
DBB
 10
24.2886
 20
126.635
 30
0.000000
  70
    32
  0
VERTEX
  8
0
  5
DBC
 10
24.1573
 20
126.928
 30
0.000000
  70
    32
  0
VERTEX
  8
0
  5
DBD
 10
24.0160
 20
127.212
 30
0.000000
  70
    32
  0
VERTEX
  8
0
  5
DBE
 10
23.8651
 20
127.486
 30
0.000000
  70
    32
  0
VERTEX
  8
0
  5
DBF
 10
23.7048
 20
127.749
 30
0.000000
  70
    32
  0
VERTEX
  8
0
  5
DC0
 10
23.5355
 20
128.000
 30
0.000000
  70
    32
  0
VERTEX
  8
0
  5
DC1
 10
23.3578
 20
128.239
 30
0.000000
  70
    32
  0
VERTEX
  8
0
  5
DC2
 10
23.1720
 20
128.466
 30
0.000000
  70
    32
  0
VERTEX
  8
0
  5
DC3
 10
22.9785
 20
128.680
 30
0.000000
  70
    32
  0
VERTEX
  8
0
  5
DC4
 10
22.7779
 20
128.879
 30
0.000000
  70
    32
  0
VERTEX
  8
0
  5
DC5
 10
22.5705
 20
129.065
 30
0.000000
  70
    32
  0
VERTEX
  8
0
  5
DC6
 10
22.3570
 20
129.236
 30
0.000000
  70
    32
  0
VERTEX
  8
0
  5
DC7
 10
22.1378
 20
129.392
 30
0.000000
  70
    32
  0
VERTEX
  8
0
  5
DC8
 10
21.9134
 20
129.533
 30
0.000000
  70
    32
  0
VERTEX
  8
0
  5
DC9
 10
21.6844
 20
129.658
 30
0.000000
  70
    32
  0
VERTEX
  8
0
  5
DCA
 10
21.4514
 20
129.767
 30
0.000000
  70
    32
  0
VERTEX
  8
0
  5
DCB
 10
21.2149
 20
129.859
 30
0.000000
  70
    32
  0
VERTEX
  8
0
  5
DCC
 10
20.9755
 20
129.935
 30
0.000000
  70
    32
  0
VERTEX
  8
0
  5
DCD
 10
20.7337
 20
129.995
 30
0.000000
  70
    32
  0
VERTEX
  8
0
  5
DCE
 10
20.4901
 20
130.037
 30
0.000000
  70
    32
  0
VERTEX
  8
0
  5
DCF
 10
20.2453
 20
130.063
 30
0.000000
  70
    32
  0
VERTEX
  8
0
  5
DD0
 10
20.0000
 20
130.071
 30
0.000000
  70
    32
  0
SEQEND
  8
0
  5
DD1
  0
POLYLINE
  5
59
  8
0
 10
22.500000000000281
 20
117.69669914110086
 30
0.0
 66
     1
 70
     8
  0
VERTEX
  8
0
  5
DD2
 10
22.5000
 20
117.697
 30
0.000000
  70
    32
  0
VERTEX
  8
0
  5
DD3
 10
22.4970
 20
117.783
 30
0.000000
  70
    32
  0
VERTEX
  8
0
  5
DD4
 10
22.4880
 20
117.870
 30
0.000000
  70
    32
  0
VERTEX
  8
0
  5
DD5
 10
22.4729
 20
117.956
 30
0.000000
  70
    32
  0
VERTEX
  8
0
  5
DD6
 10
22.4520
 20
118.042
 30
0.000000
  70
    32
  0
VERTEX
  8
0
  5
DD7
 10
22.4251
 20
118.126
 30
0.000000
  70
    32
  0
VERTEX
  8
0
  5
DD8
 10
22.3924
 20
118.210
 30
0.000000
  70
    32
  0
VERTEX
  8
0
  5
DD9
 10
22.3539
 20
118.292
 30
0.000000
  70
    32
  0
VERTEX
  8
0
  5
DDA
 10
22.3097
 20
118.373
 30
0.000000
  70
    32
  0
VERTEX
  8
0
  5
DDB
 10
22.2600
 20
118.453
 30
0.000000
  70
    32
  0
VERTEX
  8
0
  5
DDC
 10
22.2048
 20
118.530
 30
0.000000
  70
    32
  0
VERTEX
  8
0
  5
DDD
 10
22.1443
 20
118.606
 30
0.000000
  70
    32
  0
VERTEX
  8
0
  5
DDE
 10
22.0787
 20
118.679
 30
0.000000
  70
    32
  0
VERTEX
  8
0
  5
DDF
 10
22.0080
 20
118.750
 30
0.000000
  70
    32
  0
VERTEX
  8
0
  5
DE0
 10
21.9325
 20
118.818
 30
0.000000
  70
    32
  0
VERTEX
  8
0
  5
DE1
 10
21.8524
 20
118.884
 30
0.000000
  70
    32
  0
VERTEX
  8
0
  5
DE2
 10
21.7678
 20
118.947
 30
0.000000
  70
    32
  0
VERTEX
  8
0
  5
DE3
 10
21.6789
 20
119.007
 30
0.000000
  70
    32
  0
VERTEX
  8
0
  5
DE4
 10
21.5860
 20
119.063
 30
0.000000
  70
    32
  0
VERTEX
  8
0
  5
DE5
 10
21.4892
 20
119.117
 30
0.000000
  70
    32
  0
VERTEX
  8
0
  5
DE6
 10
21.3889
 20
119.167
 30
0.000000
  70
    32
  0
VERTEX
  8
0
  5
DE7
 10
21.2853
 20
119.213
 30
0.000000
  70
    32
  0
VERTEX
  8
0
  5
DE8
 10
21.1785
 20
119.256
 30
0.000000
  70
    32
  0
VERTEX
  8
0
  5
DE9
 10
21.0689
 20
119.295
 30
0.000000
  70
    32
  0
VERTEX
  8
0
  5
DEA
 10
20.9567
 20
119.330
 30
0.000000
  70
    32
  0
VERTEX
  8
0
  5
DEB
 10
20.8422
 20
119.361
 30
0.000000
  70
    32
  0
VERTEX
  8
0
  5
DEC
 10
20.7257
 20
119.388
 30
0.000000
  70
    32
  0
VERTEX
  8
0
  5
DED
 10
20.6075
 20
119.411
 30
0.000000
  70
    32
  0
VERTEX
  8
0
  5
DEE
 10
20.4877
 20
119.430
 30
0.000000
  70
    32
  0
VERTEX
  8
0
  5
DEF
 10
20.3668
 20
119.445
 30
0.000000
  70
    32
  0
VERTEX
  8
0
  5
DF0
 10
20.2450
 20
119.456
 30
0.000000
  70
    32
  0
VERTEX
  8
0
  5
DF1
 10
20.1227
 20
119.462
 30
0.000000
  70
    32
  0
VERTEX
  8
0
  5
DF2
 10
20.0000
 20
119.464
 30
0.000000
  70
    32
  0
VERTEX
  8
0
  5
DF3
 10
19.8773
 20
119.462
 30
0.000000
  70
    32
  0
VERTEX
  8
0
  5
DF4
 10
19.7550
 20
119.456
 30
0.000000
  70
    32
  0
VERTEX
  8
0
  5
DF5
 10
19.6332
 20
119.445
 30
0.000000
  70
    32
  0
VERTEX
  8
0
  5
DF6
 10
19.5123
 20
119.430
 30
0.000000
  70
    32
  0
VERTEX
  8
0
  5
DF7
 10
19.3925
 20
119.411
 30
0.000000
  70
    32
  0
VERTEX
  8
0
  5
DF8
 10
19.2743
 20
119.388
 30
0.000000
  70
    32
  0
VERTEX
  8
0
  5
DF9
 10
19.1578
 20
119.361
 30
0.000000
  70
    32
  0
VERTEX
  8
0
  5
DFA
 10
19.0433
 20
119.330
 30
0.000000
  70
    32
  0
VERTEX
  8
0
  5
DFB
 10
18.9311
 20
119.295
 30
0.000000
  70
    32
  0
VERTEX
  8
0
  5
DFC
 10
18.8215
 20
119.256
 30
0.000000
  70
    32
  0
VERTEX
  8
0
  5
DFD
 10
18.7147
 20
119.213
 30
0.000000
  70
    32
  0
VERTEX
  8
0
  5
DFE
 10
18.6111
 20
119.167
 30
0.000000
  70
    32
  0
VERTEX
  8
0
  5
DFF
 10
18.5108
 20
119.117
 30
0.000000
  70
    32
  0
VERTEX
  8
0
  5
E00
 10
18.4140
 20
119.063
 30
0.000000
  70
    32
  0
VERTEX
  8
0
  5
E01
 10
18.3211
 20
119.007
 30
0.000000
  70
    32
  0
VERTEX
  8
0
  5
E02
 10
18.2322
 20
118.947
 30
0.000000
  70
    32
  0
VERTEX
  8
0
  5
E03
 10
18.1476
 20
118.884
 30
0.000000
  70
    32
  0
VERTEX
  8
0
  5
E04
 10
18.0675
 20
118.818
 30
0.000000
  70
    32
  0
VERTEX
  8
0
  5
E05
 10
17.9920
 20
118.750
 30
0.000000
  70
    32
  0
VERTEX
  8
0
  5
E06
 10
17.9213
 20
118.679
 30
0.000000
  70
    32
  0
VERTEX
  8
0
  5
E07
 10
17.8557
 20
118.606
 30
0.000000
  70
    32
  0
VERTEX
  8
0
  5
E08
 10
17.7952
 20
118.530
 30
0.000000
  70
    32
  0
VERTEX
  8
0
  5
E09
 10
17.7400
 20
118.453
 30
0.000000
  70
    32
  0
VERTEX
  8
0
  5
E0A
 10
17.6903
 20
118.373
 30
0.000000
  70
    32
  0
VERTEX
  8
0
  5
E0B
 10
17.6461
 20
118.292
 30
0.000000
  70
    32
  0
VERTEX
  8
0
  5
E0C
 10
17.6076
 20
118.210
 30
0.000000
  70
    32
  0
VERTEX
  8
0
  5
E0D
 10
17.5749
 20
118.126
 30
0.000000
  70
    32
  0
VERTEX
  8
0
  5
E0E
 10
17.5480
 20
118.042
 30
0.000000
  70
    32
  0
VERTEX
  8
0
  5
E0F
 10
17.5271
 20
117.956
 30
0.000000
  70
    32
  0
VERTEX
  8
0
  5
E10
 10
17.5120
 20
117.870
 30
0.000000
  70
    32
  0
VERTEX
  8
0
  5
E11
 10
17.5030
 20
117.783
 30
0.000000
  70
    32
  0
VERTEX
  8
0
  5
E12
 10
17.5000
 20
117.697
 30
0.000000
  70
    32
  0
VERTEX
  8
0
  5
E13
 10
17.5030
 20
117.610
 30
0.000000
  70
    32
  0
VERTEX
  8
0
  5
E14
 10
17.5120
 20
117.523
 30
0.000000
  70
    32
  0
VERTEX
  8
0
  5
E15
 10
17.5271
 20
117.437
 30
0.000000
  70
    32
  0
VERTEX
  8
0
  5
E16
 10
17.5480
 20
117.352
 30
0.000000
  70
    32
  0
VERTEX
  8
0
  5
E17
 10
17.5749
 20
117.267
 30
0.000000
  70
    32
  0
VERTEX
  8
0
  5
E18
 10
17.6076
 20
117.184
 30
0.000000
  70
    32
  0
VERTEX
  8
0
  5
E19
 10
17.6461
 20
117.101
 30
0.000000
  70
    32
  0
VERTEX
  8
0
  5
E1A
 10
17.6903
 20
117.020
 30
0.000000
  70
    32
  0
VERTEX
  8
0
  5
E1B
 10
17.7400
 20
116.941
 30
0.000000
  70
    32
  0
VERTEX
  8
0
  5
E1C
 10
17.7952
 20
116.863
 30
0.000000
  70
    32
  0
VERTEX
  8
0
  5
E1D
 10
17.8557
 20
116.788
 30
0.000000
  70
    32
  0
VERTEX
  8
0
  5
E1E
 10
17.9213
 20
116.715
 30
0.000000
  70
    32
  0
VERTEX
  8
0
  5
E1F
 10
17.9920
 20
116.644
 30
0.000000
  70
    32
  0
VERTEX
  8
0
  5
E20
 10
18.0675
 20
116.575
 30
0.000000
  70
    32
  0
VERTEX
  8
0
  5
E21
 10
18.1476
 20
116.510
 30
0.000000
  70
    32
  0
VERTEX
  8
0
  5
E22
 10
18.2322
 20
116.447
 30
0.000000
  70
    32
  0
VERTEX
  8
0
  5
E23
 10
18.3211
 20
116.387
 30
0.000000
  70
    32
  0
VERTEX
  8
0
  5
E24
 10
18.4140
 20
116.330
 30
0.000000
  70
    32
  0
VERTEX
  8
0
  5
E25
 10
18.5108
 20
116.277
 30
0.000000
  70
    32
  0
VERTEX
  8
0
  5
E26
 10
18.6111
 20
116.227
 30
0.000000
  70
    32
  0
VERTEX
  8
0
  5
E27
 10
18.7147
 20
116.180
 30
0.000000
  70
    32
  0
VERTEX
  8
0
  5
E28
 10
18.8215
 20
116.138
 30
0.000000
  70
    32
  0
VERTEX
  8
0
  5
E29
 10
18.9311
 20
116.099
 30
0.000000
  70
    32
  0
VERTEX
  8
0
  5
E2A
 10
19.0433
 20
116.063
 30
0.000000
  70
    32
  0
VERTEX
  8
0
  5
E2B
 10
19.1578
 20
116.032
 30
0.000000
  70
    32
  0
VERTEX
  8
0
  5
E2C
 10
19.2743
 20
116.005
 30
0.000000
  70
    32
  0
VERTEX
  8
0
  5
E2D
 10
19.3925
 20
115.982
 30
0.000000
  70
    32
  0
VERTEX
  8
0
  5
E2E
 10
19.5123
 20
115.963
 30
0.000000
  70
    32
  0
VERTEX
  8
0
  5
E2F
 10
19.6332
 20
115.948
 30
0.000000
  70
    32
  0
VERTEX
  8
0
  5
E30
 10
19.7550
 20
115.937
 30
0.000000
  70
    32
  0
VERTEX
  8
0
  5
E31
 10
19.8773
 20
115.931
 30
0.000000
  70
    32
  0
VERTEX
  8
0
  5
E32
 10
20.0000
 20
115.929
 30
0.000000
  70
    32
  0
VERTEX
  8
0
  5
E33
 10
20.1227
 20
115.931
 30
0.000000
  70
    32
  0
VERTEX
  8
0
  5
E34
 10
20.2450
 20
115.937
 30
0.000000
  70
    32
  0
VERTEX
  8
0
  5
E35
 10
20.3668
 20
115.948
 30
0.000000
  70
    32
  0
VERTEX
  8
0
  5
E36
 10
20.4877
 20
115.963
 30
0.000000
  70
    32
  0
VERTEX
  8
0
  5
E37
 10
20.6075
 20
115.982
 30
0.000000
  70
    32
  0
VERTEX
  8
0
  5
E38
 10
20.7257
 20
116.005
 30
0.000000
  70
    32
  0
VERTEX
  8
0
  5
E39
 10
20.8422
 20
116.032
 30
0.000000
  70
    32
  0
VERTEX
  8
0
  5
E3A
 10
20.9567
 20
116.063
 30
0.000000
  70
    32
  0
VERTEX
  8
0
  5
E3B
 10
21.0689
 20
116.099
 30
0.000000
  70
    32
  0
VERTEX
  8
0
  5
E3C
 10
21.1785
 20
116.138
 30
0.000000
  70
    32
  0
VERTEX
  8
0
  5
E3D
 10
21.2853
 20
116.180
 30
0.000000
  70
    32
  0
VERTEX
  8
0
  5
E3E
 10
21.3889
 20
116.227
 30
0.000000
  70
    32
  0
VERTEX
  8
0
  5
E3F
 10
21.4892
 20
116.277
 30
0.000000
  70
    32
  0
VERTEX
  8
0
  5
E40
 10
21.5860
 20
116.330
 30
0.000000
  70
    32
  0
VERTEX
  8
0
  5
E41
 10
21.6789
 20
116.387
 30
0.000000
  70
    32
  0
VERTEX
  8
0
  5
E42
 10
21.7678
 20
116.447
 30
0.000000
  70
    32
  0
VERTEX
  8
0
  5
E43
 10
21.8524
 20
116.510
 30
0.000000
  70
    32
  0
VERTEX
  8
0
  5
E44
 10
21.9325
 20
116.575
 30
0.000000
  70
    32
  0
VERTEX
  8
0
  5
E45
 10
22.0080
 20
116.644
 30
0.000000
  70
    32
  0
VERTEX
  8
0
  5
E46
 10
22.0787
 20
116.715
 30
0.000000
  70
    32
  0
VERTEX
  8
0
  5
E47
 10
22.1443
 20
116.788
 30
0.000000
  70
    32
  0
VERTEX
  8
0
  5
E48
 10
22.2048
 20
116.863
 30
0.000000
  70
    32
  0
VERTEX
  8
0
  5
E49
 10
22.2600
 20
116.941
 30
0.000000
  70
    32
  0
VERTEX
  8
0
  5
E4A
 10
22.3097
 20
117.020
 30
0.000000
  70
    32
  0
VERTEX
  8
0
  5
E4B
 10
22.3539
 20
117.101
 30
0.000000
  70
    32
  0
VERTEX
  8
0
  5
E4C
 10
22.3924
 20
117.184
 30
0.000000
  70
    32
  0
VERTEX
  8
0
  5
E4D
 10
22.4251
 20
117.267
 30
0.000000
  70
    32
  0
VERTEX
  8
0
  5
E4E
 10
22.4520
 20
117.352
 30
0.000000
  70
    32
  0
VERTEX
  8
0
  5
E4F
 10
22.4729
 20
117.437
 30
0.000000
  70
    32
  0
VERTEX
  8
0
  5
E50
 10
22.4880
 20
117.523
 30
0.000000
  70
    32
  0
VERTEX
  8
0
  5
E51
 10
22.4970
 20
117.610
 30
0.000000
  70
    32
  0
VERTEX
  8
0
  5
E52
 10
22.5000
 20
117.697
 30
0.000000
  70
    32
  0
SEQEND
  8
0
  5
E53
  0
POLYLINE
  5
5A
  8
0
 10
24.714045207910484
 20
120.64297739604478
 30
0.0
 66
     1
 70
     8
  0
VERTEX
  8
0
  5
E54
 10
24.7140
 20
120.643
 30
0.000000
  70
    32
  0
VERTEX
  8
0
  5
E55
 10
24.6811
 20
120.707
 30
0.000000
  70
    32
  0
VERTEX
  8
0
  5
E56
 10
24.6465
 20
120.770
 30
0.000000
  70
    32
  0
VERTEX
  8
0
  5
E57
 10
24.6101
 20
120.833
 30
0.000000
  70
    32
  0
VERTEX
  8
0
  5
E58
 10
24.5720
 20
120.896
 30
0.000000
  70
    32
  0
VERTEX
  8
0
  5
E59
 10
24.5322
 20
120.958
 30
0.000000
  70
    32
  0
VERTEX
  8
0
  5
E5A
 10
24.4908
 20
121.019
 30
0.000000
  70
    32
  0
VERTEX
  8
0
  5
E5B
 10
24.4477
 20
121.080
 30
0.000000
  70
    32
  0
VERTEX
  8
0
  5
E5C
 10
24.4029
 20
121.140
 30
0.000000
  70
    32
  0
VERTEX
  8
0
  5
E5D
 10
24.3565
 20
121.199
 30
0.000000
  70
    32
  0
VERTEX
  8
0
  5
E5E
 10
24.3085
 20
121.258
 30
0.000000
  70
    32
  0
VERTEX
  8
0
  5
E5F
 10
24.2589
 20
121.317
 30
0.000000
  70
    32
  0
VERTEX
  8
0
  5
E60
 10
24.2078
 20
121.374
 30
0.000000
  70
    32
  0
VERTEX
  8
0
  5
E61
 10
24.1550
 20
121.431
 30
0.000000
  70
    32
  0
VERTEX
  8
0
  5
E62
 10
24.1008
 20
121.487
 30
0.000000
  70
    32
  0
VERTEX
  8
0
  5
E63
 10
24.0450
 20
121.543
 30
0.000000
  70
    32
  0
VERTEX
  8
0
  5
E64
 10
23.9877
 20
121.597
 30
0.000000
  70
    32
  0
VERTEX
  8
0
  5
E65
 10
23.9290
 20
121.651
 30
0.000000
  70
    32
  0
VERTEX
  8
0
  5
E66
 10
23.8688
 20
121.704
 30
0.000000
  70
    32
  0
VERTEX
  8
0
  5
E67
 10
23.8072
 20
121.756
 30
0.000000
  70
    32
  0
VERTEX
  8
0
  5
E68
 10
23.7441
 20
121.808
 30
0.000000
  70
    32
  0
VERTEX
  8
0
  5
E69
 10
23.6797
 20
121.858
 30
0.000000
  70
    32
  0
VERTEX
  8
0
  5
E6A
 10
23.6139
 20
121.908
 30
0.000000
  70
    32
  0
VERTEX
  8
0
  5
E6B
 10
23.5468
 20
121.956
 30
0.000000
  70
    32
  0
VERTEX
  8
0
  5
E6C
 10
23.4783
 20
122.004
 30
0.000000
  70
    32
  0
VERTEX
  8
0
  5
E6D
 10
23.4086
 20
122.051
 30
0.000000
  70
    32
  0
VERTEX
  8
0
  5
E6E
 10
23.3376
 20
122.097
 30
0.000000
  70
    32
  0
VERTEX
  8
0
  5
E6F
 10
23.2654
 20
122.142
 30
0.000000
  70
    32
  0
VERTEX
  8
0
  5
E70
 10
23.1920
 20
122.186
 30
0.000000
  70
    32
  0
VERTEX
  8
0
  5
E71
 10
23.1174
 20
122.229
 30
0.000000
  70
    32
  0
VERTEX
  8
0
  5
E72
 10
23.0416
 20
122.271
 30
0.000000
  70
    32
  0
VERTEX
  8
0
  5
E73
 10
22.9647
 20
122.311
 30
0.000000
  70
    32
  0
VERTEX
  8
0
  5
E74
 10
22.8868
 20
122.351
 30
0.000000
  70
    32
  0
VERTEX
  8
0
  5
E75
 10
22.8077
 20
122.390
 30
0.000000
  70
    32
  0
VERTEX
  8
0
  5
E76
 10
22.7276
 20
122.428
 30
0.000000
  70
    32
  0
VERTEX
  8
0
  5
E77
 10
22.6465
 20
122.464
 30
0.000000
  70
    32
  0
VERTEX
  8
0
  5
E78
 10
22.5644
 20
122.500
 30
0.000000
  70
    32
  0
VERTEX
  8
0
  5
E79
 10
22.4814
 20
122.534
 30
0.000000
  70
    32
  0
VERTEX
  8
0
  5
E7A
 10
22.3975
 20
122.567
 30
0.000000
  70
    32
  0
VERTEX
  8
0
  5
E7B
 10
22.3126
 20
122.599
 30
0.000000
  70
    32
  0
VERTEX
  8
0
  5
E7C
 10
22.2269
 20
122.630
 30
0.000000
  70
    32
  0
VERTEX
  8
0
  5
E7D
 10
22.1404
 20
122.660
 30
0.000000
  70
    32
  0
VERTEX
  8
0
  5
E7E
 10
22.0531
 20
122.688
 30
0.000000
  70
    32
  0
VERTEX
  8
0
  5
E7F
 10
21.9651
 20
122.716
 30
0.000000
  70
    32
  0
VERTEX
  8
0
  5
E80
 10
21.8763
 20
122.742
 30
0.000000
  70
    32
  0
VERTEX
  8
0
  5
E81
 10
21.7868
 20
122.767
 30
0.000000
  70
    32
  0
VERTEX
  8
0
  5
E82
 10
21.6967
 20
122.790
 30
0.000000
  70
    32
  0
VERTEX
  8
0
  5
E83
 10
21.6059
 20
122.813
 30
0.000000
  70
    32
  0
VERTEX
  8
0
  5
E84
 10
21.5145
 20
122.834
 30
0.000000
  70
    32
  0
VERTEX
  8
0
  5
E85
 10
21.4226
 20
122.854
 30
0.000000
  70
    32
  0
VERTEX
  8
0
  5
E86
 10
21.3302
 20
122.873
 30
0.000000
  70
    32
  0
VERTEX
  8
0
  5
E87
 10
21.2372
 20
122.890
 30
0.000000
  70
    32
  0
VERTEX
  8
0
  5
E88
 10
21.1438
 20
122.906
 30
0.000000
  70
    32
  0
VERTEX
  8
0
  5
E89
 10
21.0500
 20
122.921
 30
0.000000
  70
    32
  0
VERTEX
  8
0
  5
E8A
 10
20.9558
 20
122.935
 30
0.000000
  70
    32
  0
VERTEX
  8
0
  5
E8B
 10
20.8612
 20
122.947
 30
0.000000
  70
    32
  0
VERTEX
  8
0
  5
E8C
 10
20.7663
 20
122.958
 30
0.000000
  70
    32
  0
VERTEX
  8
0
  5
E8D
 10
20.6711
 20
122.968
 30
0.000000
  70
    32
  0
VERTEX
  8
0
  5
E8E
 10
20.5757
 20
122.976
 30
0.000000
  70
    32
  0
VERTEX
  8
0
  5
E8F
 10
20.4801
 20
122.984
 30
0.000000
  70
    32
  0
VERTEX
  8
0
  5
E90
 10
20.3843
 20
122.990
 30
0.000000
  70
    32
  0
VERTEX
  8
0
  5
E91
 10
20.2883
 20
122.994
 30
0.000000
  70
    32
  0
VERTEX
  8
0
  5
E92
 10
20.1923
 20
122.997
 30
0.000000
  70
    32
  0
VERTEX
  8
0
  5
E93
 10
20.0962
 20
122.999
 30
0.000000
  70
    32
  0
VERTEX
  8
0
  5
E94
 10
20.0000
 20
123.000
 30
0.000000
  70
    32
  0
VERTEX
  8
0
  5
E95
 10
19.9038
 20
122.999
 30
0.000000
  70
    32
  0
VERTEX
  8
0
  5
E96
 10
19.8077
 20
122.997
 30
0.000000
  70
    32
  0
VERTEX
  8
0
  5
E97
 10
19.7117
 20
122.994
 30
0.000000
  70
    32
  0
VERTEX
  8
0
  5
E98
 10
19.6157
 20
122.990
 30
0.000000
  70
    32
  0
VERTEX
  8
0
  5
E99
 10
19.5199
 20
122.984
 30
0.000000
  70
    32
  0
VERTEX
  8
0
  5
E9A
 10
19.4243
 20
122.976
 30
0.000000
  70
    32
  0
VERTEX
  8
0
  5
E9B
 10
19.3289
 20
122.968
 30
0.000000
  70
    32
  0
VERTEX
  8
0
  5
E9C
 10
19.2337
 20
122.958
 30
0.000000
  70
    32
  0
VERTEX
  8
0
  5
E9D
 10
19.1388
 20
122.947
 30
0.000000
  70
    32
  0
VERTEX
  8
0
  5
E9E
 10
19.0442
 20
122.935
 30
0.000000
  70
    32
  0
VERTEX
  8
0
  5
E9F
 10
18.9500
 20
122.921
 30
0.000000
  70
    32
  0
VERTEX
  8
0
  5
EA0
 10
18.8562
 20
122.906
 30
0.000000
  70
    32
  0
VERTEX
  8
0
  5
EA1
 10
18.7628
 20
122.890
 30
0.000000
  70
    32
  0
VERTEX
  8
0
  5
EA2
 10
18.6698
 20
122.873
 30
0.000000
  70
    32
  0
VERTEX
  8
0
  5
EA3
 10
18.5774
 20
122.854
 30
0.000000
  70
    32
  0
VERTEX
  8
0
  5
EA4
 10
18.4855
 20
122.834
 30
0.000000
  70
    32
  0
VERTEX
  8
0
  5
EA5
 10
18.3941
 20
122.813
 30
0.000000
  70
    32
  0
VERTEX
  8
0
  5
EA6
 10
18.3033
 20
122.790
 30
0.000000
  70
    32
  0
VERTEX
  8
0
  5
EA7
 10
18.2132
 20
122.767
 30
0.000000
  70
    32
  0
VERTEX
  8
0
  5
EA8
 10
18.1237
 20
122.742
 30
0.000000
  70
    32
  0
VERTEX
  8
0
  5
EA9
 10
18.0349
 20
122.716
 30
0.000000
  70
    32
  0
VERTEX
  8
0
  5
EAA
 10
17.9469
 20
122.688
 30
0.000000
  70
    32
  0
VERTEX
  8
0
  5
EAB
 10
17.8596
 20
122.660
 30
0.000000
  70
    32
  0
VERTEX
  8
0
  5
EAC
 10
17.7731
 20
122.630
 30
0.000000
  70
    32
  0
VERTEX
  8
0
  5
EAD
 10
17.6874
 20
122.599
 30
0.000000
  70
    32
  0
VERTEX
  8
0
  5
EAE
 10
17.6025
 20
122.567
 30
0.000000
  70
    32
  0
VERTEX
  8
0
  5
EAF
 10
17.5186
 20
122.534
 30
0.000000
  70
    32
  0
VERTEX
  8
0
  5
EB0
 10
17.4356
 20
122.500
 30
0.000000
  70
    32
  0
VERTEX
  8
0
  5
EB1
 10
17.3535
 20
122.464
 30
0.000000
  70
    32
  0
VERTEX
  8
0
  5
EB2
 10
17.2724
 20
122.428
 30
0.000000
  70
    32
  0
VERTEX
  8
0
  5
EB3
 10
17.1923
 20
122.390
 30
0.000000
  70
    32
  0
VERTEX
  8
0
  5
EB4
 10
17.1132
 20
122.351
 30
0.000000
  70
    32
  0
VERTEX
  8
0
  5
EB5
 10
17.0353
 20
122.311
 30
0.000000
  70
    32
  0
VERTEX
  8
0
  5
EB6
 10
16.9584
 20
122.271
 30
0.000000
  70
    32
  0
VERTEX
  8
0
  5
EB7
 10
16.8826
 20
122.229
 30
0.000000
  70
    32
  0
VERTEX
  8
0
  5
EB8
 10
16.8080
 20
122.186
 30
0.000000
  70
    32
  0
VERTEX
  8
0
  5
EB9
 10
16.7346
 20
122.142
 30
0.000000
  70
    32
  0
VERTEX
  8
0
  5
EBA
 10
16.6624
 20
122.097
 30
0.000000
  70
    32
  0
VERTEX
  8
0
  5
EBB
 10
16.5914
 20
122.051
 30
0.000000
  70
    32
  0
VERTEX
  8
0
  5
EBC
 10
16.5217
 20
122.004
 30
0.000000
  70
    32
  0
VERTEX
  8
0
  5
EBD
 10
16.4532
 20
121.956
 30
0.000000
  70
    32
  0
VERTEX
  8
0
  5
EBE
 10
16.3861
 20
121.908
 30
0.000000
  70
    32
  0
VERTEX
  8
0
  5
EBF
 10
16.3203
 20
121.858
 30
0.000000
  70
    32
  0
VERTEX
  8
0
  5
EC0
 10
16.2559
 20
121.808
 30
0.000000
  70
    32
  0
VERTEX
  8
0
  5
EC1
 10
16.1928
 20
121.756
 30
0.000000
  70
    32
  0
VERTEX
  8
0
  5
EC2
 10
16.1312
 20
121.704
 30
0.000000
  70
    32
  0
VERTEX
  8
0
  5
EC3
 10
16.0710
 20
121.651
 30
0.000000
  70
    32
  0
VERTEX
  8
0
  5
EC4
 10
16.0123
 20
121.597
 30
0.000000
  70
    32
  0
VERTEX
  8
0
  5
EC5
 10
15.9550
 20
121.543
 30
0.000000
  70
    32
  0
VERTEX
  8
0
  5
EC6
 10
15.8992
 20
121.487
 30
0.000000
  70
    32
  0
VERTEX
  8
0
  5
EC7
 10
15.8450
 20
121.431
 30
0.000000
  70
    32
  0
VERTEX
  8
0
  5
EC8
 10
15.7922
 20
121.374
 30
0.000000
  70
    32
  0
VERTEX
  8
0
  5
EC9
 10
15.7411
 20
121.317
 30
0.000000
  70
    32
  0
VERTEX
  8
0
  5
ECA
 10
15.6915
 20
121.258
 30
0.000000
  70
    32
  0
VERTEX
  8
0
  5
ECB
 10
15.6435
 20
121.199
 30
0.000000
  70
    32
  0
VERTEX
  8
0
  5
ECC
 10
15.5971
 20
121.140
 30
0.000000
  70
    32
  0
VERTEX
  8
0
  5
ECD
 10
15.5523
 20
121.080
 30
0.000000
  70
    32
  0
VERTEX
  8
0
  5
ECE
 10
15.5092
 20
121.019
 30
0.000000
  70
    32
  0
VERTEX
  8
0
  5
ECF
 10
15.4678
 20
120.958
 30
0.000000
  70
    32
  0
VERTEX
  8
0
  5
ED0
 10
15.4280
 20
120.896
 30
0.000000
  70
    32
  0
VERTEX
  8
0
  5
ED1
 10
15.3899
 20
120.833
 30
0.000000
  70
    32
  0
VERTEX
  8
0
  5
ED2
 10
15.3535
 20
120.770
 30
0.000000
  70
    32
  0
VERTEX
  8
0
  5
ED3
 10
15.3189
 20
120.707
 30
0.000000
  70
    32
  0
VERTEX
  8
0
  5
ED4
 10
15.2860
 20
120.643
 30
0.000000
  70
    32
  0
SEQEND
  8
0
  5
ED5
  0
POLYLINE
  5
5B
  8
0
 10
24.714045207910484
 20
155.64297739604478
 30
0.0
 66
     1
 70
     8
  0
VERTEX
  8
0
  5
ED6
 10
24.7140
 20
155.643
 30
0.000000
  70
    32
  0
VERTEX
  8
0
  5
ED7
 10
24.6811
 20
155.707
 30
0.000000
  70
    32
  0
VERTEX
  8
0
  5
ED8
 10
24.6465
 20
155.770
 30
0.000000
  70
    32
  0
VERTEX
  8
0
  5
ED9
 10
24.6101
 20
155.833
 30
0.000000
  70
    32
  0
VERTEX
  8
0
  5
EDA
 10
24.5720
 20
155.896
 30
0.000000
  70
    32
  0
VERTEX
  8
0
  5
EDB
 10
24.5322
 20
155.958
 30
0.000000
  70
    32
  0
VERTEX
  8
0
  5
EDC
 10
24.4908
 20
156.019
 30
0.000000
  70
    32
  0
VERTEX
  8
0
  5
EDD
 10
24.4477
 20
156.080
 30
0.000000
  70
    32
  0
VERTEX
  8
0
  5
EDE
 10
24.4029
 20
156.140
 30
0.000000
  70
    32
  0
VERTEX
  8
0
  5
EDF
 10
24.3565
 20
156.199
 30
0.000000
  70
    32
  0
VERTEX
  8
0
  5
EE0
 10
24.3085
 20
156.258
 30
0.000000
  70
    32
  0
VERTEX
  8
0
  5
EE1
 10
24.2589
 20
156.317
 30
0.000000
  70
    32
  0
VERTEX
  8
0
  5
EE2
 10
24.2078
 20
156.374
 30
0.000000
  70
    32
  0
VERTEX
  8
0
  5
EE3
 10
24.1550
 20
156.431
 30
0.000000
  70
    32
  0
VERTEX
  8
0
  5
EE4
 10
24.1008
 20
156.487
 30
0.000000
  70
    32
  0
VERTEX
  8
0
  5
EE5
 10
24.0450
 20
156.543
 30
0.000000
  70
    32
  0
VERTEX
  8
0
  5
EE6
 10
23.9877
 20
156.597
 30
0.000000
  70
    32
  0
VERTEX
  8
0
  5
EE7
 10
23.9290
 20
156.651
 30
0.000000
  70
    32
  0
VERTEX
  8
0
  5
EE8
 10
23.8688
 20
156.704
 30
0.000000
  70
    32
  0
VERTEX
  8
0
  5
EE9
 10
23.8072
 20
156.756
 30
0.000000
  70
    32
  0
VERTEX
  8
0
  5
EEA
 10
23.7441
 20
156.808
 30
0.000000
  70
    32
  0
VERTEX
  8
0
  5
EEB
 10
23.6797
 20
156.858
 30
0.000000
  70
    32
  0
VERTEX
  8
0
  5
EEC
 10
23.6139
 20
156.908
 30
0.000000
  70
    32
  0
VERTEX
  8
0
  5
EED
 10
23.5468
 20
156.956
 30
0.000000
  70
    32
  0
VERTEX
  8
0
  5
EEE
 10
23.4783
 20
157.004
 30
0.000000
  70
    32
  0
VERTEX
  8
0
  5
EEF
 10
23.4086
 20
157.051
 30
0.000000
  70
    32
  0
VERTEX
  8
0
  5
EF0
 10
23.3376
 20
157.097
 30
0.000000
  70
    32
  0
VERTEX
  8
0
  5
EF1
 10
23.2654
 20
157.142
 30
0.000000
  70
    32
  0
VERTEX
  8
0
  5
EF2
 10
23.1920
 20
157.186
 30
0.000000
  70
    32
  0
VERTEX
  8
0
  5
EF3
 10
23.1174
 20
157.229
 30
0.000000
  70
    32
  0
VERTEX
  8
0
  5
EF4
 10
23.0416
 20
157.271
 30
0.000000
  70
    32
  0
VERTEX
  8
0
  5
EF5
 10
22.9647
 20
157.311
 30
0.000000
  70
    32
  0
VERTEX
  8
0
  5
EF6
 10
22.8868
 20
157.351
 30
0.000000
  70
    32
  0
VERTEX
  8
0
  5
EF7
 10
22.8077
 20
157.390
 30
0.000000
  70
    32
  0
VERTEX
  8
0
  5
EF8
 10
22.7276
 20
157.428
 30
0.000000
  70
    32
  0
VERTEX
  8
0
  5
EF9
 10
22.6465
 20
157.464
 30
0.000000
  70
    32
  0
VERTEX
  8
0
  5
EFA
 10
22.5644
 20
157.500
 30
0.000000
  70
    32
  0
VERTEX
  8
0
  5
EFB
 10
22.4814
 20
157.534
 30
0.000000
  70
    32
  0
VERTEX
  8
0
  5
EFC
 10
22.3975
 20
157.567
 30
0.000000
  70
    32
  0
VERTEX
  8
0
  5
EFD
 10
22.3126
 20
157.599
 30
0.000000
  70
    32
  0
VERTEX
  8
0
  5
EFE
 10
22.2269
 20
157.630
 30
0.000000
  70
    32
  0
VERTEX
  8
0
  5
EFF
 10
22.1404
 20
157.660
 30
0.000000
  70
    32
  0
VERTEX
  8
0
  5
F00
 10
22.0531
 20
157.688
 30
0.000000
  70
    32
  0
VERTEX
  8
0
  5
F01
 10
21.9651
 20
157.716
 30
0.000000
  70
    32
  0
VERTEX
  8
0
  5
F02
 10
21.8763
 20
157.742
 30
0.000000
  70
    32
  0
VERTEX
  8
0
  5
F03
 10
21.7868
 20
157.767
 30
0.000000
  70
    32
  0
VERTEX
  8
0
  5
F04
 10
21.6967
 20
157.790
 30
0.000000
  70
    32
  0
VERTEX
  8
0
  5
F05
 10
21.6059
 20
157.813
 30
0.000000
  70
    32
  0
VERTEX
  8
0
  5
F06
 10
21.5145
 20
157.834
 30
0.000000
  70
    32
  0
VERTEX
  8
0
  5
F07
 10
21.4226
 20
157.854
 30
0.000000
  70
    32
  0
VERTEX
  8
0
  5
F08
 10
21.3302
 20
157.873
 30
0.000000
  70
    32
  0
VERTEX
  8
0
  5
F09
 10
21.2372
 20
157.890
 30
0.000000
  70
    32
  0
VERTEX
  8
0
  5
F0A
 10
21.1438
 20
157.906
 30
0.000000
  70
    32
  0
VERTEX
  8
0
  5
F0B
 10
21.0500
 20
157.921
 30
0.000000
  70
    32
  0
VERTEX
  8
0
  5
F0C
 10
20.9558
 20
157.935
 30
0.000000
  70
    32
  0
VERTEX
  8
0
  5
F0D
 10
20.8612
 20
157.947
 30
0.000000
  70
    32
  0
VERTEX
  8
0
  5
F0E
 10
20.7663
 20
157.958
 30
0.000000
  70
    32
  0
VERTEX
  8
0
  5
F0F
 10
20.6711
 20
157.968
 30
0.000000
  70
    32
  0
VERTEX
  8
0
  5
F10
 10
20.5757
 20
157.976
 30
0.000000
  70
    32
  0
VERTEX
  8
0
  5
F11
 10
20.4801
 20
157.984
 30
0.000000
  70
    32
  0
VERTEX
  8
0
  5
F12
 10
20.3843
 20
157.990
 30
0.000000
  70
    32
  0
VERTEX
  8
0
  5
F13
 10
20.2883
 20
157.994
 30
0.000000
  70
    32
  0
VERTEX
  8
0
  5
F14
 10
20.1923
 20
157.997
 30
0.000000
  70
    32
  0
VERTEX
  8
0
  5
F15
 10
20.0962
 20
157.999
 30
0.000000
  70
    32
  0
VERTEX
  8
0
  5
F16
 10
20.0000
 20
158.000
 30
0.000000
  70
    32
  0
VERTEX
  8
0
  5
F17
 10
19.9038
 20
157.999
 30
0.000000
  70
    32
  0
VERTEX
  8
0
  5
F18
 10
19.8077
 20
157.997
 30
0.000000
  70
    32
  0
VERTEX
  8
0
  5
F19
 10
19.7117
 20
157.994
 30
0.000000
  70
    32
  0
VERTEX
  8
0
  5
F1A
 10
19.6157
 20
157.990
 30
0.000000
  70
    32
  0
VERTEX
  8
0
  5
F1B
 10
19.5199
 20
157.984
 30
0.000000
  70
    32
  0
VERTEX
  8
0
  5
F1C
 10
19.4243
 20
157.976
 30
0.000000
  70
    32
  0
VERTEX
  8
0
  5
F1D
 10
19.3289
 20
157.968
 30
0.000000
  70
    32
  0
VERTEX
  8
0
  5
F1E
 10
19.2337
 20
157.958
 30
0.000000
  70
    32
  0
VERTEX
  8
0
  5
F1F
 10
19.1388
 20
157.947
 30
0.000000
  70
    32
  0
VERTEX
  8
0
  5
F20
 10
19.0442
 20
157.935
 30
0.000000
  70
    32
  0
VERTEX
  8
0
  5
F21
 10
18.9500
 20
157.921
 30
0.000000
  70
    32
  0
VERTEX
  8
0
  5
F22
 10
18.8562
 20
157.906
 30
0.000000
  70
    32
  0
VERTEX
  8
0
  5
F23
 10
18.7628
 20
157.890
 30
0.000000
  70
    32
  0
VERTEX
  8
0
  5
F24
 10
18.6698
 20
157.873
 30
0.000000
  70
    32
  0
VERTEX
  8
0
  5
F25
 10
18.5774
 20
157.854
 30
0.000000
  70
    32
  0
VERTEX
  8
0
  5
F26
 10
18.4855
 20
157.834
 30
0.000000
  70
    32
  0
VERTEX
  8
0
  5
F27
 10
18.3941
 20
157.813
 30
0.000000
  70
    32
  0
VERTEX
  8
0
  5
F28
 10
18.3033
 20
157.790
 30
0.000000
  70
    32
  0
VERTEX
  8
0
  5
F29
 10
18.2132
 20
157.767
 30
0.000000
  70
    32
  0
VERTEX
  8
0
  5
F2A
 10
18.1237
 20
157.742
 30
0.000000
  70
    32
  0
VERTEX
  8
0
  5
F2B
 10
18.0349
 20
157.716
 30
0.000000
  70
    32
  0
VERTEX
  8
0
  5
F2C
 10
17.9469
 20
157.688
 30
0.000000
  70
    32
  0
VERTEX
  8
0
  5
F2D
 10
17.8596
 20
157.660
 30
0.000000
  70
    32
  0
VERTEX
  8
0
  5
F2E
 10
17.7731
 20
157.630
 30
0.000000
  70
    32
  0
VERTEX
  8
0
  5
F2F
 10
17.6874
 20
157.599
 30
0.000000
  70
    32
  0
VERTEX
  8
0
  5
F30
 10
17.6025
 20
157.567
 30
0.000000
  70
    32
  0
VERTEX
  8
0
  5
F31
 10
17.5186
 20
157.534
 30
0.000000
  70
    32
  0
VERTEX
  8
0
  5
F32
 10
17.4356
 20
157.500
 30
0.000000
  70
    32
  0
VERTEX
  8
0
  5
F33
 10
17.3535
 20
157.464
 30
0.000000
  70
    32
  0
VERTEX
  8
0
  5
F34
 10
17.2724
 20
157.428
 30
0.000000
  70
    32
  0
VERTEX
  8
0
  5
F35
 10
17.1923
 20
157.390
 30
0.000000
  70
    32
  0
VERTEX
  8
0
  5
F36
 10
17.1132
 20
157.351
 30
0.000000
  70
    32
  0
VERTEX
  8
0
  5
F37
 10
17.0353
 20
157.311
 30
0.000000
  70
    32
  0
VERTEX
  8
0
  5
F38
 10
16.9584
 20
157.271
 30
0.000000
  70
    32
  0
VERTEX
  8
0
  5
F39
 10
16.8826
 20
157.229
 30
0.000000
  70
    32
  0
VERTEX
  8
0
  5
F3A
 10
16.8080
 20
157.186
 30
0.000000
  70
    32
  0
VERTEX
  8
0
  5
F3B
 10
16.7346
 20
157.142
 30
0.000000
  70
    32
  0
VERTEX
  8
0
  5
F3C
 10
16.6624
 20
157.097
 30
0.000000
  70
    32
  0
VERTEX
  8
0
  5
F3D
 10
16.5914
 20
157.051
 30
0.000000
  70
    32
  0
VERTEX
  8
0
  5
F3E
 10
16.5217
 20
157.004
 30
0.000000
  70
    32
  0
VERTEX
  8
0
  5
F3F
 10
16.4532
 20
156.956
 30
0.000000
  70
    32
  0
VERTEX
  8
0
  5
F40
 10
16.3861
 20
156.908
 30
0.000000
  70
    32
  0
VERTEX
  8
0
  5
F41
 10
16.3203
 20
156.858
 30
0.000000
  70
    32
  0
VERTEX
  8
0
  5
F42
 10
16.2559
 20
156.808
 30
0.000000
  70
    32
  0
VERTEX
  8
0
  5
F43
 10
16.1928
 20
156.756
 30
0.000000
  70
    32
  0
VERTEX
  8
0
  5
F44
 10
16.1312
 20
156.704
 30
0.000000
  70
    32
  0
VERTEX
  8
0
  5
F45
 10
16.0710
 20
156.651
 30
0.000000
  70
    32
  0
VERTEX
  8
0
  5
F46
 10
16.0123
 20
156.597
 30
0.000000
  70
    32
  0
VERTEX
  8
0
  5
F47
 10
15.9550
 20
156.543
 30
0.000000
  70
    32
  0
VERTEX
  8
0
  5
F48
 10
15.8992
 20
156.487
 30
0.000000
  70
    32
  0
VERTEX
  8
0
  5
F49
 10
15.8450
 20
156.431
 30
0.000000
  70
    32
  0
VERTEX
  8
0
  5
F4A
 10
15.7922
 20
156.374
 30
0.000000
  70
    32
  0
VERTEX
  8
0
  5
F4B
 10
15.7411
 20
156.317
 30
0.000000
  70
    32
  0
VERTEX
  8
0
  5
F4C
 10
15.6915
 20
156.258
 30
0.000000
  70
    32
  0
VERTEX
  8
0
  5
F4D
 10
15.6435
 20
156.199
 30
0.000000
  70
    32
  0
VERTEX
  8
0
  5
F4E
 10
15.5971
 20
156.140
 30
0.000000
  70
    32
  0
VERTEX
  8
0
  5
F4F
 10
15.5523
 20
156.080
 30
0.000000
  70
    32
  0
VERTEX
  8
0
  5
F50
 10
15.5092
 20
156.019
 30
0.000000
  70
    32
  0
VERTEX
  8
0
  5
F51
 10
15.4678
 20
155.958
 30
0.000000
  70
    32
  0
VERTEX
  8
0
  5
F52
 10
15.4280
 20
155.896
 30
0.000000
  70
    32
  0
VERTEX
  8
0
  5
F53
 10
15.3899
 20
155.833
 30
0.000000
  70
    32
  0
VERTEX
  8
0
  5
F54
 10
15.3535
 20
155.770
 30
0.000000
  70
    32
  0
VERTEX
  8
0
  5
F55
 10
15.3189
 20
155.707
 30
0.000000
  70
    32
  0
VERTEX
  8
0
  5
F56
 10
15.2860
 20
155.643
 30
0.000000
  70
    32
  0
SEQEND
  8
0
  5
F57
  0
POLYLINE
  5
5C
  8
0
 10
22.500000000000281
 20
152.69669914110088
 30
0.0
 66
     1
 70
     8
  0
VERTEX
  8
0
  5
F58
 10
22.5000
 20
152.697
 30
0.000000
  70
    32
  0
VERTEX
  8
0
  5
F59
 10
22.4970
 20
152.783
 30
0.000000
  70
    32
  0
VERTEX
  8
0
  5
F5A
 10
22.4880
 20
152.870
 30
0.000000
  70
    32
  0
VERTEX
  8
0
  5
F5B
 10
22.4729
 20
152.956
 30
0.000000
  70
    32
  0
VERTEX
  8
0
  5
F5C
 10
22.4520
 20
153.042
 30
0.000000
  70
    32
  0
VERTEX
  8
0
  5
F5D
 10
22.4251
 20
153.126
 30
0.000000
  70
    32
  0
VERTEX
  8
0
  5
F5E
 10
22.3924
 20
153.210
 30
0.000000
  70
    32
  0
VERTEX
  8
0
  5
F5F
 10
22.3539
 20
153.292
 30
0.000000
  70
    32
  0
VERTEX
  8
0
  5
F60
 10
22.3097
 20
153.373
 30
0.000000
  70
    32
  0
VERTEX
  8
0
  5
F61
 10
22.2600
 20
153.453
 30
0.000000
  70
    32
  0
VERTEX
  8
0
  5
F62
 10
22.2048
 20
153.530
 30
0.000000
  70
    32
  0
VERTEX
  8
0
  5
F63
 10
22.1443
 20
153.606
 30
0.000000
  70
    32
  0
VERTEX
  8
0
  5
F64
 10
22.0787
 20
153.679
 30
0.000000
  70
    32
  0
VERTEX
  8
0
  5
F65
 10
22.0080
 20
153.750
 30
0.000000
  70
    32
  0
VERTEX
  8
0
  5
F66
 10
21.9325
 20
153.818
 30
0.000000
  70
    32
  0
VERTEX
  8
0
  5
F67
 10
21.8524
 20
153.884
 30
0.000000
  70
    32
  0
VERTEX
  8
0
  5
F68
 10
21.7678
 20
153.947
 30
0.000000
  70
    32
  0
VERTEX
  8
0
  5
F69
 10
21.6789
 20
154.007
 30
0.000000
  70
    32
  0
VERTEX
  8
0
  5
F6A
 10
21.5860
 20
154.063
 30
0.000000
  70
    32
  0
VERTEX
  8
0
  5
F6B
 10
21.4892
 20
154.117
 30
0.000000
  70
    32
  0
VERTEX
  8
0
  5
F6C
 10
21.3889
 20
154.167
 30
0.000000
  70
    32
  0
VERTEX
  8
0
  5
F6D
 10
21.2853
 20
154.213
 30
0.000000
  70
    32
  0
VERTEX
  8
0
  5
F6E
 10
21.1785
 20
154.256
 30
0.000000
  70
    32
  0
VERTEX
  8
0
  5
F6F
 10
21.0689
 20
154.295
 30
0.000000
  70
    32
  0
VERTEX
  8
0
  5
F70
 10
20.9567
 20
154.330
 30
0.000000
  70
    32
  0
VERTEX
  8
0
  5
F71
 10
20.8422
 20
154.361
 30
0.000000
  70
    32
  0
VERTEX
  8
0
  5
F72
 10
20.7257
 20
154.388
 30
0.000000
  70
    32
  0
VERTEX
  8
0
  5
F73
 10
20.6075
 20
154.411
 30
0.000000
  70
    32
  0
VERTEX
  8
0
  5
F74
 10
20.4877
 20
154.430
 30
0.000000
  70
    32
  0
VERTEX
  8
0
  5
F75
 10
20.3668
 20
154.445
 30
0.000000
  70
    32
  0
VERTEX
  8
0
  5
F76
 10
20.2450
 20
154.456
 30
0.000000
  70
    32
  0
VERTEX
  8
0
  5
F77
 10
20.1227
 20
154.462
 30
0.000000
  70
    32
  0
VERTEX
  8
0
  5
F78
 10
20.0000
 20
154.464
 30
0.000000
  70
    32
  0
VERTEX
  8
0
  5
F79
 10
19.8773
 20
154.462
 30
0.000000
  70
    32
  0
VERTEX
  8
0
  5
F7A
 10
19.7550
 20
154.456
 30
0.000000
  70
    32
  0
VERTEX
  8
0
  5
F7B
 10
19.6332
 20
154.445
 30
0.000000
  70
    32
  0
VERTEX
  8
0
  5
F7C
 10
19.5123
 20
154.430
 30
0.000000
  70
    32
  0
VERTEX
  8
0
  5
F7D
 10
19.3925
 20
154.411
 30
0.000000
  70
    32
  0
VERTEX
  8
0
  5
F7E
 10
19.2743
 20
154.388
 30
0.000000
  70
    32
  0
VERTEX
  8
0
  5
F7F
 10
19.1578
 20
154.361
 30
0.000000
  70
    32
  0
VERTEX
  8
0
  5
F80
 10
19.0433
 20
154.330
 30
0.000000
  70
    32
  0
VERTEX
  8
0
  5
F81
 10
18.9311
 20
154.295
 30
0.000000
  70
    32
  0
VERTEX
  8
0
  5
F82
 10
18.8215
 20
154.256
 30
0.000000
  70
    32
  0
VERTEX
  8
0
  5
F83
 10
18.7147
 20
154.213
 30
0.000000
  70
    32
  0
VERTEX
  8
0
  5
F84
 10
18.6111
 20
154.167
 30
0.000000
  70
    32
  0
VERTEX
  8
0
  5
F85
 10
18.5108
 20
154.117
 30
0.000000
  70
    32
  0
VERTEX
  8
0
  5
F86
 10
18.4140
 20
154.063
 30
0.000000
  70
    32
  0
VERTEX
  8
0
  5
F87
 10
18.3211
 20
154.007
 30
0.000000
  70
    32
  0
VERTEX
  8
0
  5
F88
 10
18.2322
 20
153.947
 30
0.000000
  70
    32
  0
VERTEX
  8
0
  5
F89
 10
18.1476
 20
153.884
 30
0.000000
  70
    32
  0
VERTEX
  8
0
  5
F8A
 10
18.0675
 20
153.818
 30
0.000000
  70
    32
  0
VERTEX
  8
0
  5
F8B
 10
17.9920
 20
153.750
 30
0.000000
  70
    32
  0
VERTEX
  8
0
  5
F8C
 10
17.9213
 20
153.679
 30
0.000000
  70
    32
  0
VERTEX
  8
0
  5
F8D
 10
17.8557
 20
153.606
 30
0.000000
  70
    32
  0
VERTEX
  8
0
  5
F8E
 10
17.7952
 20
153.530
 30
0.000000
  70
    32
  0
VERTEX
  8
0
  5
F8F
 10
17.7400
 20
153.453
 30
0.000000
  70
    32
  0
VERTEX
  8
0
  5
F90
 10
17.6903
 20
153.373
 30
0.000000
  70
    32
  0
VERTEX
  8
0
  5
F91
 10
17.6461
 20
153.292
 30
0.000000
  70
    32
  0
VERTEX
  8
0
  5
F92
 10
17.6076
 20
153.210
 30
0.000000
  70
    32
  0
VERTEX
  8
0
  5
F93
 10
17.5749
 20
153.126
 30
0.000000
  70
    32
  0
VERTEX
  8
0
  5
F94
 10
17.5480
 20
153.042
 30
0.000000
  70
    32
  0
VERTEX
  8
0
  5
F95
 10
17.5271
 20
152.956
 30
0.000000
  70
    32
  0
VERTEX
  8
0
  5
F96
 10
17.5120
 20
152.870
 30
0.000000
  70
    32
  0
VERTEX
  8
0
  5
F97
 10
17.5030
 20
152.783
 30
0.000000
  70
    32
  0
VERTEX
  8
0
  5
F98
 10
17.5000
 20
152.697
 30
0.000000
  70
    32
  0
VERTEX
  8
0
  5
F99
 10
17.5030
 20
152.610
 30
0.000000
  70
    32
  0
VERTEX
  8
0
  5
F9A
 10
17.5120
 20
152.523
 30
0.000000
  70
    32
  0
VERTEX
  8
0
  5
F9B
 10
17.5271
 20
152.437
 30
0.000000
  70
    32
  0
VERTEX
  8
0
  5
F9C
 10
17.5480
 20
152.352
 30
0.000000
  70
    32
  0
VERTEX
  8
0
  5
F9D
 10
17.5749
 20
152.267
 30
0.000000
  70
    32
  0
VERTEX
  8
0
  5
F9E
 10
17.6076
 20
152.184
 30
0.000000
  70
    32
  0
VERTEX
  8
0
  5
F9F
 10
17.6461
 20
152.101
 30
0.000000
  70
    32
  0
VERTEX
  8
0
  5
FA0
 10
17.6903
 20
152.020
 30
0.000000
  70
    32
  0
VERTEX
  8
0
  5
FA1
 10
17.7400
 20
151.941
 30
0.000000
  70
    32
  0
VERTEX
  8
0
  5
FA2
 10
17.7952
 20
151.863
 30
0.000000
  70
    32
  0
VERTEX
  8
0
  5
FA3
 10
17.8557
 20
151.788
 30
0.000000
  70
    32
  0
VERTEX
  8
0
  5
FA4
 10
17.9213
 20
151.715
 30
0.000000
  70
    32
  0
VERTEX
  8
0
  5
FA5
 10
17.9920
 20
151.644
 30
0.000000
  70
    32
  0
VERTEX
  8
0
  5
FA6
 10
18.0675
 20
151.575
 30
0.000000
  70
    32
  0
VERTEX
  8
0
  5
FA7
 10
18.1476
 20
151.510
 30
0.000000
  70
    32
  0
VERTEX
  8
0
  5
FA8
 10
18.2322
 20
151.447
 30
0.000000
  70
    32
  0
VERTEX
  8
0
  5
FA9
 10
18.3211
 20
151.387
 30
0.000000
  70
    32
  0
VERTEX
  8
0
  5
FAA
 10
18.4140
 20
151.330
 30
0.000000
  70
    32
  0
VERTEX
  8
0
  5
FAB
 10
18.5108
 20
151.277
 30
0.000000
  70
    32
  0
VERTEX
  8
0
  5
FAC
 10
18.6111
 20
151.227
 30
0.000000
  70
    32
  0
VERTEX
  8
0
  5
FAD
 10
18.7147
 20
151.180
 30
0.000000
  70
    32
  0
VERTEX
  8
0
  5
FAE
 10
18.8215
 20
151.138
 30
0.000000
  70
    32
  0
VERTEX
  8
0
  5
FAF
 10
18.9311
 20
151.099
 30
0.000000
  70
    32
  0
VERTEX
  8
0
  5
FB0
 10
19.0433
 20
151.063
 30
0.000000
  70
    32
  0
VERTEX
  8
0
  5
FB1
 10
19.1578
 20
151.032
 30
0.000000
  70
    32
  0
VERTEX
  8
0
  5
FB2
 10
19.2743
 20
151.005
 30
0.000000
  70
    32
  0
VERTEX
  8
0
  5
FB3
 10
19.3925
 20
150.982
 30
0.000000
  70
    32
  0
VERTEX
  8
0
  5
FB4
 10
19.5123
 20
150.963
 30
0.000000
  70
    32
  0
VERTEX
  8
0
  5
FB5
 10
19.6332
 20
150.948
 30
0.000000
  70
    32
  0
VERTEX
  8
0
  5
FB6
 10
19.7550
 20
150.937
 30
0.000000
  70
    32
  0
VERTEX
  8
0
  5
FB7
 10
19.8773
 20
150.931
 30
0.000000
  70
    32
  0
VERTEX
  8
0
  5
FB8
 10
20.0000
 20
150.929
 30
0.000000
  70
    32
  0
VERTEX
  8
0
  5
FB9
 10
20.1227
 20
150.931
 30
0.000000
  70
    32
  0
VERTEX
  8
0
  5
FBA
 10
20.2450
 20
150.937
 30
0.000000
  70
    32
  0
VERTEX
  8
0
  5
FBB
 10
20.3668
 20
150.948
 30
0.000000
  70
    32
  0
VERTEX
  8
0
  5
FBC
 10
20.4877
 20
150.963
 30
0.000000
  70
    32
  0
VERTEX
  8
0
  5
FBD
 10
20.6075
 20
150.982
 30
0.000000
  70
    32
  0
VERTEX
  8
0
  5
FBE
 10
20.7257
 20
151.005
 30
0.000000
  70
    32
  0
VERTEX
  8
0
  5
FBF
 10
20.8422
 20
151.032
 30
0.000000
  70
    32
  0
VERTEX
  8
0
  5
FC0
 10
20.9567
 20
151.063
 30
0.000000
  70
    32
  0
VERTEX
  8
0
  5
FC1
 10
21.0689
 20
151.099
 30
0.000000
  70
    32
  0
VERTEX
  8
0
  5
FC2
 10
21.1785
 20
151.138
 30
0.000000
  70
    32
  0
VERTEX
  8
0
  5
FC3
 10
21.2853
 20
151.180
 30
0.000000
  70
    32
  0
VERTEX
  8
0
  5
FC4
 10
21.3889
 20
151.227
 30
0.000000
  70
    32
  0
VERTEX
  8
0
  5
FC5
 10
21.4892
 20
151.277
 30
0.000000
  70
    32
  0
VERTEX
  8
0
  5
FC6
 10
21.5860
 20
151.330
 30
0.000000
  70
    32
  0
VERTEX
  8
0
  5
FC7
 10
21.6789
 20
151.387
 30
0.000000
  70
    32
  0
VERTEX
  8
0
  5
FC8
 10
21.7678
 20
151.447
 30
0.000000
  70
    32
  0
VERTEX
  8
0
  5
FC9
 10
21.8524
 20
151.510
 30
0.000000
  70
    32
  0
VERTEX
  8
0
  5
FCA
 10
21.9325
 20
151.575
 30
0.000000
  70
    32
  0
VERTEX
  8
0
  5
FCB
 10
22.0080
 20
151.644
 30
0.000000
  70
    32
  0
VERTEX
  8
0
  5
FCC
 10
22.0787
 20
151.715
 30
0.000000
  70
    32
  0
VERTEX
  8
0
  5
FCD
 10
22.1443
 20
151.788
 30
0.000000
  70
    32
  0
VERTEX
  8
0
  5
FCE
 10
22.2048
 20
151.863
 30
0.000000
  70
    32
  0
VERTEX
  8
0
  5
FCF
 10
22.2600
 20
151.941
 30
0.000000
  70
    32
  0
VERTEX
  8
0
  5
FD0
 10
22.3097
 20
152.020
 30
0.000000
  70
    32
  0
VERTEX
  8
0
  5
FD1
 10
22.3539
 20
152.101
 30
0.000000
  70
    32
  0
VERTEX
  8
0
  5
FD2
 10
22.3924
 20
152.184
 30
0.000000
  70
    32
  0
VERTEX
  8
0
  5
FD3
 10
22.4251
 20
152.267
 30
0.000000
  70
    32
  0
VERTEX
  8
0
  5
FD4
 10
22.4520
 20
152.352
 30
0.000000
  70
    32
  0
VERTEX
  8
0
  5
FD5
 10
22.4729
 20
152.437
 30
0.000000
  70
    32
  0
VERTEX
  8
0
  5
FD6
 10
22.4880
 20
152.523
 30
0.000000
  70
    32
  0
VERTEX
  8
0
  5
FD7
 10
22.4970
 20
152.610
 30
0.000000
  70
    32
  0
VERTEX
  8
0
  5
FD8
 10
22.5000
 20
152.697
 30
0.000000
  70
    32
  0
SEQEND
  8
0
  5
FD9
  0
POLYLINE
  5
5D
  8
0
 10
20.000000000000281
 20
165.07106781186542
 30
0.0
 66
     1
 70
     8
  0
VERTEX
  8
0
  5
FDA
 10
20.0000
 20
165.071
 30
0.000000
  70
    32
  0
VERTEX
  8
0
  5
FDB
 10
19.7547
 20
165.063
 30
0.000000
  70
    32
  0
VERTEX
  8
0
  5
FDC
 10
19.5099
 20
165.037
 30
0.000000
  70
    32
  0
VERTEX
  8
0
  5
FDD
 10
19.2663
 20
164.995
 30
0.000000
  70
    32
  0
VERTEX
  8
0
  5
FDE
 10
19.0245
 20
164.935
 30
0.000000
  70
    32
  0
VERTEX
  8
0
  5
FDF
 10
18.7851
 20
164.859
 30
0.000000
  70
    32
  0
VERTEX
  8
0
  5
FE0
 10
18.5486
 20
164.767
 30
0.000000
  70
    32
  0
VERTEX
  8
0
  5
FE1
 10
18.3156
 20
164.658
 30
0.000000
  70
    32
  0
VERTEX
  8
0
  5
FE2
 10
18.0866
 20
164.533
 30
0.000000
  70
    32
  0
VERTEX
  8
0
  5
FE3
 10
17.8622
 20
164.392
 30
0.000000
  70
    32
  0
VERTEX
  8
0
  5
FE4
 10
17.6430
 20
164.236
 30
0.000000
  70
    32
  0
VERTEX
  8
0
  5
FE5
 10
17.4295
 20
164.065
 30
0.000000
  70
    32
  0
VERTEX
  8
0
  5
FE6
 10
17.2221
 20
163.879
 30
0.000000
  70
    32
  0
VERTEX
  8
0
  5
FE7
 10
17.0215
 20
163.680
 30
0.000000
  70
    32
  0
VERTEX
  8
0
  5
FE8
 10
16.8280
 20
163.466
 30
0.000000
  70
    32
  0
VERTEX
  8
0
  5
FE9
 10
16.6422
 20
163.239
 30
0.000000
  70
    32
  0
VERTEX
  8
0
  5
FEA
 10
16.4645
 20
163.000
 30
0.000000
  70
    32
  0
VERTEX
  8
0
  5
FEB
 10
16.2952
 20
162.749
 30
0.000000
  70
    32
  0
VERTEX
  8
0
  5
FEC
 10
16.1349
 20
162.486
 30
0.000000
  70
    32
  0
VERTEX
  8
0
  5
FED
 10
15.9840
 20
162.212
 30
0.000000
  70
    32
  0
VERTEX
  8
0
  5
FEE
 10
15.8427
 20
161.928
 30
0.000000
  70
    32
  0
VERTEX
  8
0
  5
FEF
 10
15.7114
 20
161.635
 30
0.000000
  70
    32
  0
VERTEX
  8
0
  5
FF0
 10
15.5904
 20
161.333
 30
0.000000
  70
    32
  0
VERTEX
  8
0
  5
FF1
 10
15.4801
 20
161.023
 30
0.000000
  70
    32
  0
VERTEX
  8
0
  5
FF2
 10
15.3806
 20
160.706
 30
0.000000
  70
    32
  0
VERTEX
  8
0
  5
FF3
 10
15.2923
 20
160.382
 30
0.000000
  70
    32
  0
VERTEX
  8
0
  5
FF4
 10
15.2153
 20
160.053
 30
0.000000
  70
    32
  0
VERTEX
  8
0
  5
FF5
 10
15.1498
 20
159.718
 30
0.000000
  70
    32
  0
VERTEX
  8
0
  5
FF6
 10
15.0961
 20
159.379
 30
0.000000
  70
    32
  0
VERTEX
  8
0
  5
FF7
 10
15.0541
 20
159.038
 30
0.000000
  70
    32
  0
VERTEX
  8
0
  5
FF8
 10
15.0241
 20
158.693
 30
0.000000
  70
    32
  0
VERTEX
  8
0
  5
FF9
 10
15.0060
 20
158.347
 30
0.000000
  70
    32
  0
VERTEX
  8
0
  5
FFA
 10
15.0000
 20
158.000
 30
0.000000
  70
    32
  0
VERTEX
  8
0
  5
FFB
 10
15.0060
 20
157.653
 30
0.000000
  70
    32
  0
VERTEX
  8
0
  5
FFC
 10
15.0241
 20
157.307
 30
0.000000
  70
    32
  0
VERTEX
  8
0
  5
FFD
 10
15.0541
 20
156.962
 30
0.000000
  70
    32
  0
VERTEX
  8
0
  5
FFE
 10
15.0961
 20
156.621
 30
0.000000
  70
    32
  0
VERTEX
  8
0
  5
FFF
 10
15.1498
 20
156.282
 30
0.000000
  70
    32
  0
VERTEX
  8
0
  5
1000
 10
15.2153
 20
155.947
 30
0.000000
  70
    32
  0
VERTEX
  8
0
  5
1001
 10
15.2923
 20
155.618
 30
0.000000
  70
    32
  0
VERTEX
  8
0
  5
1002
 10
15.3806
 20
155.294
 30
0.000000
  70
    32
  0
VERTEX
  8
0
  5
1003
 10
15.4801
 20
154.977
 30
0.000000
  70
    32
  0
VERTEX
  8
0
  5
1004
 10
15.5904
 20
154.667
 30
0.000000
  70
    32
  0
VERTEX
  8
0
  5
1005
 10
15.7114
 20
154.365
 30
0.000000
  70
    32
  0
VERTEX
  8
0
  5
1006
 10
15.8427
 20
154.072
 30
0.000000
  70
    32
  0
VERTEX
  8
0
  5
1007
 10
15.9840
 20
153.788
 30
0.000000
  70
    32
  0
VERTEX
  8
0
  5
1008
 10
16.1349
 20
153.514
 30
0.000000
  70
    32
  0
VERTEX
  8
0
  5
1009
 10
16.2952
 20
153.251
 30
0.000000
  70
    32
  0
VERTEX
  8
0
  5
100A
 10
16.4645
 20
153.000
 30
0.000000
  70
    32
  0
VERTEX
  8
0
  5
100B
 10
16.6422
 20
152.761
 30
0.000000
  70
    32
  0
VERTEX
  8
0
  5
100C
 10
16.8280
 20
152.534
 30
0.000000
  70
    32
  0
VERTEX
  8
0
  5
100D
 10
17.0215
 20
152.320
 30
0.000000
  70
    32
  0
VERTEX
  8
0
  5
100E
 10
17.2221
 20
152.121
 30
0.000000
  70
    32
  0
VERTEX
  8
0
  5
100F
 10
17.4295
 20
151.935
 30
0.000000
  70
    32
  0
VERTEX
  8
0
  5
1010
 10
17.6430
 20
151.764
 30
0.000000
  70
    32
  0
VERTEX
  8
0
  5
1011
 10
17.8622
 20
151.608
 30
0.000000
  70
    32
  0
VERTEX
  8
0
  5
1012
 10
18.0866
 20
151.467
 30
0.000000
  70
    32
  0
VERTEX
  8
0
  5
1013
 10
18.3156
 20
151.342
 30
0.000000
  70
    32
  0
VERTEX
  8
0
  5
1014
 10
18.5486
 20
151.233
 30
0.000000
  70
    32
  0
VERTEX
  8
0
  5
1015
 10
18.7851
 20
151.141
 30
0.000000
  70
    32
  0
VERTEX
  8
0
  5
1016
 10
19.0245
 20
151.065
 30
0.000000
  70
    32
  0
VERTEX
  8
0
  5
1017
 10
19.2663
 20
151.005
 30
0.000000
  70
    32
  0
VERTEX
  8
0
  5
1018
 10
19.5099
 20
150.963
 30
0.000000
  70
    32
  0
VERTEX
  8
0
  5
1019
 10
19.7547
 20
150.937
 30
0.000000
  70
    32
  0
VERTEX
  8
0
  5
101A
 10
20.0000
 20
150.929
 30
0.000000
  70
    32
  0
VERTEX
  8
0
  5
101B
 10
20.2453
 20
150.937
 30
0.000000
  70
    32
  0
VERTEX
  8
0
  5
101C
 10
20.4901
 20
150.963
 30
0.000000
  70
    32
  0
VERTEX
  8
0
  5
101D
 10
20.7337
 20
151.005
 30
0.000000
  70
    32
  0
VERTEX
  8
0
  5
101E
 10
20.9755
 20
151.065
 30
0.000000
  70
    32
  0
VERTEX
  8
0
  5
101F
 10
21.2149
 20
151.141
 30
0.000000
  70
    32
  0
VERTEX
  8
0
  5
1020
 10
21.4514
 20
151.233
 30
0.000000
  70
    32
  0
VERTEX
  8
0
  5
1021
 10
21.6844
 20
151.342
 30
0.000000
  70
    32
  0
VERTEX
  8
0
  5
1022
 10
21.9134
 20
151.467
 30
0.000000
  70
    32
  0
VERTEX
  8
0
  5
1023
 10
22.1378
 20
151.608
 30
0.000000
  70
    32
  0
VERTEX
  8
0
  5
1024
 10
22.3570
 20
151.764
 30
0.000000
  70
    32
  0
VERTEX
  8
0
  5
1025
 10
22.5705
 20
151.935
 30
0.000000
  70
    32
  0
VERTEX
  8
0
  5
1026
 10
22.7779
 20
152.121
 30
0.000000
  70
    32
  0
VERTEX
  8
0
  5
1027
 10
22.9785
 20
152.320
 30
0.000000
  70
    32
  0
VERTEX
  8
0
  5
1028
 10
23.1720
 20
152.534
 30
0.000000
  70
    32
  0
VERTEX
  8
0
  5
1029
 10
23.3578
 20
152.761
 30
0.000000
  70
    32
  0
VERTEX
  8
0
  5
102A
 10
23.5355
 20
153.000
 30
0.000000
  70
    32
  0
VERTEX
  8
0
  5
102B
 10
23.7048
 20
153.251
 30
0.000000
  70
    32
  0
VERTEX
  8
0
  5
102C
 10
23.8651
 20
153.514
 30
0.000000
  70
    32
  0
VERTEX
  8
0
  5
102D
 10
24.0160
 20
153.788
 30
0.000000
  70
    32
  0
VERTEX
  8
0
  5
102E
 10
24.1573
 20
154.072
 30
0.000000
  70
    32
  0
VERTEX
  8
0
  5
102F
 10
24.2886
 20
154.365
 30
0.000000
  70
    32
  0
VERTEX
  8
0
  5
1030
 10
24.4096
 20
154.667
 30
0.000000
  70
    32
  0
VERTEX
  8
0
  5
1031
 10
24.5199
 20
154.977
 30
0.000000
  70
    32
  0
VERTEX
  8
0
  5
1032
 10
24.6194
 20
155.294
 30
0.000000
  70
    32
  0
VERTEX
  8
0
  5
1033
 10
24.7077
 20
155.618
 30
0.000000
  70
    32
  0
VERTEX
  8
0
  5
1034
 10
24.7847
 20
155.947
 30
0.000000
  70
    32
  0
VERTEX
  8
0
  5
1035
 10
24.8502
 20
156.282
 30
0.000000
  70
    32
  0
VERTEX
  8
0
  5
1036
 10
24.9039
 20
156.621
 30
0.000000
  70
    32
  0
VERTEX
  8
0
  5
1037
 10
24.9459
 20
156.962
 30
0.000000
  70
    32
  0
VERTEX
  8
0
  5
1038
 10
24.9759
 20
157.307
 30
0.000000
  70
    32
  0
VERTEX
  8
0
  5
1039
 10
24.9940
 20
157.653
 30
0.000000
  70
    32
  0
VERTEX
  8
0
  5
103A
 10
25.0000
 20
158.000
 30
0.000000
  70
    32
  0
VERTEX
  8
0
  5
103B
 10
24.9940
 20
158.347
 30
0.000000
  70
    32
  0
VERTEX
  8
0
  5
103C
 10
24.9759
 20
158.693
 30
0.000000
  70
    32
  0
VERTEX
  8
0
  5
103D
 10
24.9459
 20
159.038
 30
0.000000
  70
    32
  0
VERTEX
  8
0
  5
103E
 10
24.9039
 20
159.379
 30
0.000000
  70
    32
  0
VERTEX
  8
0
  5
103F
 10
24.8502
 20
159.718
 30
0.000000
  70
    32
  0
VERTEX
  8
0
  5
1040
 10
24.7847
 20
160.053
 30
0.000000
  70
    32
  0
VERTEX
  8
0
  5
1041
 10
24.7077
 20
160.382
 30
0.000000
  70
    32
  0
VERTEX
  8
0
  5
1042
 10
24.6194
 20
160.706
 30
0.000000
  70
    32
  0
VERTEX
  8
0
  5
1043
 10
24.5199
 20
161.023
 30
0.000000
  70
    32
  0
VERTEX
  8
0
  5
1044
 10
24.4096
 20
161.333
 30
0.000000
  70
    32
  0
VERTEX
  8
0
  5
1045
 10
24.2886
 20
161.635
 30
0.000000
  70
    32
  0
VERTEX
  8
0
  5
1046
 10
24.1573
 20
161.928
 30
0.000000
  70
    32
  0
VERTEX
  8
0
  5
1047
 10
24.0160
 20
162.212
 30
0.000000
  70
    32
  0
VERTEX
  8
0
  5
1048
 10
23.8651
 20
162.486
 30
0.000000
  70
    32
  0
VERTEX
  8
0
  5
1049
 10
23.7048
 20
162.749
 30
0.000000
  70
    32
  0
VERTEX
  8
0
  5
104A
 10
23.5355
 20
163.000
 30
0.000000
  70
    32
  0
VERTEX
  8
0
  5
104B
 10
23.3578
 20
163.239
 30
0.000000
  70
    32
  0
VERTEX
  8
0
  5
104C
 10
23.1720
 20
163.466
 30
0.000000
  70
    32
  0
VERTEX
  8
0
  5
104D
 10
22.9785
 20
163.680
 30
0.000000
  70
    32
  0
VERTEX
  8
0
  5
104E
 10
22.7779
 20
163.879
 30
0.000000
  70
    32
  0
VERTEX
  8
0
  5
104F
 10
22.5705
 20
164.065
 30
0.000000
  70
    32
  0
VERTEX
  8
0
  5
1050
 10
22.3570
 20
164.236
 30
0.000000
  70
    32
  0
VERTEX
  8
0
  5
1051
 10
22.1378
 20
164.392
 30
0.000000
  70
    32
  0
VERTEX
  8
0
  5
1052
 10
21.9134
 20
164.533
 30
0.000000
  70
    32
  0
VERTEX
  8
0
  5
1053
 10
21.6844
 20
164.658
 30
0.000000
  70
    32
  0
VERTEX
  8
0
  5
1054
 10
21.4514
 20
164.767
 30
0.000000
  70
    32
  0
VERTEX
  8
0
  5
1055
 10
21.2149
 20
164.859
 30
0.000000
  70
    32
  0
VERTEX
  8
0
  5
1056
 10
20.9755
 20
164.935
 30
0.000000
  70
    32
  0
VERTEX
  8
0
  5
1057
 10
20.7337
 20
164.995
 30
0.000000
  70
    32
  0
VERTEX
  8
0
  5
1058
 10
20.4901
 20
165.037
 30
0.000000
  70
    32
  0
VERTEX
  8
0
  5
1059
 10
20.2453
 20
165.063
 30
0.000000
  70
    32
  0
VERTEX
  8
0
  5
105A
 10
20.0000
 20
165.071
 30
0.000000
  70
    32
  0
SEQEND
  8
0
  5
105B
  0
POLYLINE
  5
5E
  8
0
  6
HIDDEN
 62
     8
 10
18.55889642981532
 20
151.22900000000001
 30
0.0
 66
     1
 70
     8
  0
VERTEX
  8
0
  5
105C
 10
18.5589
 20
151.229
 30
0.000000
  70
    32
  0
VERTEX
  8
0
  5
105D
 10
18.4681
 20
151.144
 30
0.000000
  70
    32
  0
VERTEX
  8
0
  5
105E
 10
18.3798
 20
151.054
 30
0.000000
  70
    32
  0
VERTEX
  8
0
  5
105F
 10
18.2941
 20
150.960
 30
0.000000
  70
    32
  0
VERTEX
  8
0
  5
1060
 10
18.2112
 20
150.860
 30
0.000000
  70
    32
  0
VERTEX
  8
0
  5
1061
 10
18.1312
 20
150.756
 30
0.000000
  70
    32
  0
VERTEX
  8
0
  5
1062
 10
18.0542
 20
150.647
 30
0.000000
  70
    32
  0
VERTEX
  8
0
  5
1063
 10
17.9804
 20
150.534
 30
0.000000
  70
    32
  0
VERTEX
  8
0
  5
1064
 10
17.9098
 20
150.417
 30
0.000000
  70
    32
  0
VERTEX
  8
0
  5
1065
 10
17.8427
 20
150.296
 30
0.000000
  70
    32
  0
VERTEX
  8
0
  5
1066
 10
17.7791
 20
150.171
 30
0.000000
  70
    32
  0
VERTEX
  8
0
  5
1067
 10
17.7190
 20
150.043
 30
0.000000
  70
    32
  0
VERTEX
  8
0
  5
1068
 10
17.6627
 20
149.911
 30
0.000000
  70
    32
  0
VERTEX
  8
0
  5
1069
 10
17.6101
 20
149.777
 30
0.000000
  70
    32
  0
VERTEX
  8
0
  5
106A
 10
17.5615
 20
149.639
 30
0.000000
  70
    32
  0
VERTEX
  8
0
  5
106B
 10
17.5167
 20
149.499
 30
0.000000
  70
    32
  0
VERTEX
  8
0
  5
106C
 10
17.4761
 20
149.356
 30
0.000000
  70
    32
  0
VERTEX
  8
0
  5
106D
 10
17.4395
 20
149.211
 30
0.000000
  70
    32
  0
VERTEX
  8
0
  5
106E
 10
17.4071
 20
149.065
 30
0.000000
  70
    32
  0
VERTEX
  8
0
  5
106F
 10
17.3788
 20
148.916
 30
0.000000
  70
    32
  0
VERTEX
  8
0
  5
1070
 10
17.3549
 20
148.766
 30
0.000000
  70
    32
  0
VERTEX
  8
0
  5
1071
 10
17.3352
 20
148.615
 30
0.000000
  70
    32
  0
VERTEX
  8
0
  5
1072
 10
17.3199
 20
148.462
 30
0.000000
  70
    32
  0
VERTEX
  8
0
  5
1073
 10
17.3089
 20
148.309
 30
0.000000
  70
    32
  0
VERTEX
  8
0
  5
1074
 10
17.3022
 20
148.156
 30
0.000000
  70
    32
  0
VERTEX
  8
0
  5
1075
 10
17.3000
 20
148.002
 30
0.000000
  70
    32
  0
VERTEX
  8
0
  5
1076
 10
17.3021
 20
147.848
 30
0.000000
  70
    32
  0
VERTEX
  8
0
  5
1077
 10
17.3086
 20
147.695
 30
0.000000
  70
    32
  0
VERTEX
  8
0
  5
1078
 10
17.3195
 20
147.542
 30
0.000000
  70
    32
  0
VERTEX
  8
0
  5
1079
 10
17.3348
 20
147.389
 30
0.000000
  70
    32
  0
VERTEX
  8
0
  5
107A
 10
17.3543
 20
147.238
 30
0.000000
  70
    32
  0
VERTEX
  8
0
  5
107B
 10
17.3782
 20
147.088
 30
0.000000
  70
    32
  0
VERTEX
  8
0
  5
107C
 10
17.4063
 20
146.939
 30
0.000000
  70
    32
  0
VERTEX
  8
0
  5
107D
 10
17.4386
 20
146.792
 30
0.000000
  70
    32
  0
VERTEX
  8
0
  5
107E
 10
17.4751
 20
146.647
 30
0.000000
  70
    32
  0
VERTEX
  8
0
  5
107F
 10
17.5156
 20
146.505
 30
0.000000
  70
    32
  0
VERTEX
  8
0
  5
1080
 10
17.5603
 20
146.364
 30
0.000000
  70
    32
  0
VERTEX
  8
0
  5
1081
 10
17.6088
 20
146.227
 30
0.000000
  70
    32
  0
VERTEX
  8
0
  5
1082
 10
17.6613
 20
146.092
 30
0.000000
  70
    32
  0
VERTEX
  8
0
  5
1083
 10
17.7175
 20
145.960
 30
0.000000
  70
    32
  0
VERTEX
  8
0
  5
1084
 10
17.7775
 20
145.832
 30
0.000000
  70
    32
  0
VERTEX
  8
0
  5
1085
 10
17.8410
 20
145.707
 30
0.000000
  70
    32
  0
VERTEX
  8
0
  5
1086
 10
17.9081
 20
145.586
 30
0.000000
  70
    32
  0
VERTEX
  8
0
  5
1087
 10
17.9785
 20
145.469
 30
0.000000
  70
    32
  0
VERTEX
  8
0
  5
1088
 10
18.0523
 20
145.356
 30
0.000000
  70
    32
  0
VERTEX
  8
0
  5
1089
 10
18.1291
 20
145.247
 30
0.000000
  70
    32
  0
VERTEX
  8
0
  5
108A
 10
18.2091
 20
145.143
 30
0.000000
  70
    32
  0
VERTEX
  8
0
  5
108B
 10
18.2919
 20
145.043
 30
0.000000
  70
    32
  0
VERTEX
  8
0
  5
108C
 10
18.3775
 20
144.948
 30
0.000000
  70
    32
  0
VERTEX
  8
0
  5
108D
 10
18.4658
 20
144.858
 30
0.000000
  70
    32
  0
VERTEX
  8
0
  5
108E
 10
18.5565
 20
144.773
 30
0.000000
  70
    32
  0
VERTEX
  8
0
  5
108F
 10
18.6496
 20
144.694
 30
0.000000
  70
    32
  0
VERTEX
  8
0
  5
1090
 10
18.7449
 20
144.619
 30
0.000000
  70
    32
  0
VERTEX
  8
0
  5
1091
 10
18.8422
 20
144.551
 30
0.000000
  70
    32
  0
VERTEX
  8
0
  5
1092
 10
18.9414
 20
144.487
 30
0.000000
  70
    32
  0
VERTEX
  8
0
  5
1093
 10
19.0423
 20
144.430
 30
0.000000
  70
    32
  0
VERTEX
  8
0
  5
1094
 10
19.1447
 20
144.378
 30
0.000000
  70
    32
  0
VERTEX
  8
0
  5
1095
 10
19.2486
 20
144.332
 30
0.000000
  70
    32
  0
VERTEX
  8
0
  5
1096
 10
19.3536
 20
144.293
 30
0.000000
  70
    32
  0
VERTEX
  8
0
  5
1097
 10
19.4598
 20
144.259
 30
0.000000
  70
    32
  0
VERTEX
  8
0
  5
1098
 10
19.5667
 20
144.231
 30
0.000000
  70
    32
  0
VERTEX
  8
0
  5
1099
 10
19.6744
 20
144.209
 30
0.000000
  70
    32
  0
VERTEX
  8
0
  5
109A
 10
19.7827
 20
144.194
 30
0.000000
  70
    32
  0
VERTEX
  8
0
  5
109B
 10
19.8912
 20
144.185
 30
0.000000
  70
    32
  0
VERTEX
  8
0
  5
109C
 10
20.0000
 20
144.182
 30
0.000000
  70
    32
  0
VERTEX
  8
0
  5
109D
 10
20.1088
 20
144.185
 30
0.000000
  70
    32
  0
VERTEX
  8
0
  5
109E
 10
20.2173
 20
144.194
 30
0.000000
  70
    32
  0
VERTEX
  8
0
  5
109F
 10
20.3256
 20
144.209
 30
0.000000
  70
    32
  0
VERTEX
  8
0
  5
10A0
 10
20.4333
 20
144.231
 30
0.000000
  70
    32
  0
VERTEX
  8
0
  5
10A1
 10
20.5402
 20
144.259
 30
0.000000
  70
    32
  0
VERTEX
  8
0
  5
10A2
 10
20.6464
 20
144.293
 30
0.000000
  70
    32
  0
VERTEX
  8
0
  5
10A3
 10
20.7514
 20
144.332
 30
0.000000
  70
    32
  0
VERTEX
  8
0
  5
10A4
 10
20.8553
 20
144.378
 30
0.000000
  70
    32
  0
VERTEX
  8
0
  5
10A5
 10
20.9577
 20
144.430
 30
0.000000
  70
    32
  0
VERTEX
  8
0
  5
10A6
 10
21.0586
 20
144.487
 30
0.000000
  70
    32
  0
VERTEX
  8
0
  5
10A7
 10
21.1578
 20
144.551
 30
0.000000
  70
    32
  0
VERTEX
  8
0
  5
10A8
 10
21.2551
 20
144.619
 30
0.000000
  70
    32
  0
VERTEX
  8
0
  5
10A9
 10
21.3504
 20
144.694
 30
0.000000
  70
    32
  0
VERTEX
  8
0
  5
10AA
 10
21.4435
 20
144.773
 30
0.000000
  70
    32
  0
VERTEX
  8
0
  5
10AB
 10
21.5342
 20
144.858
 30
0.000000
  70
    32
  0
VERTEX
  8
0
  5
10AC
 10
21.6225
 20
144.948
 30
0.000000
  70
    32
  0
VERTEX
  8
0
  5
10AD
 10
21.7081
 20
145.043
 30
0.000000
  70
    32
  0
VERTEX
  8
0
  5
10AE
 10
21.7909
 20
145.143
 30
0.000000
  70
    32
  0
VERTEX
  8
0
  5
10AF
 10
21.8709
 20
145.247
 30
0.000000
  70
    32
  0
VERTEX
  8
0
  5
10B0
 10
21.9477
 20
145.356
 30
0.000000
  70
    32
  0
VERTEX
  8
0
  5
10B1
 10
22.0215
 20
145.469
 30
0.000000
  70
    32
  0
VERTEX
  8
0
  5
10B2
 10
22.0919
 20
145.586
 30
0.000000
  70
    32
  0
VERTEX
  8
0
  5
10B3
 10
22.1590
 20
145.707
 30
0.000000
  70
    32
  0
VERTEX
  8
0
  5
10B4
 10
22.2225
 20
145.832
 30
0.000000
  70
    32
  0
VERTEX
  8
0
  5
10B5
 10
22.2825
 20
145.960
 30
0.000000
  70
    32
  0
VERTEX
  8
0
  5
10B6
 10
22.3387
 20
146.092
 30
0.000000
  70
    32
  0
VERTEX
  8
0
  5
10B7
 10
22.3912
 20
146.227
 30
0.000000
  70
    32
  0
VERTEX
  8
0
  5
10B8
 10
22.4397
 20
146.364
 30
0.000000
  70
    32
  0
VERTEX
  8
0
  5
10B9
 10
22.4844
 20
146.505
 30
0.000000
  70
    32
  0
VERTEX
  8
0
  5
10BA
 10
22.5249
 20
146.647
 30
0.000000
  70
    32
  0
VERTEX
  8
0
  5
10BB
 10
22.5614
 20
146.792
 30
0.000000
  70
    32
  0
VERTEX
  8
0
  5
10BC
 10
22.5937
 20
146.939
 30
0.000000
  70
    32
  0
VERTEX
  8
0
  5
10BD
 10
22.6218
 20
147.088
 30
0.000000
  70
    32
  0
VERTEX
  8
0
  5
10BE
 10
22.6457
 20
147.238
 30
0.000000
  70
    32
  0
VERTEX
  8
0
  5
10BF
 10
22.6652
 20
147.389
 30
0.000000
  70
    32
  0
VERTEX
  8
0
  5
10C0
 10
22.6805
 20
147.542
 30
0.000000
  70
    32
  0
VERTEX
  8
0
  5
10C1
 10
22.6914
 20
147.695
 30
0.000000
  70
    32
  0
VERTEX
  8
0
  5
10C2
 10
22.6979
 20
147.848
 30
0.000000
  70
    32
  0
VERTEX
  8
0
  5
10C3
 10
22.7000
 20
148.002
 30
0.000000
  70
    32
  0
VERTEX
  8
0
  5
10C4
 10
22.6978
 20
148.156
 30
0.000000
  70
    32
  0
VERTEX
  8
0
  5
10C5
 10
22.6911
 20
148.309
 30
0.000000
  70
    32
  0
VERTEX
  8
0
  5
10C6
 10
22.6801
 20
148.462
 30
0.000000
  70
    32
  0
VERTEX
  8
0
  5
10C7
 10
22.6648
 20
148.615
 30
0.000000
  70
    32
  0
VERTEX
  8
0
  5
10C8
 10
22.6451
 20
148.766
 30
0.000000
  70
    32
  0
VERTEX
  8
0
  5
10C9
 10
22.6212
 20
148.916
 30
0.000000
  70
    32
  0
VERTEX
  8
0
  5
10CA
 10
22.5929
 20
149.065
 30
0.000000
  70
    32
  0
VERTEX
  8
0
  5
10CB
 10
22.5605
 20
149.211
 30
0.000000
  70
    32
  0
VERTEX
  8
0
  5
10CC
 10
22.5239
 20
149.356
 30
0.000000
  70
    32
  0
VERTEX
  8
0
  5
10CD
 10
22.4833
 20
149.499
 30
0.000000
  70
    32
  0
VERTEX
  8
0
  5
10CE
 10
22.4385
 20
149.639
 30
0.000000
  70
    32
  0
VERTEX
  8
0
  5
10CF
 10
22.3899
 20
149.777
 30
0.000000
  70
    32
  0
VERTEX
  8
0
  5
10D0
 10
22.3373
 20
149.911
 30
0.000000
  70
    32
  0
VERTEX
  8
0
  5
10D1
 10
22.2810
 20
150.043
 30
0.000000
  70
    32
  0
VERTEX
  8
0
  5
10D2
 10
22.2209
 20
150.171
 30
0.000000
  70
    32
  0
VERTEX
  8
0
  5
10D3
 10
22.1573
 20
150.296
 30
0.000000
  70
    32
  0
VERTEX
  8
0
  5
10D4
 10
22.0902
 20
150.417
 30
0.000000
  70
    32
  0
VERTEX
  8
0
  5
10D5
 10
22.0196
 20
150.534
 30
0.000000
  70
    32
  0
VERTEX
  8
0
  5
10D6
 10
21.9458
 20
150.647
 30
0.000000
  70
    32
  0
VERTEX
  8
0
  5
10D7
 10
21.8688
 20
150.756
 30
0.000000
  70
    32
  0
VERTEX
  8
0
  5
10D8
 10
21.7888
 20
150.860
 30
0.000000
  70
    32
  0
VERTEX
  8
0
  5
10D9
 10
21.7059
 20
150.960
 30
0.000000
  70
    32
  0
VERTEX
  8
0
  5
10DA
 10
21.6202
 20
151.054
 30
0.000000
  70
    32
  0
VERTEX
  8
0
  5
10DB
 10
21.5319
 20
151.144
 30
0.000000
  70
    32
  0
VERTEX
  8
0
  5
10DC
 10
21.4411
 20
151.229
 30
0.000000
  70
    32
  0
SEQEND
  8
0
  5
10DD
  0
INSERT
  5
5F
  8
0
  2
SIMPSON-STRONG-TIE
 10
-12.042506668462551
 20
135.63703658974401
 30
0.0
  0
ENDBLK
  5
65
  8
0
  0
ENDSEC
  0
SECTION
  2
ENTITIES
  0
INSERT
  5
2C
  8
0
  2
34716-P2-F
 10
0.0
 20
0.0
 30
0.0
  0
INSERT
  5
66
  8
0
  2
34716-P1-F
 10
0.0
 20
0.0
 30
0.0
  0
ENDSEC
  0
EOF
