  0
SECTION
  2
HEADER
  9
$ACADVER
  1
AC1009
  9
$INSBASE
 10
0.0
 20
0.0
 30
0.0
  9
$EXTMIN
 10
-55.000001328799719
 20
-20.00081865759989
 30
0.0
  9
$EXTMAX
 10
55.000001328800181
 20
0.1627844540866533
 30
0.0
  9
$LIMMIN
 10
0.0
 20
0.0
  9
$LIMMAX
 10
420.0
 20
297.0
  9
$ORTHOMODE
 70
     1
  9
$REGENMODE
 70
     1
  9
$FILLMODE
 70
     1
  9
$QTEXTMODE
 70
     0
  9
$MIRRTEXT
 70
     1
  9
$DRAGMODE
 70
     2
  9
$LTSCALE
 40
1.0
  9
$OSMODE
 70
    47
  9
$ATTMODE
 70
     1
  9
$TEXTSIZE
 40
3.5
  9
$TRACEWID
 40
0.05
  9
$TEXTSTYLE
  7
SST
  9
$CLAYER
  8
0
  9
$CELTYPE
  6
BYLAYER
  9
$CECOLOR
 62
   256
  9
$DIMSCALE
 40
1.0
  9
$DIMASZ
 40
0.18
  9
$DIMEXO
 40
0.0625
  9
$DIMDLI
 40
0.38
  9
$DIMRND
 40
0.0
  9
$DIMDLE
 40
0.0
  9
$DIMEXE
 40
0.18
  9
$DIMTP
 40
0.0
  9
$DIMTM
 40
0.0
  9
$DIMTXT
 40
0.18
  9
$DIMCEN
 40
0.09
  9
$DIMTSZ
 40
0.0
  9
$DIMTOL
 70
     0
  9
$DIMLIM
 70
     0
  9
$DIMTIH
 70
     1
  9
$DIMTOH
 70
     1
  9
$DIMSE1
 70
     0
  9
$DIMSE2
 70
     0
  9
$DIMTAD
 70
     0
  9
$DIMZIN
 70
     0
  9
$DIMBLK
  1

  9
$DIMASO
 70
     1
  9
$DIMSHO
 70
     1
  9
$DIMPOST
  1

  9
$DIMAPOST
  1

  9
$DIMALT
 70
     0
  9
$DIMALTD
 70
     2
  9
$DIMALTF
 40
25.399999999999999
  9
$DIMLFAC
 40
1.0
  9
$DIMTOFL
 70
     0
  9
$DIMTVP
 40
0.0
  9
$DIMTIX
 70
     0
  9
$DIMSOXD
 70
     0
  9
$DIMSAH
 70
     0
  9
$DIMBLK1
  1

  9
$DIMBLK2
  1

  9
$DIMSTYLE
  2
STANDARD
  9
$DIMCLRD
 70
     0
  9
$DIMCLRE
 70
     0
  9
$DIMCLRT
 70
     0
  9
$DIMTFAC
 40
1.0
  9
$DIMGAP
 40
0.09
  9
$LUNITS
 70
     2
  9
$LUPREC
 70
     4
  9
$SKETCHINC
 40
0.1
  9
$FILLETRAD
 40
0.05
  9
$AUNITS
 70
     0
  9
$AUPREC
 70
     2
  9
$MENU
  1
acad
  9
$ELEVATION
 40
0.0
  9
$PELEVATION
 40
0.0
  9
$THICKNESS
 40
0.0
  9
$LIMCHECK
 70
     0
  9
$BLIPMODE
 70
     0
  9
$CHAMFERA
 40
10.0
  9
$CHAMFERB
 40
10.0
  9
$SKPOLY
 70
     0
  9
$TDCREATE
 40
2449450.3780568289
  9
$TDUPDATE
 40
2453443.5693626972
  9
$TDINDWG
 40
2.5354558796000002
  9
$TDUSRTIMER
 40
2.5354558796000002
  9
$USRTIMER
 70
     1
  9
$ANGBASE
 50
0.0
  9
$ANGDIR
 70
     0
  9
$PDMODE
 70
     0
  9
$PDSIZE
 40
0.0
  9
$PLINEWID
 40
0.0
  9
$COORDS
 70
     1
  9
$SPLFRAME
 70
     0
  9
$SPLINETYPE
 70
     6
  9
$SPLINESEGS
 70
     8
  9
$ATTDIA
 70
     0
  9
$ATTREQ
 70
     1
  9
$HANDLING
 70
     1
  9
$HANDSEED
  5
9F
  9
$SURFTAB1
 70
     6
  9
$SURFTAB2
 70
     6
  9
$SURFTYPE
 70
     6
  9
$SURFU
 70
     6
  9
$SURFV
 70
     6
  9
$UCSNAME
  2

  9
$UCSORG
 10
0.0
 20
0.0
 30
0.0
  9
$UCSXDIR
 10
1.0
 20
0.0
 30
0.0
  9
$UCSYDIR
 10
0.0
 20
1.0
 30
0.0
  9
$PUCSNAME
  2

  9
$PUCSORG
 10
0.0
 20
0.0
 30
0.0
  9
$PUCSXDIR
 10
1.0
 20
0.0
 30
0.0
  9
$PUCSYDIR
 10
0.0
 20
1.0
 30
0.0
  9
$USERI1
 70
     0
  9
$USERI2
 70
     0
  9
$USERI3
 70
     0
  9
$USERI4
 70
     0
  9
$USERI5
 70
     0
  9
$USERR1
 40
0.0
  9
$USERR2
 40
0.0
  9
$USERR3
 40
0.0
  9
$USERR4
 40
0.0
  9
$USERR5
 40
0.0
  9
$WORLDVIEW
 70
     1
  9
$SHADEDGE
 70
     3
  9
$SHADEDIF
 70
    70
  9
$TILEMODE
 70
     1
  9
$MAXACTVP
 70
    16
  9
$PLIMCHECK
 70
     0
  9
$PEXTMIN
 10
1.0000000000000000E+020
 20
1.0000000000000000E+020
 30
1.0000000000000000E+020
  9
$PEXTMAX
 10
-1.0000000000000000E+020
 20
-1.0000000000000000E+020
 30
-1.0000000000000000E+020
  9
$PLIMMIN
 10
0.0
 20
0.0
  9
$PLIMMAX
 10
420.0
 20
297.0
  9
$UNITMODE
 70
     0
  9
$VISRETAIN
 70
     0
  9
$PLINEGEN
 70
     0
  9
$PSLTSCALE
 70
     1
  0
ENDSEC
  0
SECTION
  2
TABLES
  0
TABLE
  2
VPORT
 70
     2
  0
VPORT
  2
*ACTIVE
 70
     0
 10
0.0
 20
0.0
 11
1.0
 21
1.0
 12
171.4997873100217
 22
265.02221509218481
 13
0.0
 23
0.0
 14
0.1
 24
0.1
 15
10.0
 25
10.0
 16
0.0
 26
0.0
 36
1.0
 17
0.0
 27
0.0
 37
0.0
 40
718.08145192895563
 41
1.4993646759847521
 42
50.0
 43
0.0
 44
0.0
 50
0.0
 51
0.0
 71
     0
 72
   100
 73
     1
 74
     1
 75
     1
 76
     0
 77
     0
 78
     0
  0
ENDTAB
  0
TABLE
  2
LTYPE
 70
     1
  0
LTYPE
  2
CONTINUOUS
 70
     0
  3
Solid line
 72
    65
 73
     0
 40
0.0
  0
ENDTAB
  0
TABLE
  2
LAYER
 70
     1
  0
LAYER
  2
0
 70
     0
 62
     7
  6
CONTINUOUS
  0
ENDTAB
  0
TABLE
  2
STYLE
 70
     3
  0
STYLE
  2
STANDARD
 70
     0
 40
0.0
 41
1.0
 50
0.0
 71
     0
 42
3.0
  3
txt
  4

  0
STYLE
  2
FISO
 70
     0
 40
3.5
 41
1.0
 50
0.0
 71
     0
 42
3.5
  3
fiso
  4

  0
STYLE
  2
SST
 70
     0
 40
0.0
 41
1.0
 50
0.0
 71
     0
 42
3.5
  3
romans.shx
  4

  0
ENDTAB
  0
TABLE
  2
VIEW
 70
     0
  0
ENDTAB
  0
TABLE
  2
UCS
 70
     0
  0
ENDTAB
  0
TABLE
  2
APPID
 70
     1
  0
APPID
  2
ACAD
 70
     0
  0
ENDTAB
  0
TABLE
  2
DIMSTYLE
 70
     2
  0
DIMSTYLE
  2
NORDIC
 70
     0
  3

  4

  5

  6

  7

 40
1.0
 41
2.0
 42
1.0
 43
10.0
 44
1.0
 45
0.0
 46
0.0
 47
0.0
 48
0.0
140
3.5
141
2.5
142
0.0
143
25.399999999999999
144
1.0
145
0.0
146
1.0
147
0.0
 71
     0
 72
     0
 73
     0
 74
     0
 75
     0
 76
     0
 77
     1
 78
     8
170
     0
171
     2
172
     1
173
     0
174
     0
175
     0
176
     0
177
     0
178
     0
  0
DIMSTYLE
  2
STANDARD
 70
     0
  3

  4

  5

  6

  7

 40
1.0
 41
0.18
 42
0.0625
 43
0.38
 44
0.18
 45
0.0
 46
0.0
 47
0.0
 48
0.0
140
0.18
141
0.09
142
0.0
143
25.399999999999999
144
1.0
145
0.0
146
1.0
147
0.09
 71
     0
 72
     0
 73
     1
 74
     1
 75
     0
 76
     0
 77
     0
 78
     0
170
     0
171
     2
172
     0
173
     0
174
     0
175
     0
176
     0
177
     0
178
     0
  0
ENDTAB
  0
ENDSEC
  0
SECTION
  2
BLOCKS
  0
BLOCK
  8
0
  2
$MODEL_SPACE
 70
     0
 10
0.0
 20
0.0
 30
0.0
  3
$MODEL_SPACE
  1

  0
ENDBLK
  5
9
  8
0
  0
BLOCK
 67
     1
  8
0
  2
$PAPER_SPACE
 70
     0
 10
0.0
 20
0.0
 30
0.0
  3
$PAPER_SPACE
  1

  0
ENDBLK
  5
E
 67
     1
  8
0
  0
BLOCK
  8
0
  2
*X0
 70
     1
 10
0.0
 20
0.0
 30
0.0
  3
*X0
  1

  0
LINE
  5
80
  8
0
 62
     0
 10
52.000028528800392
 20
-9.7569078277204522
 30
0.0
 11
55.000001328800181
 21
-6.7569350277206581
 31
0.0
  0
LINE
  5
81
  8
0
 62
     0
 10
52.000028528800378
 20
-6.2213739217877304
 30
0.0
 11
55.000001328800181
 21
-3.2214011217879199
 31
0.0
  0
LINE
  5
82
  8
0
 62
     0
 10
50.284908447055379
 20
-4.4009600975999907
 30
0.0
 11
54.685868544655378
 21
0.0
 31
0.0
  0
LINE
  5
83
  8
0
 62
     0
 10
46.749374541122641
 20
-4.4009600975999907
 30
0.0
 11
51.150334638722647
 21
0.0
 31
0.0
  0
LINE
  5
84
  8
0
 62
     0
 10
44.998092013600179
 20
-2.6167087191897158
 30
0.0
 11
47.614800732789909
 21
0.0
 31
0.0
  0
LINE
  5
85
  8
0
 62
     0
 10
32.607238917391697
 20
-4.4009600975999774
 30
0.0
 11
34.999182671200067
 21
-2.0090163437916142
 31
0.0
  0
LINE
  5
86
  8
0
 62
     0
 10
27.009289672591681
 20
-9.9989093423999975
 30
0.0
 11
28.00024612880021
 21
-9.0079528861914753
 31
0.0
  0
LINE
  5
87
  8
0
 62
     0
 10
29.07170501145897
 20
-4.4009600975999774
 30
0.0
 11
33.472665109058951
 21
0.0
 31
0.0
  0
LINE
  5
88
  8
0
 62
     0
 10
23.47375576665895
 20
-9.9989093423999975
 30
0.0
 11
28.00024612880021
 21
-5.4724189802587366
 31
0.0
  0
LINE
  5
89
  8
0
 62
     0
 10
19.938221860726209
 20
-9.9989093423999975
 30
0.0
 11
29.93713120312621
 21
0.0
 31
0.0
  0
LINE
  5
8A
  8
0
 62
     0
 10
16.402687954793471
 20
-9.9989093423999975
 30
0.0
 11
26.401597297193469
 21
0.0
 31
0.0
  0
LINE
  5
8B
  8
0
 62
     0
 10
12.86715404886073
 20
-9.9989093423999975
 30
0.0
 11
22.866063391260731
 21
0.0
 31
0.0
  0
LINE
  5
8C
  8
0
 62
     0
 10
15.8117135656196
 20
-3.5188159197083868
 30
0.0
 11
19.33052948532799
 21
0.0
 31
0.0
  0
LINE
  5
8D
  8
0
 62
     0
 10
11.998391213600151
 20
-7.3321382717278416
 30
0.0
 11
15.130567565328141
 21
-4.1999619199998497
 31
0.0
  0
LINE
  5
8E
  8
0
 62
     0
 10
-15.41711719860117
 20
-9.9989093424000046
 30
0.0
 11
-12.00139118639958
 21
-6.5831833301984162
 31
0.0
  0
LINE
  5
8F
  8
0
 62
     0
 10
-18.95265110453391
 20
-9.9989093424000046
 30
0.0
 11
-13.153703682133751
 21
-4.1999619199998497
 31
0.0
  0
LINE
  5
90
  8
0
 62
     0
 10
-22.488185010466651
 20
-9.9989093424000046
 30
0.0
 11
-15.875446985421981
 21
-3.3861713173553341
 31
0.0
  0
LINE
  5
91
  8
0
 62
     0
 10
-26.023718916399389
 20
-9.9989093424000046
 30
0.0
 11
-16.992931322079869
 21
-0.9681217480804846
 31
0.0
  0
LINE
  5
92
  8
0
 62
     0
 10
-28.000246128799741
 20
-8.4399026488676157
 30
0.0
 11
-19.560343479932129
 21
-0.0000000000000071
 31
0.0
  0
LINE
  5
93
  8
0
 62
     0
 10
-28.000246128799741
 20
-4.904368742934877
 30
0.0
 11
-23.09587738586487
 21
-0.0000000000000071
 31
0.0
  0
LINE
  5
94
  8
0
 62
     0
 10
-31.032371389397579
 20
-4.4009600975999836
 30
0.0
 11
-26.631411291797608
 21
-0.0000000000000071
 31
0.0
  0
LINE
  5
95
  8
0
 62
     0
 10
-34.56790529533032
 20
-4.4009600975999836
 30
0.0
 11
-30.16694519773035
 21
-0.0000000000000071
 31
0.0
  0
LINE
  5
96
  8
0
 62
     0
 10
-34.99918267120006
 20
-1.2967035675369869
 30
0.0
 11
-33.70247910366308
 21
-0.0000000000000071
 31
0.0
  0
LINE
  5
97
  8
0
 62
     0
 10
-45.174507013128533
 20
-4.4009600975999836
 30
0.0
 11
-45.001091986399601
 21
-4.2275450708710594
 31
0.0
  0
LINE
  5
98
  8
0
 62
     0
 10
-48.710040919061271
 20
-4.4009600975999836
 30
0.0
 11
-45.001091986399601
 21
-0.6920111649383216
 31
0.0
  0
LINE
  5
99
  8
0
 62
     0
 10
-54.307990163861277
 20
-9.9989093423999975
 30
0.0
 11
-52.000028528799923
 21
-7.6909477073386361
 31
0.0
  0
LINE
  5
9A
  8
0
 62
     0
 10
-55.000001328799719
 20
-7.155386601405695
 30
0.0
 11
-47.844614727394031
 21
-0.0000000000000071
 31
0.0
  0
LINE
  5
9B
  8
0
 62
     0
 10
-55.000001328799719
 20
-3.619852695472964
 30
0.0
 11
-51.380148633326769
 21
-0.0000000000000071
 31
0.0
  0
LINE
  5
9C
  8
0
 62
     0
 10
-55.000001328799719
 20
-0.0843187895402267
 30
0.0
 11
-54.915682539259507
 21
-0.0000000000000071
 31
0.0
  0
ENDBLK
  5
9E
  8
0
  0
ENDSEC
  0
SECTION
  2
ENTITIES
  0
LINE
  5
2B
  8
0
 10
-52.00002852879993
 20
-9.9989093423999975
 30
0.0
 11
-28.000246128799748
 21
-9.9989093423999975
 31
0.0
  0
LINE
  5
2C
  8
0
 10
28.0002461288002
 20
-9.9989093423999975
 30
0.0
 11
52.000028528800392
 21
-9.9989093423999975
 31
0.0
  0
LINE
  5
2D
  8
0
 10
44.998092013600171
 20
0.0
 30
0.0
 11
34.99918267120006
 21
0.0
 31
0.0
  0
LINE
  5
2E
  8
0
 10
-34.99918267120006
 20
-4.4009600975999774
 30
0.0
 11
-45.001091986399608
 21
-4.4009600975999774
 31
0.0
  0
LINE
  5
2F
  8
0
 10
-45.001091986399608
 20
0.0
 30
0.0
 11
-34.99918267120006
 21
0.0
 31
0.0
  0
LINE
  5
30
  8
0
 10
34.99918267120006
 20
-4.4009600975999774
 30
0.0
 11
44.998092013600171
 21
-4.4009600975999774
 31
0.0
  0
LINE
  5
31
  8
0
 10
13.99937307120012
 20
-9.9989093423999975
 30
0.0
 11
13.99937307120012
 21
-12.599885759999889
 31
0.0
  0
LINE
  5
32
  8
0
 10
-13.99937307119967
 20
-9.9989093423999975
 30
0.0
 11
-13.99937307119967
 21
-12.599885759999889
 31
0.0
  0
LINE
  5
33
  8
0
 10
-13.99937307119967
 20
-12.599885759999889
 30
0.0
 11
-17.599340431199611
 21
-16.19985311999983
 31
0.0
  0
LINE
  5
34
  8
0
 10
-17.599340431199611
 20
-16.19985311999983
 30
0.0
 11
-17.599340431199611
 21
-20.00081865759989
 31
0.0
  0
LINE
  5
35
  8
0
 10
17.599340431200059
 20
-20.00081865759989
 30
0.0
 11
-17.599340431199611
 21
-20.00081865759989
 31
0.0
  0
LINE
  5
36
  8
0
 10
13.99937307120012
 20
-12.599885759999889
 30
0.0
 11
17.599340431200059
 21
-16.19985311999983
 31
0.0
  0
LINE
  5
37
  8
0
 10
17.599340431200059
 20
-16.19985311999983
 30
0.0
 11
17.599340431200059
 21
-20.00081865759989
 31
0.0
  0
LINE
  5
38
  8
0
 10
-55.000001328799719
 20
0.0
 30
0.0
 11
-55.000001328799719
 21
-9.9989093423999975
 31
0.0
1001
ACAD
1000
ASC_BOUNDS
1002
{
1070
    19
1005
6B
1002
}
  0
LINE
  5
39
  8
0
 10
55.000001328800181
 20
-9.9989093423999975
 30
0.0
 11
55.000001328800181
 21
0.0
 31
0.0
1001
ACAD
1000
ASC_BOUNDS
1002
{
1070
    19
1005
6B
1005
6B
1002
}
  0
LINE
  5
3A
  8
0
 10
-45.001091986399608
 20
0.0
 30
0.0
 11
-45.001091986399608
 21
-4.4009600975999774
 31
0.0
1001
ACAD
1000
ASC_BOUNDS
1002
{
1070
    19
1005
6B
1002
}
  0
LINE
  5
3B
  8
0
 10
-34.99918267120006
 20
0.0
 30
0.0
 11
-34.99918267120006
 21
-4.4009600975999774
 31
0.0
1001
ACAD
1000
ASC_BOUNDS
1002
{
1070
    19
1005
6B
1002
}
  0
LINE
  5
3C
  8
0
 10
34.99918267120006
 20
0.0
 30
0.0
 11
34.99918267120006
 21
-4.4009600975999774
 31
0.0
1001
ACAD
1000
ASC_BOUNDS
1002
{
1070
    19
1005
6B
1002
}
  0
LINE
  5
3D
  8
0
 10
44.998092013600171
 20
0.0
 30
0.0
 11
44.998092013600171
 21
-4.4009600975999774
 31
0.0
1001
ACAD
1000
ASC_BOUNDS
1002
{
1070
    19
1005
6B
1005
6B
1002
}
  0
LINE
  5
3E
  8
0
 10
-52.00002852879993
 20
-4.4009600975999774
 30
0.0
 11
-52.00002852879993
 21
-9.9989093423999975
 31
0.0
1001
ACAD
1000
ASC_BOUNDS
1002
{
1070
    19
1005
6B
1002
}
  0
LINE
  5
3F
  8
0
 10
-28.000246128799748
 20
-4.4009600975999774
 30
0.0
 11
-28.000246128799748
 21
-9.9989093423999975
 31
0.0
1001
ACAD
1000
ASC_BOUNDS
1002
{
1070
    19
1005
6B
1002
}
  0
LINE
  5
40
  8
0
 10
28.0002461288002
 20
-4.4009600975999774
 30
0.0
 11
28.0002461288002
 21
-9.9989093423999975
 31
0.0
1001
ACAD
1000
ASC_BOUNDS
1002
{
1070
    19
1005
6B
1002
}
  0
LINE
  5
41
  8
0
 10
52.000028528800392
 20
-4.4009600975999774
 30
0.0
 11
52.000028528800392
 21
-9.9989093423999975
 31
0.0
1001
ACAD
1000
ASC_BOUNDS
1002
{
1070
    19
1005
6B
1005
6B
1002
}
  0
LINE
  5
42
  8
0
 10
52.000028528800392
 20
-9.9989093423999975
 30
0.0
 11
55.000001328800181
 21
-9.9989093423999975
 31
0.0
1001
ACAD
1000
ASC_BOUNDS
1002
{
1070
    19
1005
6B
1005
6B
1002
}
  0
LINE
  5
43
  8
0
 10
44.998092013600171
 20
0.0
 30
0.0
 11
55.000001328800181
 21
0.0
 31
0.0
1001
ACAD
1000
ASC_BOUNDS
1002
{
1070
    19
1005
6B
1005
6B
1002
}
  0
LINE
  5
44
  8
0
 10
44.998092013600171
 20
-4.4009600975999774
 30
0.0
 11
52.000028528800392
 21
-4.4009600975999774
 31
0.0
1001
ACAD
1000
ASC_BOUNDS
1002
{
1070
    19
1005
6B
1005
6B
1002
}
  0
LINE
  5
45
  8
0
 10
28.0002461288002
 20
-4.4009600975999774
 30
0.0
 11
34.99918267120006
 21
-4.4009600975999774
 31
0.0
1001
ACAD
1000
ASC_BOUNDS
1002
{
1070
    19
1005
6B
1002
}
  0
LINE
  5
46
  8
0
 10
-34.99918267120006
 20
-4.4009600975999774
 30
0.0
 11
-28.000246128799748
 21
-4.4009600975999774
 31
0.0
1001
ACAD
1000
ASC_BOUNDS
1002
{
1070
    19
1005
6B
1002
}
  0
LINE
  5
47
  8
0
 10
-52.00002852879993
 20
-4.4009600975999774
 30
0.0
 11
-45.001091986399608
 21
-4.4009600975999774
 31
0.0
1001
ACAD
1000
ASC_BOUNDS
1002
{
1070
    19
1005
6B
1002
}
  0
LINE
  5
48
  8
0
 10
-55.000001328799719
 20
0.0
 30
0.0
 11
-45.001091986399608
 21
0.0
 31
0.0
1001
ACAD
1000
ASC_BOUNDS
1002
{
1070
    19
1005
6B
1002
}
  0
LINE
  5
49
  8
0
 10
-55.000001328799719
 20
-9.9989093423999975
 30
0.0
 11
-52.00002852879993
 21
-9.9989093423999975
 31
0.0
1001
ACAD
1000
ASC_BOUNDS
1002
{
1070
    19
1005
6B
1002
}
  0
LINE
  5
4A
  8
0
 10
-12.001391186399591
 20
-4.1999619199998497
 30
0.0
 11
-12.001391186399591
 21
-9.9989093423999975
 31
0.0
1001
ACAD
1000
ASC_BOUNDS
1002
{
1070
    19
1005
6B
1002
}
  0
LINE
  5
4B
  8
0
 10
11.99839121360014
 20
-4.1999619199998497
 30
0.0
 11
11.99839121360014
 21
-9.9989093423999975
 31
0.0
1001
ACAD
1000
ASC_BOUNDS
1002
{
1070
    19
1005
6B
1002
}
  0
LINE
  5
4C
  8
0
 10
-12.001391186399591
 20
-4.1999619199998497
 30
0.0
 11
-15.49935947119979
 21
-4.1999619199998497
 31
0.0
1001
ACAD
1000
ASC_BOUNDS
1002
{
1070
    19
1005
6B
1002
}
  0
LINE
  5
4D
  8
0
 10
15.49935947120025
 20
-4.1999619199998497
 30
0.0
 11
17.42534200880004
 21
0.0
 31
0.0
1001
ACAD
1000
ASC_BOUNDS
1002
{
1070
    19
1005
6B
1002
}
  0
LINE
  5
4E
  8
0
 10
-15.49935947119979
 20
-4.1999619199998497
 30
0.0
 11
-17.440341872799991
 21
0.0
 31
0.0
1001
ACAD
1000
ASC_BOUNDS
1002
{
1070
    19
1005
6B
1002
}
  0
LINE
  5
4F
  8
0
 10
11.99839121360014
 20
-4.1999619199998497
 30
0.0
 11
15.49935947120025
 21
-4.1999619199998497
 31
0.0
1001
ACAD
1000
ASC_BOUNDS
1002
{
1070
    19
1005
6B
1002
}
  0
ARC
  5
50
  8
0
 10
-13.912373859999891
 20
-3.4199689920000078
 30
0.0
 40
0.7859928736000001
 50
180.0
 51
270.0
  0
LINE
  5
51
  8
0
 10
-13.912373859999891
 20
-3.4199689920000078
 30
0.0
 11
-13.912373859999891
 21
-3.4199689920000078
 31
0.0
  0
LINE
  5
52
  8
0
 10
-14.701366706399989
 20
-3.4199689920000078
 30
0.0
 11
-14.701366706399989
 21
-0.7859928736002076
 31
0.0
  0
LINE
  5
53
  8
0
 10
-13.99937307119967
 20
-4.1999619199998497
 30
0.0
 11
-13.99937307119967
 21
-4.2029618927998618
 31
0.0
1001
ACAD
1000
ASC_BOUNDS
1002
{
1070
    19
1005
6B
1002
}
  0
LINE
  5
54
  8
0
 10
-13.912373859999891
 20
0.0
 30
0.0
 11
-7.7864294024000174
 21
0.0
 31
0.0
  0
ARC
  5
55
  8
0
 10
-13.912373859999891
 20
-0.7859928736002076
 30
0.0
 40
0.7859928736000001
 50
90.0
 51
180.0
  0
LINE
  5
56
  8
0
 10
-13.912373859999891
 20
-0.7859928736002076
 30
0.0
 11
-13.912373859999891
 21
-0.7859928736002076
 31
0.0
  0
LINE
  5
57
  8
0
 10
-7.0004365287998089
 20
-5.399951040000019
 30
0.0
 11
-0.0014999863999492
 21
-9.3989147824000838
 31
0.0
  0
LINE
  5
58
  8
0
 10
-0.0014999863999492
 20
-9.3989147824000838
 30
0.0
 11
7.0004365288002637
 21
-5.399951040000019
 31
0.0
  0
LINE
  5
59
  8
0
 10
7.0004365288002637
 20
-5.399951040000019
 30
0.0
 11
7.0004365288002637
 21
-0.7859928736002076
 31
0.0
  0
LINE
  5
5A
  8
0
 10
-7.0004365287998089
 20
-0.7859928736002076
 30
0.0
 11
-7.0004365287998089
 21
-5.399951040000019
 31
0.0
  0
ARC
  5
5B
  8
0
 10
7.7864294024000174
 20
-0.7859928736002076
 30
0.0
 40
0.7859928736000001
 50
90.0
 51
180.0
  0
LINE
  5
5C
  8
0
 10
7.7864294024000174
 20
-0.7859928736002076
 30
0.0
 11
7.7864294024000174
 21
-0.7859928736002076
 31
0.0
  0
ARC
  5
5D
  8
0
 10
-7.7864294024000174
 20
-0.7859928736002076
 30
0.0
 40
0.7859928736000001
 50
0.0
 51
90.0
  0
LINE
  5
5E
  8
0
 10
-7.7864294024000174
 20
-0.7859928736002076
 30
0.0
 11
-7.7864294024000174
 21
-0.7859928736002076
 31
0.0
  0
ARC
  5
5F
  8
0
 10
13.91237386000034
 20
-0.7859928736002076
 30
0.0
 40
0.7859928736000001
 50
0.0
 51
90.0
  0
LINE
  5
60
  8
0
 10
13.91237386000034
 20
-0.7859928736002076
 30
0.0
 11
13.91237386000034
 21
-0.7859928736002076
 31
0.0
  0
ARC
  5
61
  8
0
 10
13.91237386000034
 20
-3.4199689920000078
 30
0.0
 40
0.7859928736000001
 50
270.0
 51
0.0
  0
LINE
  5
62
  8
0
 10
13.91237386000034
 20
-3.4199689920000078
 30
0.0
 11
13.91237386000034
 21
-3.4199689920000078
 31
0.0
  0
LINE
  5
63
  8
0
 10
14.698366733600089
 20
-3.4199689920000078
 30
0.0
 11
14.698366733600089
 21
-0.7859928736002076
 31
0.0
  0
LINE
  5
64
  8
0
 10
13.99937307120012
 20
-4.1999619199998497
 30
0.0
 11
13.99937307120012
 21
-4.2029618927998618
 31
0.0
1001
ACAD
1000
ASC_BOUNDS
1002
{
1070
    19
1005
6B
1002
}
  0
LINE
  5
65
  8
0
 10
13.91237386000034
 20
0.0
 30
0.0
 11
7.7864294024000174
 21
0.0
 31
0.0
  0
LINE
  5
66
  8
0
 10
-7.7864294024000174
 20
0.0
 30
0.0
 11
7.7864294024000174
 21
0.0
 31
0.0
  0
LINE
  5
67
  8
0
 10
-34.99918267120006
 20
0.0
 30
0.0
 11
-17.440341872799991
 21
0.0
 31
0.0
1001
ACAD
1000
ASC_BOUNDS
1002
{
1070
    19
1005
6B
1002
}
  0
LINE
  5
68
  8
0
 10
17.42534200880004
 20
0.0
 30
0.0
 11
34.99918267120006
 21
0.0
 31
0.0
1001
ACAD
1000
ASC_BOUNDS
1002
{
1070
    19
1005
6B
1002
}
  0
LINE
  5
69
  8
0
 10
11.99839121360014
 20
-9.9989093423999975
 30
0.0
 11
28.0002461288002
 21
-9.9989093423999975
 31
0.0
1001
ACAD
1000
ASC_BOUNDS
1002
{
1070
    19
1005
6B
1002
}
  0
LINE
  5
6A
  8
0
 10
-28.000246128799748
 20
-9.9989093423999975
 30
0.0
 11
-12.001391186399591
 21
-9.9989093423999975
 31
0.0
1001
ACAD
1000
ASC_BOUNDS
1002
{
1070
    19
1005
6B
1002
}
  0
INSERT
  5
6B
  8
0
  6
CONTINUOUS
 62
     8
  2
*X0
 10
0.0
 20
0.0
 30
0.0
1001
ACAD
1000
HATCH
1002
{
1070
    19
1000
ANSI31
1040
20.0
1040
0.0
1000
ASC_BOUNDS
1070
     5
1070
     2
1070
     8
1005
64
1005
53
1005
3D
1005
43
1005
39
1005
42
1005
41
1005
44
1070
     2
1070
     6
1005
3D
1005
43
1005
39
1005
42
1005
41
1005
44
1070
     2
1070
     8
1005
4B
1005
69
1005
40
1005
45
1005
3C
1005
68
1005
4D
1005
4F
1070
     2
1070
     8
1005
3B
1005
67
1005
4E
1005
4C
1005
4A
1005
6A
1005
3F
1005
46
1070
     2
1070
     6
1005
38
1005
48
1005
3A
1005
47
1005
3E
1005
49
1000
ASC_SEEDPOINT
1011
-103.8224462064743
1021
0.0
1031
0.0
1021
-41.835695855349307
1031
0.0
1000
R14_HATCH_DATA
1000
6B
1011
1.0
1021
0.0
1031
0.0
1021
0.0
1031
0.0
1011
0.0
1021
0.0
1031
0.0
1021
1.0
1031
0.0
1011
0.0
1021
0.0
1031
0.0
1021
0.0
1031
1.0
1040
0.0
1010
0.0
1020
0.0
1030
1.0
1000
ANSI31
1070
     0
1070
     1
1071
        5
1071
        1
1071
        6
1070
     1
1040
-55.000001328799719
1040
-9.9989093423999975
1040
-52.00002852879993
1040
-9.9989093423999975
1070
     1
1040
-52.00002852879993
1040
-9.9989093423999975
1040
-52.00002852879993
1040
-4.4009600975999774
1070
     1
1040
-52.00002852879993
1040
-4.4009600975999774
1040
-45.001091986399608
1040
-4.4009600975999774
1070
     1
1040
-45.001091986399608
1040
-4.4009600975999774
1040
-45.001091986399608
1040
0.0
1070
     1
1040
-45.001091986399608
1040
0.0
1040
-55.000001328799719
1040
0.0
1070
     1
1040
-55.000001328799719
1040
0.0
1040
-55.000001328799719
1040
-9.9989093423999975
1071
        6
1005
49
1005
3E
1005
47
1005
3A
1005
48
1005
38
1071
        1
1071
        8
1070
     1
1040
-34.99918267120006
1040
-4.4009600975999774
1040
-28.000246128799748
1040
-4.4009600975999774
1070
     1
1040
-28.000246128799748
1040
-4.4009600975999774
1040
-28.000246128799748
1040
-9.9989093423999975
1070
     1
1040
-28.000246128799748
1040
-9.9989093423999975
1040
-12.001391186399591
1040
-9.9989093423999975
1070
     1
1040
-12.001391186399591
1040
-9.9989093423999975
1040
-12.001391186399591
1040
-4.1999619199998497
1070
     1
1040
-12.001391186399591
1040
-4.1999619199998497
1040
-15.49935947119979
1040
-4.1999619199998497
1070
     1
1040
-15.49935947119979
1040
-4.1999619199998497
1040
-17.440341872799991
1040
0.0
1070
     1
1040
-17.440341872799991
1040
0.0
1040
-34.99918267120006
1040
0.0
1070
     1
1040
-34.99918267120006
1040
0.0
1040
-34.99918267120006
1040
-4.4009600975999774
1071
        8
1005
46
1005
3F
1005
6A
1005
4A
1005
4C
1005
4E
1005
67
1005
3B
1071
        1
1071
        8
1070
     1
1040
11.99839121360014
1040
-4.1999619199998497
1040
15.49935947120025
1040
-4.1999619199998497
1070
     1
1040
15.49935947120025
1040
-4.1999619199998497
1040
17.42534200880004
1040
0.0
1070
     1
1040
17.42534200880004
1040
0.0
1040
34.99918267120006
1040
0.0
1070
     1
1040
34.99918267120006
1040
0.0
1040
34.99918267120006
1040
-4.4009600975999774
1070
     1
1040
34.99918267120006
1040
-4.4009600975999774
1040
28.0002461288002
1040
-4.4009600975999774
1070
     1
1040
28.0002461288002
1040
-4.4009600975999774
1040
28.0002461288002
1040
-9.9989093423999975
1070
     1
1040
28.0002461288002
1040
-9.9989093423999975
1040
11.99839121360014
1040
-9.9989093423999975
1070
     1
1040
11.99839121360014
1040
-9.9989093423999975
1040
11.99839121360014
1040
-4.1999619199998497
1071
        8
1005
4F
1005
4D
1005
68
1005
3C
1005
45
1005
40
1005
69
1005
4B
1071
        1
1071
        6
1070
     1
1040
44.998092013600171
1040
-4.4009600975999774
1040
52.000028528800392
1040
-4.4009600975999774
1070
     1
1040
52.000028528800392
1040
-4.4009600975999774
1040
52.000028528800392
1040
-9.9989093423999975
1070
     1
1040
52.000028528800392
1040
-9.9989093423999975
1040
55.000001328800181
1040
-9.9989093423999975
1070
     1
1040
55.000001328800181
1040
-9.9989093423999975
1040
55.000001328800181
1040
0.0
1070
     1
1040
55.000001328800181
1040
0.0
1040
44.998092013600171
1040
0.0
1070
     1
1040
44.998092013600171
1040
0.0
1040
44.998092013600171
1040
-4.4009600975999774
1071
        6
1005
44
1005
41
1005
42
1005
39
1005
43
1005
3D
1071
       33
1071
        2
1070
     1
1040
-13.99937307119967
1040
-4.1999619199998497
1040
-13.99937307119967
1040
-4.2029618927998618
1070
     1
1040
13.99937307120012
1040
-4.1999619199998497
1040
13.99937307120012
1040
-4.2029618927998618
1071
        8
1005
44
1005
41
1005
42
1005
39
1005
43
1005
3D
1005
53
1005
64
1070
     0
1070
     1
1040
0.0
1040
20.0
1070
     0
1070
     1
1040
0.7853981633974483
1040
-103.8224462064743
1040
-41.835695855349307
1040
-1.767766952966368
1040
1.767766952966368
1070
     0
1071
        1
1040
-103.8224462064743
1040
-41.835695855349307
1040
0.0
1002
}
  0
ENDSEC
  0
EOF
