  0
SECTION
  2
HEADER
  9
$ACADVER
  1
AC1009
  9
$INSBASE
 10
0.0
 20
0.0
 30
0.0
  9
$EXTMIN
 10
-55.997492284800131
 20
-0.0000000000000284
 30
0.0
  9
$EXTMAX
 10
54.002510372799918
 20
9.9989093424000242
 30
0.0
  9
$LIMMIN
 10
0.0
 20
0.0
  9
$LIMMAX
 10
420.0
 20
297.0
  9
$ORTHOMODE
 70
     1
  9
$REGENMODE
 70
     1
  9
$FILLMODE
 70
     1
  9
$QTEXTMODE
 70
     0
  9
$MIRRTEXT
 70
     1
  9
$DRAGMODE
 70
     2
  9
$LTSCALE
 40
1.0
  9
$OSMODE
 70
    47
  9
$ATTMODE
 70
     1
  9
$TEXTSIZE
 40
3.5
  9
$TRACEWID
 40
0.05
  9
$TEXTSTYLE
  7
SST
  9
$CLAYER
  8
0
  9
$CELTYPE
  6
BYLAYER
  9
$CECOLOR
 62
   256
  9
$DIMSCALE
 40
1.0
  9
$DIMASZ
 40
0.18
  9
$DIMEXO
 40
0.0625
  9
$DIMDLI
 40
0.38
  9
$DIMRND
 40
0.0
  9
$DIMDLE
 40
0.0
  9
$DIMEXE
 40
0.18
  9
$DIMTP
 40
0.0
  9
$DIMTM
 40
0.0
  9
$DIMTXT
 40
0.18
  9
$DIMCEN
 40
0.09
  9
$DIMTSZ
 40
0.0
  9
$DIMTOL
 70
     0
  9
$DIMLIM
 70
     0
  9
$DIMTIH
 70
     1
  9
$DIMTOH
 70
     1
  9
$DIMSE1
 70
     0
  9
$DIMSE2
 70
     0
  9
$DIMTAD
 70
     0
  9
$DIMZIN
 70
     0
  9
$DIMBLK
  1

  9
$DIMASO
 70
     1
  9
$DIMSHO
 70
     1
  9
$DIMPOST
  1

  9
$DIMAPOST
  1

  9
$DIMALT
 70
     0
  9
$DIMALTD
 70
     2
  9
$DIMALTF
 40
25.399999999999999
  9
$DIMLFAC
 40
1.0
  9
$DIMTOFL
 70
     0
  9
$DIMTVP
 40
0.0
  9
$DIMTIX
 70
     0
  9
$DIMSOXD
 70
     0
  9
$DIMSAH
 70
     0
  9
$DIMBLK1
  1

  9
$DIMBLK2
  1

  9
$DIMSTYLE
  2
STANDARD
  9
$DIMCLRD
 70
     0
  9
$DIMCLRE
 70
     0
  9
$DIMCLRT
 70
     0
  9
$DIMTFAC
 40
1.0
  9
$DIMGAP
 40
0.09
  9
$LUNITS
 70
     2
  9
$LUPREC
 70
     4
  9
$SKETCHINC
 40
0.1
  9
$FILLETRAD
 40
0.05
  9
$AUNITS
 70
     0
  9
$AUPREC
 70
     2
  9
$MENU
  1
acad
  9
$ELEVATION
 40
0.0
  9
$PELEVATION
 40
0.0
  9
$THICKNESS
 40
0.0
  9
$LIMCHECK
 70
     0
  9
$BLIPMODE
 70
     0
  9
$CHAMFERA
 40
10.0
  9
$CHAMFERB
 40
10.0
  9
$SKPOLY
 70
     0
  9
$TDCREATE
 40
2449450.3780568289
  9
$TDUPDATE
 40
2453443.5694654169
  9
$TDINDWG
 40
2.5670648032000001
  9
$TDUSRTIMER
 40
2.5670648032000001
  9
$USRTIMER
 70
     1
  9
$ANGBASE
 50
0.0
  9
$ANGDIR
 70
     0
  9
$PDMODE
 70
     0
  9
$PDSIZE
 40
0.0
  9
$PLINEWID
 40
0.0
  9
$COORDS
 70
     1
  9
$SPLFRAME
 70
     0
  9
$SPLINETYPE
 70
     6
  9
$SPLINESEGS
 70
     8
  9
$ATTDIA
 70
     0
  9
$ATTREQ
 70
     1
  9
$HANDLING
 70
     1
  9
$HANDSEED
  5
87
  9
$SURFTAB1
 70
     6
  9
$SURFTAB2
 70
     6
  9
$SURFTYPE
 70
     6
  9
$SURFU
 70
     6
  9
$SURFV
 70
     6
  9
$UCSNAME
  2

  9
$UCSORG
 10
0.0
 20
0.0
 30
0.0
  9
$UCSXDIR
 10
1.0
 20
0.0
 30
0.0
  9
$UCSYDIR
 10
0.0
 20
1.0
 30
0.0
  9
$PUCSNAME
  2

  9
$PUCSORG
 10
0.0
 20
0.0
 30
0.0
  9
$PUCSXDIR
 10
1.0
 20
0.0
 30
0.0
  9
$PUCSYDIR
 10
0.0
 20
1.0
 30
0.0
  9
$USERI1
 70
     0
  9
$USERI2
 70
     0
  9
$USERI3
 70
     0
  9
$USERI4
 70
     0
  9
$USERI5
 70
     0
  9
$USERR1
 40
0.0
  9
$USERR2
 40
0.0
  9
$USERR3
 40
0.0
  9
$USERR4
 40
0.0
  9
$USERR5
 40
0.0
  9
$WORLDVIEW
 70
     1
  9
$SHADEDGE
 70
     3
  9
$SHADEDIF
 70
    70
  9
$TILEMODE
 70
     1
  9
$MAXACTVP
 70
    16
  9
$PLIMCHECK
 70
     0
  9
$PEXTMIN
 10
1.0000000000000000E+020
 20
1.0000000000000000E+020
 30
1.0000000000000000E+020
  9
$PEXTMAX
 10
-1.0000000000000000E+020
 20
-1.0000000000000000E+020
 30
-1.0000000000000000E+020
  9
$PLIMMIN
 10
0.0
 20
0.0
  9
$PLIMMAX
 10
420.0
 20
297.0
  9
$UNITMODE
 70
     0
  9
$VISRETAIN
 70
     0
  9
$PLINEGEN
 70
     0
  9
$PSLTSCALE
 70
     1
  0
ENDSEC
  0
SECTION
  2
TABLES
  0
TABLE
  2
VPORT
 70
     2
  0
VPORT
  2
*ACTIVE
 70
     0
 10
0.0
 20
0.0
 11
1.0
 21
1.0
 12
171.00311372545909
 22
267.83894686629708
 13
0.0
 23
0.0
 14
0.1
 24
0.1
 15
10.0
 25
10.0
 16
0.0
 26
0.0
 36
1.0
 17
0.0
 27
0.0
 37
0.0
 40
710.98600450305037
 41
1.4993646759847521
 42
50.0
 43
0.0
 44
0.0
 50
0.0
 51
0.0
 71
     0
 72
   100
 73
     1
 74
     1
 75
     1
 76
     0
 77
     0
 78
     0
  0
ENDTAB
  0
TABLE
  2
LTYPE
 70
     1
  0
LTYPE
  2
CONTINUOUS
 70
     0
  3
Solid line
 72
    65
 73
     0
 40
0.0
  0
ENDTAB
  0
TABLE
  2
LAYER
 70
     1
  0
LAYER
  2
0
 70
     0
 62
     7
  6
CONTINUOUS
  0
ENDTAB
  0
TABLE
  2
STYLE
 70
     3
  0
STYLE
  2
STANDARD
 70
     0
 40
0.0
 41
1.0
 50
0.0
 71
     0
 42
3.0
  3
txt
  4

  0
STYLE
  2
FISO
 70
     0
 40
3.5
 41
1.0
 50
0.0
 71
     0
 42
3.5
  3
fiso
  4

  0
STYLE
  2
SST
 70
     0
 40
0.0
 41
1.0
 50
0.0
 71
     0
 42
3.5
  3
romans.shx
  4

  0
ENDTAB
  0
TABLE
  2
VIEW
 70
     0
  0
ENDTAB
  0
TABLE
  2
UCS
 70
     0
  0
ENDTAB
  0
TABLE
  2
APPID
 70
     1
  0
APPID
  2
ACAD
 70
     0
  0
ENDTAB
  0
TABLE
  2
DIMSTYLE
 70
     2
  0
DIMSTYLE
  2
NORDIC
 70
     0
  3

  4

  5

  6

  7

 40
1.0
 41
2.0
 42
1.0
 43
10.0
 44
1.0
 45
0.0
 46
0.0
 47
0.0
 48
0.0
140
3.5
141
2.5
142
0.0
143
25.399999999999999
144
1.0
145
0.0
146
1.0
147
0.0
 71
     0
 72
     0
 73
     0
 74
     0
 75
     0
 76
     0
 77
     1
 78
     8
170
     0
171
     2
172
     1
173
     0
174
     0
175
     0
176
     0
177
     0
178
     0
  0
DIMSTYLE
  2
STANDARD
 70
     0
  3

  4

  5

  6

  7

 40
1.0
 41
0.18
 42
0.0625
 43
0.38
 44
0.18
 45
0.0
 46
0.0
 47
0.0
 48
0.0
140
0.18
141
0.09
142
0.0
143
25.399999999999999
144
1.0
145
0.0
146
1.0
147
0.09
 71
     0
 72
     0
 73
     1
 74
     1
 75
     0
 76
     0
 77
     0
 78
     0
170
     0
171
     2
172
     0
173
     0
174
     0
175
     0
176
     0
177
     0
178
     0
  0
ENDTAB
  0
ENDSEC
  0
SECTION
  2
BLOCKS
  0
BLOCK
  8
0
  2
$MODEL_SPACE
 70
     0
 10
0.0
 20
0.0
 30
0.0
  3
$MODEL_SPACE
  1

  0
ENDBLK
  5
9
  8
0
  0
BLOCK
 67
     1
  8
0
  2
$PAPER_SPACE
 70
     0
 10
0.0
 20
0.0
 30
0.0
  3
$PAPER_SPACE
  1

  0
ENDBLK
  5
E
 67
     1
  8
0
  0
BLOCK
  8
0
  2
*X0
 70
     1
 10
0.0
 20
0.0
 30
0.0
  3
*X0
  1

  0
LINE
  5
6B
  8
0
 62
     0
 10
-55.667861580028529
 20
9.9989093424000242
 30
0.0
 11
-55.997492284800103
 21
9.6692786376284516
 31
0.0
  0
LINE
  5
6C
  8
0
 62
     0
 10
-52.997519484800307
 20
9.1337175316954813
 30
0.0
 11
-55.997492284800067
 21
6.133744731695713
 31
0.0
  0
LINE
  5
6D
  8
0
 62
     0
 10
-52.997519484800307
 20
5.5981836257627711
 30
0.0
 11
-55.997492284800131
 21
2.5982108257629761
 31
0.0
  0
LINE
  5
6E
  8
0
 62
     0
 10
-50.659209107030307
 20
4.4009600976000049
 30
0.0
 11
-55.060169204630313
 21
0.0
 31
0.0
  0
LINE
  5
6F
  8
0
 62
     0
 10
-47.123675201097619
 20
4.4009600975999774
 30
0.0
 11
-51.524635298697547
 21
0.0000000000000568
 31
0.0
  0
LINE
  5
70
  8
0
 62
     0
 10
-45.998582942399992
 20
1.990518450364845
 30
0.0
 11
-47.98910139276483
 21
0.0
 31
0.0
  0
LINE
  5
71
  8
0
 62
     0
 10
-32.981539577366618
 20
4.4009600976000343
 30
0.0
 11
-35.996673627199947
 21
1.38582604776667
 31
0.0
  0
LINE
  5
72
  8
0
 62
     0
 10
-27.38359033256663
 20
9.9989093423999975
 30
0.0
 11
-28.997737084800121
 21
8.384762590166531
 31
0.0
  0
LINE
  5
73
  8
0
 62
     0
 10
-29.44600567143388
 20
4.4009600976000049
 30
0.0
 11
-33.846965769033893
 21
0.0
 31
0.0
  0
LINE
  5
74
  8
0
 62
     0
 10
-23.848056426633889
 20
9.9989093423999975
 30
0.0
 11
-28.997737084800121
 21
4.849228684233764
 31
0.0
  0
LINE
  5
75
  8
0
 62
     0
 10
-20.312522520701151
 20
9.9989093423999975
 30
0.0
 11
-30.311431863101149
 21
0.0
 31
0.0
  0
LINE
  5
76
  8
0
 62
     0
 10
-16.77698861476841
 20
9.9989093423999975
 30
0.0
 11
-26.775897957168411
 21
0.0
 31
0.0
  0
LINE
  5
77
  8
0
 62
     0
 10
15.042816538626219
 20
9.9989093423999975
 30
0.0
 11
13.30187939520007
 21
8.2579721989738442
 31
0.0
  0
LINE
  5
78
  8
0
 62
     0
 10
18.578350444558989
 20
9.9989093424000242
 30
0.0
 11
14.94112397747943
 21
6.3616828753204677
 31
0.0
  0
LINE
  5
79
  8
0
 62
     0
 10
22.113884350491698
 20
9.9989093423999691
 30
0.0
 11
16.70889093044579
 21
4.5939159223540571
 31
0.0
  0
LINE
  5
7A
  8
0
 62
     0
 10
25.64941825642444
 20
9.9989093424000242
 30
0.0
 11
18.476657883412091
 21
2.826148969387674
 31
0.0
  0
LINE
  5
7B
  8
0
 62
     0
 10
27.002755172799851
 20
7.8167123528426421
 30
0.0
 11
20.244424836378439
 21
1.0583820164212621
 31
0.0
  0
LINE
  5
7C
  8
0
 62
     0
 10
27.122536823489948
 20
4.4009600976000049
 30
0.0
 11
22.721576725889921
 21
-0.0000000000000284
 31
0.0
  0
LINE
  5
7D
  8
0
 62
     0
 10
30.658070729422661
 20
4.4009600976000049
 30
0.0
 11
26.257110631822648
 21
-0.0000000000000284
 31
0.0
  0
LINE
  5
7E
  8
0
 62
     0
 10
34.001691715200138
 20
4.2090471774447726
 30
0.0
 11
29.792644537755368
 21
0.0
 31
0.0
  0
LINE
  5
7F
  8
0
 62
     0
 10
34.001691715200167
 20
0.6735132715120074
 30
0.0
 11
33.328178443688131
 21
-0.0000000000000284
 31
0.0
  0
LINE
  5
80
  8
0
 62
     0
 10
44.800206353153577
 20
4.4009600975999481
 30
0.0
 11
44.000601057599852
 21
3.6013548020462451
 31
0.0
  0
LINE
  5
81
  8
0
 62
     0
 10
48.335740259086322
 20
4.4009600975999774
 30
0.0
 11
44.000601057599852
 21
0.0658208961135074
 31
0.0
  0
LINE
  5
82
  8
0
 62
     0
 10
53.933689503886342
 20
9.9989093424000117
 30
0.0
 11
51.002537572799618
 21
7.0677574113132939
 31
0.0
  0
LINE
  5
83
  8
0
 62
     0
 10
54.002510372799868
 20
6.5321963053807792
 30
0.0
 11
47.470314067419082
 21
-0.0000000000000284
 31
0.0
  0
LINE
  5
84
  8
0
 62
     0
 10
54.00251037279989
 20
2.9966623994480548
 30
0.0
 11
51.005847973351841
 21
0.0000000000000284
 31
0.0
  0
ENDBLK
  5
86
  8
0
  0
ENDSEC
  0
SECTION
  2
ENTITIES
  0
LINE
  5
2B
  8
0
 10
-35.645676809599991
 20
4.4009600975999801
 30
0.0
 11
-35.996673627199932
 21
4.0469633072000342
 31
0.0
1001
ACAD
1000
ASC_BOUNDS
1002
{
1070
    19
1005
56
1002
}
  0
LINE
  5
2C
  8
0
 10
51.002537572799667
 20
9.9989093423999904
 30
0.0
 11
27.00275517279988
 21
9.9989093423999975
 31
0.0
  0
LINE
  5
2D
  8
0
 10
-28.997737084800072
 20
9.9989093423999975
 30
0.0
 11
-52.99751948480025
 21
9.9989093424000046
 31
0.0
  0
LINE
  5
2E
  8
0
 10
-45.998582942399928
 20
0.0000000000000036
 30
0.0
 11
-35.996673627199932
 21
0.0000000000000036
 31
0.0
  0
LINE
  5
2F
  8
0
 10
-15.29686130720029
 20
9.9989093423999975
 30
0.0
 11
13.3018793952001
 21
9.9989093423999975
 31
0.0
  0
LINE
  5
30
  8
0
 10
34.001691715200188
 20
4.400960097599973
 30
0.0
 11
44.000601057599901
 21
4.4009600975999703
 31
0.0
  0
LINE
  5
31
  8
0
 10
44.000601057599901
 20
-0.0000000000000071
 30
0.0
 11
34.001691715200188
 21
-0.0000000000000036
 31
0.0
  0
LINE
  5
32
  8
0
 10
-35.996673627199932
 20
4.4009600975999801
 30
0.0
 11
-45.998582942399928
 21
4.4009600975999801
 31
0.0
  0
LINE
  5
33
  8
0
 10
-15.29686130720029
 20
8.0009274575999143
 30
0.0
 11
13.3018793952001
 21
8.0009274575999143
 31
0.0
  0
LINE
  5
34
  8
0
 10
21.30280685279968
 20
-0.0000000000000036
 30
0.0
 11
-23.297788764799861
 21
0.0000000000000036
 31
0.0
  0
LINE
  5
35
  8
0
 10
54.002510372799918
 20
-0.0000000000000071
 30
0.0
 11
54.002510372799918
 21
9.9989093423999904
 31
0.0
1001
ACAD
1000
ASC_BOUNDS
1002
{
1070
    19
1005
56
1002
}
  0
LINE
  5
36
  8
0
 10
-55.997492284800039
 20
9.9989093424000046
 30
0.0
 11
-55.997492284800039
 21
0.0000000000000071
 31
0.0
1001
ACAD
1000
ASC_BOUNDS
1002
{
1070
    19
1005
56
1005
56
1002
}
  0
LINE
  5
37
  8
0
 10
44.000601057599901
 20
-0.0000000000000071
 30
0.0
 11
44.000601057599901
 21
4.4009600975999703
 31
0.0
1001
ACAD
1000
ASC_BOUNDS
1002
{
1070
    19
1005
56
1002
}
  0
LINE
  5
38
  8
0
 10
34.001691715200188
 20
-0.0000000000000036
 30
0.0
 11
34.001691715200188
 21
4.400960097599973
 31
0.0
1001
ACAD
1000
ASC_BOUNDS
1002
{
1070
    19
1005
56
1002
}
  0
LINE
  5
39
  8
0
 10
-35.996673627199932
 20
0.0000000000000036
 30
0.0
 11
-35.996673627199932
 21
4.4009600975999801
 31
0.0
1001
ACAD
1000
ASC_BOUNDS
1002
{
1070
    19
1005
56
1002
}
  0
LINE
  5
3A
  8
0
 10
-45.998582942399928
 20
0.0000000000000036
 30
0.0
 11
-45.998582942399928
 21
4.4009600975999801
 31
0.0
1001
ACAD
1000
ASC_BOUNDS
1002
{
1070
    19
1005
56
1005
56
1002
}
  0
LINE
  5
3B
  8
0
 10
51.002537572799667
 20
4.4009600975999703
 30
0.0
 11
51.002537572799667
 21
9.9989093423999904
 31
0.0
1001
ACAD
1000
ASC_BOUNDS
1002
{
1070
    19
1005
56
1002
}
  0
LINE
  5
3C
  8
0
 10
27.00275517279988
 20
4.400960097599973
 30
0.0
 11
27.00275517279988
 21
9.9989093423999975
 31
0.0
1001
ACAD
1000
ASC_BOUNDS
1002
{
1070
    19
1005
56
1002
}
  0
LINE
  5
3D
  8
0
 10
-28.997737084800072
 20
4.4009600975999801
 30
0.0
 11
-28.997737084800072
 21
9.9989093423999975
 31
0.0
1001
ACAD
1000
ASC_BOUNDS
1002
{
1070
    19
1005
56
1002
}
  0
LINE
  5
3E
  8
0
 10
-52.99751948480025
 20
4.4009600975999836
 30
0.0
 11
-52.99751948480025
 21
9.9989093424000046
 31
0.0
1001
ACAD
1000
ASC_BOUNDS
1002
{
1070
    19
1005
56
1005
56
1002
}
  0
LINE
  5
3F
  8
0
 10
-15.29686130720029
 20
9.9989093423999975
 30
0.0
 11
-28.997737084800072
 21
9.9989093423999975
 31
0.0
1001
ACAD
1000
ASC_BOUNDS
1002
{
1070
    19
1005
56
1002
}
  0
LINE
  5
40
  8
0
 10
-52.99751948480025
 20
9.9989093424000046
 30
0.0
 11
-55.997492284800039
 21
9.9989093424000046
 31
0.0
1001
ACAD
1000
ASC_BOUNDS
1002
{
1070
    19
1005
56
1005
56
1002
}
  0
LINE
  5
41
  8
0
 10
-45.998582942399928
 20
0.0000000000000036
 30
0.0
 11
-55.997492284800039
 21
0.0000000000000071
 31
0.0
1001
ACAD
1000
ASC_BOUNDS
1002
{
1070
    19
1005
56
1005
56
1002
}
  0
LINE
  5
42
  8
0
 10
-45.998582942399928
 20
4.4009600975999801
 30
0.0
 11
-52.99751948480025
 21
4.4009600975999836
 31
0.0
1001
ACAD
1000
ASC_BOUNDS
1002
{
1070
    19
1005
56
1005
56
1002
}
  0
LINE
  5
43
  8
0
 10
-28.997737084800072
 20
4.4009600975999801
 30
0.0
 11
-35.996673627199932
 21
4.4009600975999801
 31
0.0
1001
ACAD
1000
ASC_BOUNDS
1002
{
1070
    19
1005
56
1002
}
  0
LINE
  5
44
  8
0
 10
27.00275517279988
 20
9.9989093423999975
 30
0.0
 11
13.3018793952001
 21
9.9989093423999975
 31
0.0
1001
ACAD
1000
ASC_BOUNDS
1002
{
1070
    19
1005
56
1002
}
  0
LINE
  5
45
  8
0
 10
34.001691715200188
 20
4.400960097599973
 30
0.0
 11
27.00275517279988
 21
4.400960097599973
 31
0.0
1001
ACAD
1000
ASC_BOUNDS
1002
{
1070
    19
1005
56
1002
}
  0
LINE
  5
46
  8
0
 10
51.002537572799667
 20
4.4009600975999703
 30
0.0
 11
44.000601057599901
 21
4.4009600975999703
 31
0.0
1001
ACAD
1000
ASC_BOUNDS
1002
{
1070
    19
1005
56
1002
}
  0
LINE
  5
47
  8
0
 10
54.002510372799918
 20
-0.0000000000000071
 30
0.0
 11
44.000601057599901
 21
-0.0000000000000071
 31
0.0
1001
ACAD
1000
ASC_BOUNDS
1002
{
1070
    19
1005
56
1002
}
  0
LINE
  5
48
  8
0
 10
54.002510372799918
 20
9.9989093423999904
 30
0.0
 11
51.002537572799667
 21
9.9989093423999904
 31
0.0
1001
ACAD
1000
ASC_BOUNDS
1002
{
1070
    19
1005
56
1002
}
  0
LINE
  5
49
  8
0
 10
-15.29686130720029
 20
8.0009274575999143
 30
0.0
 11
-23.297788764799861
 21
0.0000000000000036
 31
0.0
1001
ACAD
1000
ASC_BOUNDS
1002
{
1070
    19
1005
56
1002
}
  0
LINE
  5
4A
  8
0
 10
-23.297788764799861
 20
0.0000000000000036
 30
0.0
 11
-35.996673627199932
 21
0.0000000000000036
 31
0.0
1001
ACAD
1000
ASC_BOUNDS
1002
{
1070
    19
1005
56
1002
}
  0
LINE
  5
4B
  8
0
 10
-15.299861280000179
 20
8.0009274575999143
 30
0.0
 11
-15.29686130720029
 21
9.9989093423999975
 31
0.0
1001
ACAD
1000
ASC_BOUNDS
1002
{
1070
    19
1005
56
1002
}
  0
LINE
  5
4C
  8
0
 10
-15.29686130720029
 20
8.0009274575999143
 30
0.0
 11
-23.297788764799861
 21
0.0000000000000036
 31
0.0
1001
ACAD
1000
ASC_BOUNDS
1002
{
1070
    19
1005
56
1002
}
  0
LINE
  5
4D
  8
0
 10
13.3018793952001
 20
8.0009274575999143
 30
0.0
 11
21.30280685279968
 21
-0.0000000000000036
 31
0.0
1001
ACAD
1000
ASC_BOUNDS
1002
{
1070
    19
1005
56
1002
}
  0
LINE
  5
4E
  8
0
 10
13.3018793952001
 20
8.0009274575999143
 30
0.0
 11
13.3018793952001
 21
9.9989093423999975
 31
0.0
1001
ACAD
1000
ASC_BOUNDS
1002
{
1070
    19
1005
56
1002
}
  0
LINE
  5
4F
  8
0
 10
34.001691715200188
 20
-0.0000000000000036
 30
0.0
 11
21.30280685279968
 21
-0.0000000000000036
 31
0.0
1001
ACAD
1000
ASC_BOUNDS
1002
{
1070
    19
1005
56
1002
}
  0
LINE
  5
50
  8
0
 10
13.3018793952001
 20
8.0009274575999143
 30
0.0
 11
21.30280685279968
 21
-0.0000000000000036
 31
0.0
1001
ACAD
1000
ASC_BOUNDS
1002
{
1070
    19
1005
56
1002
}
  0
LINE
  5
51
  8
0
 10
21.30280685279968
 20
-0.0000000000000036
 30
0.0
 11
21.30280685279968
 21
-0.0000000000000036
 31
0.0
  0
LINE
  5
52
  8
0
 10
-23.297788764799861
 20
0.0000000000000036
 30
0.0
 11
-23.297788764799861
 21
0.0000000000000036
 31
0.0
  0
LINE
  5
53
  8
0
 10
-9.9989093424001112
 20
9.9989093423999975
 30
0.0
 11
0.0
 21
9.9989093423999975
 31
0.0
  0
LINE
  5
54
  8
0
 10
-9.9989093424001112
 20
8.0009274575999143
 30
0.0
 11
0.0
 21
8.0009274575999143
 31
0.0
  0
LINE
  5
55
  8
0
 10
-9.9989093424001112
 20
0.0
 30
0.0
 11
0.0
 21
0.0
 31
0.0
  0
INSERT
  5
56
  8
0
  6
CONTINUOUS
 62
     8
  2
*X0
 10
0.0
 20
0.0
 30
0.0
1001
ACAD
1000
HATCH
1002
{
1070
    19
1000
ANSI31
1040
20.0
1040
3.1415926535897931
1000
ASC_BOUNDS
1070
     5
1070
     2
1070
    14
1005
2B
1005
39
1005
3D
1005
3F
1005
43
1005
4A
1005
4B
1005
4D
1005
3A
1005
41
1005
36
1005
40
1005
3E
1005
42
1070
     2
1070
     6
1005
3A
1005
41
1005
36
1005
40
1005
3E
1005
42
1070
     2
1070
     2
1005
49
1005
4C
1070
     2
1070
     7
1005
4E
1005
44
1005
3C
1005
45
1005
38
1005
4F
1005
50
1070
     2
1070
     6
1005
35
1005
47
1005
37
1005
46
1005
3B
1005
48
1000
ASC_SEEDPOINT
1011
283.4025103727999
1021
0.0
1031
0.0
1021
27.335695855349279
1031
0.0
1000
R14_HATCH_DATA
1000
56
1011
1.0
1021
0.0
1031
0.0
1021
0.0
1031
0.0
1011
0.0
1021
0.0
1031
0.0
1021
1.0
1031
0.0
1011
0.0
1021
0.0
1031
0.0
1021
0.0
1031
1.0
1040
0.0
1010
0.0
1020
0.0
1030
1.0
1000
ANSI31
1070
     0
1070
     1
1071
        5
1071
        1
1071
        6
1070
     1
1040
54.002510372799918
1040
9.9989093423999904
1040
51.002537572799667
1040
9.9989093423999904
1070
     1
1040
51.002537572799667
1040
9.9989093423999904
1040
51.002537572799667
1040
4.4009600975999703
1070
     1
1040
51.002537572799667
1040
4.4009600975999703
1040
44.000601057599901
1040
4.4009600975999703
1070
     1
1040
44.000601057599901
1040
4.4009600975999703
1040
44.000601057599901
1040
-0.0000000000000071
1070
     1
1040
44.000601057599901
1040
-0.0000000000000071
1040
54.002510372799918
1040
-0.0000000000000071
1070
     1
1040
54.002510372799918
1040
-0.0000000000000071
1040
54.002510372799918
1040
9.9989093423999904
1071
        6
1005
48
1005
3B
1005
46
1005
37
1005
47
1005
35
1071
        1
1071
        7
1070
     1
1040
13.3018793952001
1040
8.0009274575999143
1040
21.30280685279968
1040
-0.0000000000000036
1070
     1
1040
21.30280685279968
1040
-0.0000000000000036
1040
34.001691715200188
1040
-0.0000000000000036
1070
     1
1040
34.001691715200188
1040
-0.0000000000000036
1040
34.001691715200188
1040
4.400960097599973
1070
     1
1040
34.001691715200188
1040
4.400960097599973
1040
27.00275517279988
1040
4.400960097599973
1070
     1
1040
27.00275517279988
1040
4.400960097599973
1040
27.00275517279988
1040
9.9989093423999975
1070
     1
1040
27.00275517279988
1040
9.9989093423999975
1040
13.3018793952001
1040
9.9989093423999975
1070
     1
1040
13.3018793952001
1040
9.9989093423999975
1040
13.3018793952001
1040
8.0009274575999143
1071
        7
1005
50
1005
4F
1005
38
1005
45
1005
3C
1005
44
1005
4E
1071
       16
1071
        2
1070
     1
1040
-15.29686130720029
1040
8.0009274575999143
1040
-23.297788764799861
1040
0.0000000000000036
1070
     1
1040
-23.297788764799861
1040
0.0000000000000036
1040
-15.29686130720029
1040
8.0009274575999143
1071
        2
1005
4C
1005
49
1071
        1
1071
        6
1070
     1
1040
-45.998582942399928
1040
4.4009600975999801
1040
-52.99751948480025
1040
4.4009600975999836
1070
     1
1040
-52.99751948480025
1040
4.4009600975999836
1040
-52.99751948480025
1040
9.9989093424000046
1070
     1
1040
-52.99751948480025
1040
9.9989093424000046
1040
-55.997492284800039
1040
9.9989093424000046
1070
     1
1040
-55.997492284800039
1040
9.9989093424000046
1040
-55.997492284800039
1040
0.0000000000000071
1070
     1
1040
-55.997492284800039
1040
0.0000000000000071
1040
-45.998582942399928
1040
0.0000000000000036
1070
     1
1040
-45.998582942399928
1040
0.0000000000000036
1040
-45.998582942399928
1040
4.4009600975999801
1071
        6
1005
42
1005
3E
1005
40
1005
36
1005
41
1005
3A
1071
       33
1071
        8
1070
     1
1040
13.3018793952001
1040
8.0009274575999143
1040
21.30280685279968
1040
-0.0000000000000036
1070
     1
1040
-15.299861280000179
1040
8.0009274575999143
1040
-15.29686130720029
1040
9.9989093423999975
1070
     1
1040
-23.297788764799861
1040
0.0000000000000036
1040
-35.996673627199932
1040
0.0000000000000036
1070
     1
1040
-28.997737084800072
1040
4.4009600975999801
1040
-35.996673627199932
1040
4.4009600975999801
1070
     1
1040
-15.29686130720029
1040
9.9989093423999975
1040
-28.997737084800072
1040
9.9989093423999975
1070
     1
1040
-28.997737084800072
1040
4.4009600975999801
1040
-28.997737084800072
1040
9.9989093423999975
1070
     1
1040
-35.996673627199932
1040
0.0000000000000036
1040
-35.996673627199932
1040
4.4009600975999801
1070
     1
1040
-35.645676809599991
1040
4.4009600975999801
1040
-35.996673627199932
1040
4.0469633072000342
1071
       14
1005
42
1005
3E
1005
40
1005
36
1005
41
1005
3A
1005
4D
1005
4B
1005
4A
1005
43
1005
3F
1005
3D
1005
39
1005
2B
1070
     0
1070
     1
1040
3.1415926535897931
1040
20.0
1070
     0
1070
     1
1040
3.926990816987241
1040
283.4025103727999
1040
27.335695855349279
1040
1.767766952966368
1040
-1.7677669529663691
1070
     0
1071
        1
1040
283.4025103727999
1040
27.335695855349279
1040
0.0
1002
}
  0
ENDSEC
  0
EOF
