  0
SECTION
  2
HEADER
  9
$ACADVER
  1
AC1009
  9
$INSBASE
 10
-0.0000000000001137
 20
2.000000000000056
 30
0.0
  9
$EXTMIN
 10
-93.131133105886278
 20
0.0000000000000568
 30
0.0
  9
$EXTMAX
 10
88.131133105886093
 20
184.0
 30
0.0
  9
$LIMMIN
 10
0.0
 20
0.0
  9
$LIMMAX
 10
420.0
 20
297.0
  9
$ORTHOMODE
 70
     0
  9
$REGENMODE
 70
     1
  9
$FILLMODE
 70
     1
  9
$QTEXTMODE
 70
     0
  9
$MIRRTEXT
 70
     1
  9
$DRAGMODE
 70
     2
  9
$LTSCALE
 40
1.0
  9
$OSMODE
 70
    47
  9
$ATTMODE
 70
     1
  9
$TEXTSIZE
 40
3.5
  9
$TRACEWID
 40
0.05
  9
$TEXTSTYLE
  7
SST
  9
$CLAYER
  8
0
  9
$CELTYPE
  6
BYLAYER
  9
$CECOLOR
 62
   256
  9
$DIMSCALE
 40
2.0
  9
$DIMASZ
 40
2.0
  9
$DIMEXO
 40
1.0
  9
$DIMDLI
 40
10.0
  9
$DIMRND
 40
0.0
  9
$DIMDLE
 40
0.0
  9
$DIMEXE
 40
1.0
  9
$DIMTP
 40
0.0
  9
$DIMTM
 40
0.0
  9
$DIMTXT
 40
3.5
  9
$DIMCEN
 40
2.5
  9
$DIMTSZ
 40
0.0
  9
$DIMTOL
 70
     0
  9
$DIMLIM
 70
     0
  9
$DIMTIH
 70
     0
  9
$DIMTOH
 70
     0
  9
$DIMSE1
 70
     0
  9
$DIMSE2
 70
     0
  9
$DIMTAD
 70
     1
  9
$DIMZIN
 70
     8
  9
$DIMBLK
  1

  9
$DIMASO
 70
     1
  9
$DIMSHO
 70
     1
  9
$DIMPOST
  1

  9
$DIMAPOST
  1

  9
$DIMALT
 70
     0
  9
$DIMALTD
 70
     2
  9
$DIMALTF
 40
25.399999999999999
  9
$DIMLFAC
 40
1.0
  9
$DIMTOFL
 70
     1
  9
$DIMTVP
 40
0.0
  9
$DIMTIX
 70
     0
  9
$DIMSOXD
 70
     0
  9
$DIMSAH
 70
     0
  9
$DIMBLK1
  1

  9
$DIMBLK2
  1

  9
$DIMSTYLE
  2
STANDARD
  9
$DIMCLRD
 70
     0
  9
$DIMCLRE
 70
     0
  9
$DIMCLRT
 70
     0
  9
$DIMTFAC
 40
1.0
  9
$DIMGAP
 40
1.0
  9
$LUNITS
 70
     2
  9
$LUPREC
 70
     4
  9
$SKETCHINC
 40
0.1
  9
$FILLETRAD
 40
5.0
  9
$AUNITS
 70
     0
  9
$AUPREC
 70
     2
  9
$MENU
  1
acad
  9
$ELEVATION
 40
0.0
  9
$PELEVATION
 40
0.0
  9
$THICKNESS
 40
0.0
  9
$LIMCHECK
 70
     0
  9
$BLIPMODE
 70
     0
  9
$CHAMFERA
 40
0.0
  9
$CHAMFERB
 40
0.0
  9
$SKPOLY
 70
     0
  9
$TDCREATE
 40
2449450.4613901619
  9
$TDUPDATE
 40
2453443.5645773611
  9
$TDINDWG
 40
1.7837472801000001
  9
$TDUSRTIMER
 40
1.7837472801000001
  9
$USRTIMER
 70
     1
  9
$ANGBASE
 50
0.0
  9
$ANGDIR
 70
     0
  9
$PDMODE
 70
     0
  9
$PDSIZE
 40
0.0
  9
$PLINEWID
 40
0.0
  9
$COORDS
 70
     1
  9
$SPLFRAME
 70
     0
  9
$SPLINETYPE
 70
     6
  9
$SPLINESEGS
 70
     8
  9
$ATTDIA
 70
     0
  9
$ATTREQ
 70
     1
  9
$HANDLING
 70
     1
  9
$HANDSEED
  5
76
  9
$SURFTAB1
 70
     6
  9
$SURFTAB2
 70
     6
  9
$SURFTYPE
 70
     6
  9
$SURFU
 70
     6
  9
$SURFV
 70
     6
  9
$UCSNAME
  2

  9
$UCSORG
 10
0.0
 20
0.0
 30
0.0
  9
$UCSXDIR
 10
1.0
 20
0.0
 30
0.0
  9
$UCSYDIR
 10
0.0
 20
1.0
 30
0.0
  9
$PUCSNAME
  2

  9
$PUCSORG
 10
0.0
 20
0.0
 30
0.0
  9
$PUCSXDIR
 10
1.0
 20
0.0
 30
0.0
  9
$PUCSYDIR
 10
0.0
 20
1.0
 30
0.0
  9
$USERI1
 70
     0
  9
$USERI2
 70
     0
  9
$USERI3
 70
     0
  9
$USERI4
 70
     0
  9
$USERI5
 70
     0
  9
$USERR1
 40
0.0
  9
$USERR2
 40
0.0
  9
$USERR3
 40
0.0
  9
$USERR4
 40
0.0
  9
$USERR5
 40
0.0
  9
$WORLDVIEW
 70
     1
  9
$SHADEDGE
 70
     3
  9
$SHADEDIF
 70
    70
  9
$TILEMODE
 70
     1
  9
$MAXACTVP
 70
    16
  9
$PLIMCHECK
 70
     0
  9
$PEXTMIN
 10
1.0000000000000000E+020
 20
1.0000000000000000E+020
 30
1.0000000000000000E+020
  9
$PEXTMAX
 10
-1.0000000000000000E+020
 20
-1.0000000000000000E+020
 30
-1.0000000000000000E+020
  9
$PLIMMIN
 10
0.0
 20
0.0
  9
$PLIMMAX
 10
420.0
 20
297.0
  9
$UNITMODE
 70
     0
  9
$VISRETAIN
 70
     0
  9
$PLINEGEN
 70
     0
  9
$PSLTSCALE
 70
     1
  0
ENDSEC
  0
SECTION
  2
TABLES
  0
TABLE
  2
VPORT
 70
     2
  0
VPORT
  2
*ACTIVE
 70
     0
 10
0.0
 20
0.0
 11
1.0
 21
1.0
 12
-2.514399476539551
 22
92.00403704663097
 13
0.0
 23
0.0
 14
0.1
 24
0.1
 15
10.0
 25
10.0
 16
0.0
 26
0.0
 36
1.0
 17
0.0
 27
0.0
 37
0.0
 40
231.78676061881859
 41
1.4993646759847521
 42
50.0
 43
0.0
 44
0.0
 50
0.0
 51
0.0
 71
     0
 72
   100
 73
     1
 74
     1
 75
     1
 76
     0
 77
     0
 78
     0
  0
ENDTAB
  0
TABLE
  2
LTYPE
 70
     2
  0
LTYPE
  2
CONTINUOUS
 70
     0
  3
Solid line
 72
    65
 73
     0
 40
0.0
  0
LTYPE
  2
HIDDEN
 70
     0
  3
Hidden __ __ __ __ __ __ __ __ __ __ __ __ __ _
 72
    65
 73
     2
 40
9.5249999999999986
 49
6.3499999999999988
 49
-3.1749999999999989
  0
ENDTAB
  0
TABLE
  2
LAYER
 70
     1
  0
LAYER
  2
0
 70
     0
 62
     7
  6
CONTINUOUS
  0
ENDTAB
  0
TABLE
  2
STYLE
 70
     2
  0
STYLE
  2
STANDARD
 70
     0
 40
0.0
 41
1.0
 50
0.0
 71
     0
 42
3.0
  3
txt
  4

  0
STYLE
  2
SST
 70
     0
 40
0.0
 41
1.0
 50
0.0
 71
     0
 42
3.5
  3
romans.shx
  4

  0
ENDTAB
  0
TABLE
  2
VIEW
 70
     0
  0
ENDTAB
  0
TABLE
  2
UCS
 70
     0
  0
ENDTAB
  0
TABLE
  2
APPID
 70
     1
  0
APPID
  2
ACAD
 70
     0
  0
ENDTAB
  0
TABLE
  2
DIMSTYLE
 70
     1
  0
DIMSTYLE
  2
STANDARD
 70
     0
  3

  4

  5

  6

  7

 40
2.0
 41
2.0
 42
1.0
 43
10.0
 44
1.0
 45
0.0
 46
0.0
 47
0.0
 48
0.0
140
3.5
141
2.5
142
0.0
143
25.399999999999999
144
1.0
145
0.0
146
1.0
147
1.0
 71
     0
 72
     0
 73
     0
 74
     0
 75
     0
 76
     0
 77
     1
 78
     8
170
     0
171
     2
172
     1
173
     0
174
     0
175
     0
176
     0
177
     0
178
     0
  0
ENDTAB
  0
ENDSEC
  0
SECTION
  2
BLOCKS
  0
BLOCK
  8
0
  2
$MODEL_SPACE
 70
     0
 10
0.0
 20
0.0
 30
0.0
  3
$MODEL_SPACE
  1

  0
ENDBLK
  5
9
  8
0
  0
BLOCK
 67
     1
  8
0
  2
$PAPER_SPACE
 70
     0
 10
0.0
 20
0.0
 30
0.0
  3
$PAPER_SPACE
  1

  0
ENDBLK
  5
E
 67
     1
  8
0
  0
BLOCK
  8
0
  2
SIMPSON-STRONG-TIE
 70
     0
 10
0.0
 20
0.0
 30
0.0
  3
SIMPSON-STRONG-TIE
  1

  0
TEXT
  5
51
  8
0
  6
CONTINUOUS
 10
-4.7318727780691416
 20
4.4215860385237811
 30
0.0
 40
2.0
  1
SIMPSON
 50
316.94148639091338
  7
SST
 72
     1
 11
0.0
 21
0.0
 31
0.0
  0
TEXT
  5
52
  8
0
  6
CONTINUOUS
 10
-7.9648409725863862
 20
3.4769825481547749
 30
0.0
 40
2.0
  1
Strong-Tie
 50
316.94148639091338
  7
SST
 72
     1
 11
-2.0499999999999541
 21
-2.0499999999999541
 31
0.0
  0
ENDBLK
  5
53
  8
0
  0
ENDSEC
  0
SECTION
  2
ENTITIES
  0
LINE
  5
2A
  8
0
  6
HIDDEN
 62
     8
 10
-90.000000000000057
 20
182.0
 30
0.0
 11
-5.000000000000056
 21
182.0
 31
0.0
  0
LINE
  5
2B
  8
0
 10
-92.500000000000057
 20
179.5
 30
0.0
 11
-92.500000000000114
 21
117.8248698547106
 31
0.0
  0
LINE
  5
2C
  8
0
 10
-2.500000000000056
 20
179.5
 30
0.0
 11
-2.5000000000001128
 21
117.8248698547106
 31
0.0
  0
LINE
  5
2D
  8
0
 10
-2.5
 20
4.5000000000001128
 30
0.0
 11
-2.5
 21
66.175130145289415
 31
0.0
  0
LINE
  5
2E
  8
0
 10
87.499999999999886
 20
4.500000000000056
 30
0.0
 11
87.499999999999943
 21
66.175130145289472
 31
0.0
  0
LINE
  5
2F
  8
0
 10
-89.755877884520146
 20
113.3626938193963
 30
0.0
 11
-5.2441221154799669
 21
70.63730618060373
 31
0.0
  0
LINE
  5
30
  8
0
 10
0.2441221154798541
 20
113.3626938193963
 30
0.0
 11
84.755877884519975
 21
70.637306180603787
 31
0.0
  0
ARC
  5
31
  8
0
 10
-7.5
 20
66.175130145289415
 30
0.0
 40
5.0
 50
0.0
 51
63.180867209030758
  0
ARC
  5
32
  8
0
 10
82.499999999999943
 20
66.175130145289472
 30
0.0
 40
5.0
 50
359.99999999999989
 51
63.180867209030758
  0
ARC
  5
33
  8
0
 10
2.4999999999998859
 20
117.8248698547106
 30
0.0
 40
5.0
 50
180.0
 51
243.18086720903079
  0
ARC
  5
34
  8
0
 10
-87.500000000000114
 20
117.8248698547106
 30
0.0
 40
5.0
 50
179.99999999999989
 51
243.18086720903079
  0
ARC
  5
35
  8
0
 10
-92.500000000000057
 20
182.0
 30
0.0
 40
2.5
 50
270.0
 51
0.0
  0
ARC
  5
36
  8
0
 10
-2.500000000000056
 20
182.0
 30
0.0
 40
2.5
 50
180.0
 51
270.0
  0
LINE
  5
37
  8
0
 10
-90.000000000000057
 20
184.0
 30
0.0
 11
-5.0000000000001128
 21
184.0
 31
0.0
  0
LINE
  5
38
  8
0
 10
-90.000000000000057
 20
182.0
 30
0.0
 11
-90.000000000000057
 21
184.0
 31
0.0
  0
LINE
  5
39
  8
0
 10
-5.000000000000056
 20
182.0
 30
0.0
 11
-5.000000000000056
 21
184.0
 31
0.0
  0
LINE
  5
3A
  8
0
  6
HIDDEN
 62
     8
 10
84.999999999999886
 20
2.000000000000056
 30
0.0
 11
-0.0000000000001137
 21
2.000000000000056
 31
0.0
  0
LINE
  5
3B
  8
0
 10
84.999999999999943
 20
0.0000000000000568
 30
0.0
 11
-0.0000000000000568
 21
0.0000000000000568
 31
0.0
  0
LINE
  5
3C
  8
0
 10
84.999999999999886
 20
2.000000000000056
 30
0.0
 11
84.999999999999886
 21
0.0000000000001137
 31
0.0
  0
ARC
  5
3D
  8
0
 10
87.499999999999886
 20
2.000000000000056
 30
0.0
 40
2.5
 50
90.0
 51
180.0
  0
LINE
  5
3E
  8
0
 10
-0.0000000000001137
 20
2.000000000000056
 30
0.0
 11
-0.0000000000001137
 21
0.0000000000001137
 31
0.0
  0
ARC
  5
3F
  8
0
 10
-2.5000000000001128
 20
2.0000000000001128
 30
0.0
 40
2.5
 50
0.0
 51
90.0
  0
CIRCLE
  5
40
  8
0
 10
-82.500000000000114
 20
128.25
 30
0.0
 40
2.5
  0
CIRCLE
  5
41
  8
0
 10
-62.500000000000107
 20
134.75
 30
0.0
 40
2.5
  0
CIRCLE
  5
42
  8
0
 10
-62.500000000000107
 20
114.75
 30
0.0
 40
2.5
  0
CIRCLE
  5
43
  8
0
 10
-42.500000000000107
 20
121.25
 30
0.0
 40
2.5
  0
CIRCLE
  5
44
  8
0
 10
-42.500000000000163
 20
101.25
 30
0.0
 40
2.5
  0
CIRCLE
  5
45
  8
0
 10
57.5
 20
69.250000000000057
 30
0.0
 40
2.5
  0
CIRCLE
  5
46
  8
0
 10
37.500000000000057
 20
82.750000000000057
 30
0.0
 40
2.5
  0
CIRCLE
  5
47
  8
0
 10
57.499999999999943
 20
49.250000000000057
 30
0.0
 40
2.5
  0
CIRCLE
  5
48
  8
0
 10
37.5
 20
62.75000000000005
 30
0.0
 40
2.5
  0
CIRCLE
  5
49
  8
0
 10
77.5
 20
55.750000000000057
 30
0.0
 40
2.5
  0
CIRCLE
  5
4A
  8
0
 10
-82.500000000000114
 20
148.25
 30
0.0
 40
2.5
  0
CIRCLE
  5
4B
  8
0
 10
-42.500000000000107
 20
141.25
 30
0.0
 40
2.5
  0
CIRCLE
  5
4C
  8
0
 10
37.49999999999995
 20
42.75000000000005
 30
0.0
 40
2.5
  0
CIRCLE
  5
4D
  8
0
 10
77.499999999999943
 20
35.750000000000057
 30
0.0
 40
2.5
  0
INSERT
  5
4E
  8
0
  2
SIMPSON-STRONG-TIE
 10
-1.1000000000000509
 20
88.950000000000102
 30
0.0
 50
1.0
  0
ENDSEC
  0
EOF
