  0
SECTION
  2
HEADER
  9
$ACADVER
  1
AC1009
  9
$INSBASE
 10
0.0
 20
0.0
 30
0.0
  9
$EXTMIN
 10
-32.957422358137549
 20
-93.000000000000085
 30
0.0
  9
$EXTMAX
 10
32.957422358137549
 20
87.499999999999915
 30
0.0
  9
$LIMMIN
 10
0.0
 20
0.0
  9
$LIMMAX
 10
420.0
 20
297.0
  9
$ORTHOMODE
 70
     0
  9
$REGENMODE
 70
     1
  9
$FILLMODE
 70
     1
  9
$QTEXTMODE
 70
     0
  9
$MIRRTEXT
 70
     1
  9
$DRAGMODE
 70
     2
  9
$LTSCALE
 40
1.0
  9
$OSMODE
 70
    47
  9
$ATTMODE
 70
     1
  9
$TEXTSIZE
 40
3.5
  9
$TRACEWID
 40
0.05
  9
$TEXTSTYLE
  7
SST
  9
$CLAYER
  8
0
  9
$CELTYPE
  6
BYLAYER
  9
$CECOLOR
 62
   256
  9
$DIMSCALE
 40
2.0
  9
$DIMASZ
 40
2.0
  9
$DIMEXO
 40
1.0
  9
$DIMDLI
 40
10.0
  9
$DIMRND
 40
0.0
  9
$DIMDLE
 40
0.0
  9
$DIMEXE
 40
1.0
  9
$DIMTP
 40
0.0
  9
$DIMTM
 40
0.0
  9
$DIMTXT
 40
3.5
  9
$DIMCEN
 40
2.5
  9
$DIMTSZ
 40
0.0
  9
$DIMTOL
 70
     0
  9
$DIMLIM
 70
     0
  9
$DIMTIH
 70
     0
  9
$DIMTOH
 70
     0
  9
$DIMSE1
 70
     0
  9
$DIMSE2
 70
     0
  9
$DIMTAD
 70
     1
  9
$DIMZIN
 70
     8
  9
$DIMBLK
  1

  9
$DIMASO
 70
     1
  9
$DIMSHO
 70
     1
  9
$DIMPOST
  1

  9
$DIMAPOST
  1

  9
$DIMALT
 70
     0
  9
$DIMALTD
 70
     2
  9
$DIMALTF
 40
25.399999999999999
  9
$DIMLFAC
 40
1.0
  9
$DIMTOFL
 70
     1
  9
$DIMTVP
 40
0.0
  9
$DIMTIX
 70
     0
  9
$DIMSOXD
 70
     0
  9
$DIMSAH
 70
     0
  9
$DIMBLK1
  1

  9
$DIMBLK2
  1

  9
$DIMSTYLE
  2
STANDARD
  9
$DIMCLRD
 70
     0
  9
$DIMCLRE
 70
     0
  9
$DIMCLRT
 70
     0
  9
$DIMTFAC
 40
1.0
  9
$DIMGAP
 40
1.0
  9
$LUNITS
 70
     2
  9
$LUPREC
 70
     4
  9
$SKETCHINC
 40
0.1
  9
$FILLETRAD
 40
5.0
  9
$AUNITS
 70
     0
  9
$AUPREC
 70
     2
  9
$MENU
  1
acad
  9
$ELEVATION
 40
0.0
  9
$PELEVATION
 40
0.0
  9
$THICKNESS
 40
0.0
  9
$LIMCHECK
 70
     0
  9
$BLIPMODE
 70
     0
  9
$CHAMFERA
 40
0.0
  9
$CHAMFERB
 40
0.0
  9
$SKPOLY
 70
     0
  9
$TDCREATE
 40
2449450.4613901619
  9
$TDUPDATE
 40
2453443.564654584
  9
$TDINDWG
 40
1.7842154398000001
  9
$TDUSRTIMER
 40
1.7842154398000001
  9
$USRTIMER
 70
     1
  9
$ANGBASE
 50
0.0
  9
$ANGDIR
 70
     0
  9
$PDMODE
 70
     0
  9
$PDSIZE
 40
0.0
  9
$PLINEWID
 40
0.0
  9
$COORDS
 70
     1
  9
$SPLFRAME
 70
     0
  9
$SPLINETYPE
 70
     6
  9
$SPLINESEGS
 70
     8
  9
$ATTDIA
 70
     0
  9
$ATTREQ
 70
     1
  9
$HANDLING
 70
     1
  9
$HANDSEED
  5
E8
  9
$SURFTAB1
 70
     6
  9
$SURFTAB2
 70
     6
  9
$SURFTYPE
 70
     6
  9
$SURFU
 70
     6
  9
$SURFV
 70
     6
  9
$UCSNAME
  2

  9
$UCSORG
 10
0.0
 20
0.0
 30
0.0
  9
$UCSXDIR
 10
1.0
 20
0.0
 30
0.0
  9
$UCSYDIR
 10
0.0
 20
1.0
 30
0.0
  9
$PUCSNAME
  2

  9
$PUCSORG
 10
0.0
 20
0.0
 30
0.0
  9
$PUCSXDIR
 10
1.0
 20
0.0
 30
0.0
  9
$PUCSYDIR
 10
0.0
 20
1.0
 30
0.0
  9
$USERI1
 70
     0
  9
$USERI2
 70
     0
  9
$USERI3
 70
     0
  9
$USERI4
 70
     0
  9
$USERI5
 70
     0
  9
$USERR1
 40
0.0
  9
$USERR2
 40
0.0
  9
$USERR3
 40
0.0
  9
$USERR4
 40
0.0
  9
$USERR5
 40
0.0
  9
$WORLDVIEW
 70
     1
  9
$SHADEDGE
 70
     3
  9
$SHADEDIF
 70
    70
  9
$TILEMODE
 70
     1
  9
$MAXACTVP
 70
    16
  9
$PLIMCHECK
 70
     0
  9
$PEXTMIN
 10
1.0000000000000000E+020
 20
1.0000000000000000E+020
 30
1.0000000000000000E+020
  9
$PEXTMAX
 10
-1.0000000000000000E+020
 20
-1.0000000000000000E+020
 30
-1.0000000000000000E+020
  9
$PLIMMIN
 10
0.0
 20
0.0
  9
$PLIMMAX
 10
420.0
 20
297.0
  9
$UNITMODE
 70
     0
  9
$VISRETAIN
 70
     0
  9
$PLINEGEN
 70
     0
  9
$PSLTSCALE
 70
     1
  0
ENDSEC
  0
SECTION
  2
TABLES
  0
TABLE
  2
VPORT
 70
     2
  0
VPORT
  2
*ACTIVE
 70
     0
 10
0.0
 20
0.0
 11
1.0
 21
1.0
 12
-0.0128166494108655
 22
-2.750838717970566
 13
0.0
 23
0.0
 14
0.1
 24
0.1
 15
10.0
 25
10.0
 16
0.0
 26
0.0
 36
1.0
 17
0.0
 27
0.0
 37
0.0
 40
227.34799198554799
 41
1.4993646759847521
 42
50.0
 43
0.0
 44
0.0
 50
0.0
 51
0.0
 71
     0
 72
   100
 73
     1
 74
     1
 75
     1
 76
     0
 77
     0
 78
     0
  0
ENDTAB
  0
TABLE
  2
LTYPE
 70
     1
  0
LTYPE
  2
CONTINUOUS
 70
     0
  3
Solid line
 72
    65
 73
     0
 40
0.0
  0
ENDTAB
  0
TABLE
  2
LAYER
 70
     1
  0
LAYER
  2
0
 70
     0
 62
     7
  6
CONTINUOUS
  0
ENDTAB
  0
TABLE
  2
STYLE
 70
     2
  0
STYLE
  2
STANDARD
 70
     0
 40
0.0
 41
1.0
 50
0.0
 71
     0
 42
3.0
  3
txt
  4

  0
STYLE
  2
SST
 70
     0
 40
0.0
 41
1.0
 50
0.0
 71
     0
 42
3.5
  3
romans.shx
  4

  0
ENDTAB
  0
TABLE
  2
VIEW
 70
     0
  0
ENDTAB
  0
TABLE
  2
UCS
 70
     0
  0
ENDTAB
  0
TABLE
  2
APPID
 70
     2
  0
APPID
  2
ACAD
 70
     0
  0
APPID
  2
CONTENTBLOCKICON
 70
     0
  0
ENDTAB
  0
TABLE
  2
DIMSTYLE
 70
     1
  0
DIMSTYLE
  2
STANDARD
 70
     0
  3

  4

  5

  6

  7

 40
2.0
 41
2.0
 42
1.0
 43
10.0
 44
1.0
 45
0.0
 46
0.0
 47
0.0
 48
0.0
140
3.5
141
2.5
142
0.0
143
25.399999999999999
144
1.0
145
0.0
146
1.0
147
1.0
 71
     0
 72
     0
 73
     0
 74
     0
 75
     0
 76
     0
 77
     1
 78
     8
170
     0
171
     2
172
     1
173
     0
174
     0
175
     0
176
     0
177
     0
178
     0
  0
ENDTAB
  0
ENDSEC
  0
SECTION
  2
BLOCKS
  0
BLOCK
  8
0
  2
$MODEL_SPACE
 70
     0
 10
0.0
 20
0.0
 30
0.0
  3
$MODEL_SPACE
  1

  0
ENDBLK
  5
B
  8
0
  0
BLOCK
 67
     1
  8
0
  2
$PAPER_SPACE
 70
     0
 10
0.0
 20
0.0
 30
0.0
  3
$PAPER_SPACE
  1

  0
ENDBLK
  5
10
 67
     1
  8
0
  0
BLOCK
  8
0
  2
SIMPSON-STRONG-TIE
 70
     0
 10
0.0
 20
0.0
 30
0.0
  3
SIMPSON-STRONG-TIE
  1

  0
TEXT
  5
4A
  8
0
  6
CONTINUOUS
 10
-4.7318727780691416
 20
4.4215860385237811
 30
0.0
 40
2.0
  1
SIMPSON
 50
316.94148639091338
  7
SST
 72
     1
 11
0.0
 21
0.0
 31
0.0
  0
TEXT
  5
4B
  8
0
  6
CONTINUOUS
 10
-7.9648409725863862
 20
3.4769825481547749
 30
0.0
 40
2.0
  1
Strong-Tie
 50
316.94148639091338
  7
SST
 72
     1
 11
-2.0499999999999541
 21
-2.0499999999999541
 31
0.0
  0
ENDBLK
  5
4C
  8
0
  0
BLOCK
  8
0
  2
11201-P1-T
 70
     0
 10
0.0
 20
0.0
 30
0.0
  3
11201-P1-T
  1

  0
LINE
  5
A4
  8
0
 10
-1.9999999999997971
 20
-2.4999999999999432
 30
0.0
 11
-1.9999999999997971
 21
-93.000000000000142
 31
0.0
  0
LINE
  5
A5
  8
0
 10
0.0000000000002025
 20
-2.4999999999998859
 30
0.0
 11
0.0000000000002025
 21
-93.000000000000142
 31
0.0
  0
LINE
  5
A6
  8
0
 10
29.000000000000089
 20
85.0
 30
0.0
 11
29.000000000000199
 21
-90.500000000000142
 31
0.0
  0
CIRCLE
  5
A7
  8
0
 10
19.000000000000199
 20
-80.500000000000085
 30
0.0
 40
2.5
  0
LINE
  5
A8
  8
0
 10
29.000000000000089
 20
-90.500000000000142
 30
0.0
 11
2.999999999999861
 21
-90.500000000000142
 31
0.0
  0
ARC
  5
A9
  8
0
 10
3.561027326573341
 20
-94.223232791887909
 30
0.0
 40
3.7652641452825582
 50
98.569025240159249
 51
161.04211694436989
  0
LINE
  5
AA
  8
0
 10
0.0000000000000888
 20
-93.000000000000142
 30
0.0
 11
-1.9999999999997971
 21
-93.000000000000142
 31
0.0
  0
CIRCLE
  5
AB
  8
0
 10
18.999999999999972
 20
-40.500000000000107
 30
0.0
 40
2.5
  0
LINE
  5
AC
  8
0
 10
0.0000000000002025
 20
84.999999999999886
 30
0.0
 11
0.0000000000002025
 21
0.0
 31
0.0
  0
LINE
  5
AD
  8
0
 10
-1.9999999999997971
 20
87.499999999999844
 30
0.0
 11
-1.9999999999997971
 21
-2.4999999999998859
 31
0.0
  0
LINE
  5
AE
  8
0
 10
29.000000000000199
 20
-0.0000000000000568
 30
0.0
 11
3.0000000000002021
 21
0.0000000000001137
 31
0.0
  0
LINE
  5
AF
  8
0
 10
3.0000000000002021
 20
0.0
 30
0.0
 11
0.0000000000002025
 21
0.0
 31
0.0
  0
ARC
  5
B0
  8
0
 10
3.561027326573341
 20
-3.7232327918877668
 30
0.0
 40
3.7652641452825582
 50
98.569025240159249
 51
161.04211694436989
  0
LINE
  5
B1
  8
0
 10
0.0000000000002025
 20
-2.4999999999999432
 30
0.0
 11
-1.9999999999997971
 21
-2.4999999999998859
 31
0.0
  0
ARC
  5
B2
  8
0
 10
0.4792289469472486
 20
-2.4333831575576141
 30
0.0
 40
2.4801237822087092
 50
101.1412171586864
 51
181.5391663331331
  0
CIRCLE
  5
B3
  8
0
 10
18.999999999999972
 20
34.99999999999995
 30
0.0
 40
2.5
  0
LINE
  5
B4
  8
0
 10
29.000000000000199
 20
84.999999999999943
 30
0.0
 11
3.0000000000002021
 21
84.999999999999844
 31
0.0
  0
CIRCLE
  5
B5
  8
0
 10
19.000000000000199
 20
74.999999999999886
 30
0.0
 40
2.5
  0
ARC
  5
B6
  8
0
 10
3.561027326573341
 20
88.72323279188771
 30
0.0
 40
3.7652641452825582
 50
198.95788305563011
 51
261.43097475984081
  0
LINE
  5
B7
  8
0
 10
3.0000000000002021
 20
84.999999999999886
 30
0.0
 11
0.0000000000002025
 21
84.999999999999886
 31
0.0
  0
ARC
  5
B8
  8
0
 10
0.4792289469472486
 20
87.433383157557543
 30
0.0
 40
2.4801237822087092
 50
178.46083366686679
 51
258.8587828413136
  0
LINE
  5
B9
  8
0
 10
0.0000000000002025
 20
87.499999999999844
 30
0.0
 11
-1.9999999999997971
 21
87.499999999999844
 31
0.0
  0
INSERT
  5
BA
  8
0
  2
SIMPSON-STRONG-TIE
 10
13.300000000000161
 20
-20.900000000000091
 30
0.0
 50
0.999999999999995
  0
ENDBLK
  5
6A
  8
0
  0
BLOCK
  8
0
  2
11201-P2-T
 70
     0
 10
0.0
 20
0.0
 30
0.0
  3
11201-P2-T
  1

  0
LINE
  5
BC
  8
0
 10
-29.00000000000006
 20
84.999999999999915
 30
0.0
 11
-3.0
 21
84.999999999999801
 31
0.0
  0
LINE
  5
BD
  8
0
 10
-28.99999999999995
 20
84.999999999999986
 30
0.0
 11
-29.0
 21
-90.500000000000156
 31
0.0
  0
LINE
  5
BE
  8
0
 10
0.0000000000000568
 20
-93.000000000000156
 30
0.0
 11
2.0
 21
-93.000000000000156
 31
0.0
  0
LINE
  5
BF
  8
0
 10
1.9999999999999429
 20
87.499999999999801
 30
0.0
 11
2.0
 21
-2.4999999999999152
 31
0.0
  0
LINE
  5
C0
  8
0
 10
0.0
 20
84.999999999999844
 30
0.0
 11
0.0
 21
-0.0000000000000289
 31
0.0
  0
LINE
  5
C1
  8
0
 10
0.0
 20
87.499999999999801
 30
0.0
 11
1.9999999999999429
 21
87.499999999999801
 31
0.0
  0
ARC
  5
C2
  8
0
 10
-3.5610273265731389
 20
88.723232791887668
 30
0.0
 40
3.7652641452825582
 50
278.56902524015931
 51
341.04211694436981
  0
LINE
  5
C3
  8
0
 10
-3.0
 20
84.999999999999844
 30
0.0
 11
0.0
 21
84.999999999999844
 31
0.0
  0
ARC
  5
C4
  8
0
 10
-0.479228946947103
 20
87.433383157557529
 30
0.0
 40
2.4801237822087092
 50
281.1412171586864
 51
1.539166333133126
  0
ARC
  5
C5
  8
0
 10
-3.5610273265731389
 20
-3.7232327918877961
 30
0.0
 40
3.7652641452825582
 50
18.957883055630109
 51
81.430974759840765
  0
LINE
  5
C6
  8
0
 10
-3.0
 20
-0.0000000000000289
 30
0.0
 11
0.0
 21
-0.0000000000000289
 31
0.0
  0
ARC
  5
C7
  8
0
 10
-0.479228946947103
 20
-2.433383157557643
 30
0.0
 40
2.4801237822087092
 50
358.4608336668669
 51
78.858782841313626
  0
LINE
  5
C8
  8
0
 10
0.0
 20
-2.499999999999972
 30
0.0
 11
1.9999999999999429
 21
-2.4999999999999152
 31
0.0
  0
LINE
  5
C9
  8
0
 10
-29.00000000000006
 20
-0.0000000000000857
 30
0.0
 11
-3.0
 21
0.0000000000000848
 31
0.0
  0
LINE
  5
CA
  8
0
 10
-28.99999999999995
 20
-90.500000000000156
 30
0.0
 11
-2.9999999999996581
 21
-90.500000000000156
 31
0.0
  0
LINE
  5
CB
  8
0
 10
1.9999999999999429
 20
-2.499999999999972
 30
0.0
 11
2.0
 21
-93.000000000000156
 31
0.0
  0
LINE
  5
CC
  8
0
 10
0.0
 20
-2.4999999999999152
 30
0.0
 11
0.0
 21
-93.000000000000156
 31
0.0
  0
ARC
  5
CD
  8
0
 10
-3.5610273265731389
 20
-94.223232791887924
 30
0.0
 40
3.7652641452825582
 50
18.957883055630109
 51
81.430974759840765
  0
CIRCLE
  5
CE
  8
0
 10
-19.0
 20
74.999999999999844
 30
0.0
 40
2.5
  0
CIRCLE
  5
CF
  8
0
 10
-18.999999999999769
 20
34.999999999999922
 30
0.0
 40
2.5
  0
CIRCLE
  5
D0
  8
0
 10
-18.999999999999769
 20
-40.500000000000142
 30
0.0
 40
2.5
  0
CIRCLE
  5
D1
  8
0
 10
-19.0
 20
-80.500000000000114
 30
0.0
 40
2.5
  0
INSERT
  5
D2
  8
0
  2
SIMPSON-STRONG-TIE
 10
-13.600000000000019
 20
-22.700000000000131
 30
0.0
 50
0.999999999999995
  0
ENDBLK
  5
4D
  8
0
  0
ENDSEC
  0
SECTION
  2
ENTITIES
  0
INSERT
  5
BB
  8
0
  2
11201-P1-T
 10
-30.50000000000016
 20
0.0000000000000568
 30
0.0
  0
INSERT
  5
D3
  8
0
  2
11201-P2-T
 10
30.500000000000021
 20
0.0000000000000857
 30
0.0
  0
ENDSEC
  0
EOF
