  0
SECTION
  2
HEADER
  9
$ACADVER
  1
AC1015
  9
$ACADMAINTVER
 70
    20
  9
$DWGCODEPAGE
  3
ANSI_1252
  9
$INSBASE
 10
333.0552538682058
 20
208.2696041519453
 30
0.0
  9
$EXTMIN
 10
162.0552538682058
 20
168.2696041519453
 30
0.0
  9
$EXTMAX
 10
504.0552538682057
 20
248.2696041519454
 30
0.0
  9
$LIMMIN
 10
0.0
 20
0.0
  9
$LIMMAX
 10
420.0
 20
297.0
  9
$ORTHOMODE
 70
     0
  9
$REGENMODE
 70
     1
  9
$FILLMODE
 70
     1
  9
$QTEXTMODE
 70
     0
  9
$MIRRTEXT
 70
     0
  9
$LTSCALE
 40
1.0
  9
$ATTMODE
 70
     1
  9
$TEXTSIZE
 40
2.5
  9
$TRACEWID
 40
1.0
  9
$TEXTSTYLE
  7
Standard
  9
$CLAYER
  8
0
  9
$CELTYPE
  6
ByLayer
  9
$CECOLOR
 62
   256
  9
$CELTSCALE
 40
1.0
  9
$DISPSILH
 70
     0
  9
$DIMSCALE
 40
1.0
  9
$DIMASZ
 40
2.5
  9
$DIMEXO
 40
0.625
  9
$DIMDLI
 40
3.75
  9
$DIMRND
 40
0.0
  9
$DIMDLE
 40
0.0
  9
$DIMEXE
 40
1.25
  9
$DIMTP
 40
0.0
  9
$DIMTM
 40
0.0
  9
$DIMTXT
 40
2.5
  9
$DIMCEN
 40
2.5
  9
$DIMTSZ
 40
0.0
  9
$DIMTOL
 70
     0
  9
$DIMLIM
 70
     0
  9
$DIMTIH
 70
     0
  9
$DIMTOH
 70
     0
  9
$DIMSE1
 70
     0
  9
$DIMSE2
 70
     0
  9
$DIMTAD
 70
     1
  9
$DIMZIN
 70
     8
  9
$DIMBLK
  1

  9
$DIMASO
 70
     1
  9
$DIMSHO
 70
     1
  9
$DIMPOST
  1

  9
$DIMAPOST
  1

  9
$DIMALT
 70
     0
  9
$DIMALTD
 70
     3
  9
$DIMALTF
 40
0.03937007874016
  9
$DIMLFAC
 40
1.0
  9
$DIMTOFL
 70
     1
  9
$DIMTVP
 40
0.0
  9
$DIMTIX
 70
     0
  9
$DIMSOXD
 70
     0
  9
$DIMSAH
 70
     0
  9
$DIMBLK1
  1

  9
$DIMBLK2
  1

  9
$DIMSTYLE
  2
ISO-25
  9
$DIMCLRD
 70
     0
  9
$DIMCLRE
 70
     0
  9
$DIMCLRT
 70
     0
  9
$DIMTFAC
 40
1.0
  9
$DIMGAP
 40
0.625
  9
$DIMJUST
 70
     0
  9
$DIMSD1
 70
     0
  9
$DIMSD2
 70
     0
  9
$DIMTOLJ
 70
     0
  9
$DIMTZIN
 70
     8
  9
$DIMALTZ
 70
     0
  9
$DIMALTTZ
 70
     0
  9
$DIMUPT
 70
     0
  9
$DIMDEC
 70
     2
  9
$DIMTDEC
 70
     2
  9
$DIMALTU
 70
     2
  9
$DIMALTTD
 70
     3
  9
$DIMTXSTY
  7
Standard
  9
$DIMAUNIT
 70
     0
  9
$DIMADEC
 70
     0
  9
$DIMALTRND
 40
0.0
  9
$DIMAZIN
 70
     0
  9
$DIMDSEP
 70
    44
  9
$DIMATFIT
 70
     3
  9
$DIMFRAC
 70
     0
  9
$DIMLDRBLK
  1

  9
$DIMLUNIT
 70
     2
  9
$DIMLWD
 70
    -2
  9
$DIMLWE
 70
    -2
  9
$DIMTMOVE
 70
     0
  9
$LUNITS
 70
     2
  9
$LUPREC
 70
     4
  9
$SKETCHINC
 40
1.0
  9
$FILLETRAD
 40
0.0
  9
$AUNITS
 70
     0
  9
$AUPREC
 70
     0
  9
$MENU
  1
.
  9
$ELEVATION
 40
0.0
  9
$PELEVATION
 40
0.0
  9
$THICKNESS
 40
0.0
  9
$LIMCHECK
 70
     0
  9
$CHAMFERA
 40
0.0
  9
$CHAMFERB
 40
0.0
  9
$CHAMFERC
 40
0.0
  9
$CHAMFERD
 40
0.0
  9
$SKPOLY
 70
     0
  9
$TDCREATE
 40
2453783.620743264
  9
$TDUCREATE
 40
2453783.579076597
  9
$TDUPDATE
 40
2453797.634279618
  9
$TDUUPDATE
 40
2453797.592612952
  9
$TDINDWG
 40
0.0090013773
  9
$TDUSRTIMER
 40
0.0090013773
  9
$USRTIMER
 70
     1
  9
$ANGBASE
 50
0.0
  9
$ANGDIR
 70
     0
  9
$PDMODE
 70
     0
  9
$PDSIZE
 40
0.0
  9
$PLINEWID
 40
0.0
  9
$SPLFRAME
 70
     0
  9
$SPLINETYPE
 70
     6
  9
$SPLINESEGS
 70
     8
  9
$HANDSEED
  5
93
  9
$SURFTAB1
 70
     6
  9
$SURFTAB2
 70
     6
  9
$SURFTYPE
 70
     6
  9
$SURFU
 70
     6
  9
$SURFV
 70
     6
  9
$UCSBASE
  2

  9
$UCSNAME
  2

  9
$UCSORG
 10
0.0
 20
0.0
 30
0.0
  9
$UCSXDIR
 10
1.0
 20
0.0
 30
0.0
  9
$UCSYDIR
 10
0.0
 20
1.0
 30
0.0
  9
$UCSORTHOREF
  2

  9
$UCSORTHOVIEW
 70
     0
  9
$UCSORGTOP
 10
0.0
 20
0.0
 30
0.0
  9
$UCSORGBOTTOM
 10
0.0
 20
0.0
 30
0.0
  9
$UCSORGLEFT
 10
0.0
 20
0.0
 30
0.0
  9
$UCSORGRIGHT
 10
0.0
 20
0.0
 30
0.0
  9
$UCSORGFRONT
 10
0.0
 20
0.0
 30
0.0
  9
$UCSORGBACK
 10
0.0
 20
0.0
 30
0.0
  9
$PUCSBASE
  2

  9
$PUCSNAME
  2

  9
$PUCSORG
 10
0.0
 20
0.0
 30
0.0
  9
$PUCSXDIR
 10
1.0
 20
0.0
 30
0.0
  9
$PUCSYDIR
 10
0.0
 20
1.0
 30
0.0
  9
$PUCSORTHOREF
  2

  9
$PUCSORTHOVIEW
 70
     0
  9
$PUCSORGTOP
 10
0.0
 20
0.0
 30
0.0
  9
$PUCSORGBOTTOM
 10
0.0
 20
0.0
 30
0.0
  9
$PUCSORGLEFT
 10
0.0
 20
0.0
 30
0.0
  9
$PUCSORGRIGHT
 10
0.0
 20
0.0
 30
0.0
  9
$PUCSORGFRONT
 10
0.0
 20
0.0
 30
0.0
  9
$PUCSORGBACK
 10
0.0
 20
0.0
 30
0.0
  9
$USERI1
 70
     0
  9
$USERI2
 70
     0
  9
$USERI3
 70
     0
  9
$USERI4
 70
     0
  9
$USERI5
 70
     0
  9
$USERR1
 40
0.0
  9
$USERR2
 40
0.0
  9
$USERR3
 40
0.0
  9
$USERR4
 40
0.0
  9
$USERR5
 40
0.0
  9
$WORLDVIEW
 70
     1
  9
$SHADEDGE
 70
     3
  9
$SHADEDIF
 70
    70
  9
$TILEMODE
 70
     1
  9
$MAXACTVP
 70
    64
  9
$PINSBASE
 10
0.0
 20
0.0
 30
0.0
  9
$PLIMCHECK
 70
     0
  9
$PEXTMIN
 10
1.000000000000000E+20
 20
1.000000000000000E+20
 30
1.000000000000000E+20
  9
$PEXTMAX
 10
-1.000000000000000E+20
 20
-1.000000000000000E+20
 30
-1.000000000000000E+20
  9
$PLIMMIN
 10
0.0
 20
0.0
  9
$PLIMMAX
 10
420.0
 20
297.0
  9
$UNITMODE
 70
     0
  9
$VISRETAIN
 70
     1
  9
$PLINEGEN
 70
     0
  9
$PSLTSCALE
 70
     1
  9
$TREEDEPTH
 70
  3020
  9
$CMLSTYLE
  2
Standard
  9
$CMLJUST
 70
     0
  9
$CMLSCALE
 40
20.0
  9
$PROXYGRAPHICS
 70
     1
  9
$MEASUREMENT
 70
     1
  9
$CELWEIGHT
370
    -1
  9
$ENDCAPS
280
     0
  9
$JOINSTYLE
280
     0
  9
$LWDISPLAY
290
     0
  9
$INSUNITS
 70
     4
  9
$HYPERLINKBASE
  1

  9
$STYLESHEET
  1

  9
$XEDIT
290
     1
  9
$CEPSNTYPE
380
     0
  9
$PSTYLEMODE
290
     1
  9
$FINGERPRINTGUID
  2
{640196E3-2F83-40D7-9986-5FE2E95248D9}
  9
$VERSIONGUID
  2
{1947F945-22F9-4D45-927F-C34870BBB62F}
  9
$EXTNAMES
290
     1
  9
$PSVPSCALE
 40
0.0
  9
$OLESTARTUP
290
     0
  0
ENDSEC
  0
SECTION
  2
CLASSES
  0
CLASS
  1
ACDBDICTIONARYWDFLT
  2
AcDbDictionaryWithDefault
  3
ObjectDBX Classes
 90
        0
280
     0
281
     0
  0
CLASS
  1
TABLESTYLE
  2
AcDbTableStyle
  3
ObjectDBX Classes
 90
     2047
280
     0
281
     0
  0
CLASS
  1
DICTIONARYVAR
  2
AcDbDictionaryVar
  3
ObjectDBX Classes
 90
        0
280
     0
281
     0
  0
CLASS
  1
ACDBPLACEHOLDER
  2
AcDbPlaceHolder
  3
ObjectDBX Classes
 90
        0
280
     0
281
     0
  0
CLASS
  1
LAYOUT
  2
AcDbLayout
  3
ObjectDBX Classes
 90
        0
280
     0
281
     0
  0
CLASS
  1
SORTENTSTABLE
  2
AcDbSortentsTable
  3
ObjectDBX Classes
 90
        0
280
     0
281
     0
  0
ENDSEC
  0
SECTION
  2
TABLES
  0
TABLE
  2
VPORT
  5
19
330
0
100
AcDbSymbolTable
 70
     2
  0
VPORT
  5
8D
330
19
100
AcDbSymbolTableRecord
100
AcDbViewportTableRecord
  2
*Active
 70
     0
 10
0.0
 20
0.0
 11
1.0
 21
1.0
 12
331.6836568154894
 22
129.4502168427688
 13
0.0
 23
0.0
 14
10.0
 24
10.0
 15
10.0
 25
10.0
 16
0.0
 26
0.0
 36
1.0
 17
0.0
 27
0.0
 37
0.0
 40
358.2898612562979
 41
1.985626283367556
 42
50.0
 43
0.0
 44
0.0
 50
0.0
 51
0.0
 71
     0
 72
  1000
 73
     1
 74
     3
 75
     0
 76
     0
 77
     0
 78
     0
281
     0
 65
     1
110
0.0
120
0.0
130
0.0
111
1.0
121
0.0
131
0.0
112
0.0
122
1.0
132
0.0
 79
     0
146
0.0
  0
ENDTAB
  0
TABLE
  2
LTYPE
  5
14
330
0
100
AcDbSymbolTable
 70
     2
  0
LTYPE
  5
15
330
14
100
AcDbSymbolTableRecord
100
AcDbLinetypeTableRecord
  2
ByBlock
 70
     0
  3

 72
    65
 73
     0
 40
0.0
  0
LTYPE
  5
16
330
14
100
AcDbSymbolTableRecord
100
AcDbLinetypeTableRecord
  2
ByLayer
 70
     0
  3

 72
    65
 73
     0
 40
0.0
  0
LTYPE
  5
8
330
14
100
AcDbSymbolTableRecord
100
AcDbLinetypeTableRecord
  2
Continuous
 70
     0
  3
Solid line
 72
    65
 73
     0
 40
0.0
  0
LTYPE
  5
59
330
14
100
AcDbSymbolTableRecord
100
AcDbLinetypeTableRecord
  2
HIDDEN
 70
     0
  3
__ __ __ __ __ __ __ __ __ __ __ __ __ __ __ __
 72
    65
 73
     2
 40
0.375
 49
0.25
 74
     0
 49
-0.125
 74
     0
  0
ENDTAB
  0
TABLE
  2
LAYER
  5
10
102
{ACAD_XDICTIONARY
360
84
102
}
330
0
100
AcDbSymbolTable
 70
     1
  0
LAYER
  5
4
330
10
100
AcDbSymbolTableRecord
100
AcDbLayerTableRecord
  2
0
 70
     0
 62
     7
  6
Continuous
370
    -3
390
5
  0
ENDTAB
  0
TABLE
  2
STYLE
  5
11
330
0
100
AcDbSymbolTable
 70
     3
  0
STYLE
  5
12
330
11
100
AcDbSymbolTableRecord
100
AcDbTextStyleTableRecord
  2
Standard
 70
     0
 40
0.0
 41
1.0
 50
0.0
 71
     0
 42
2.5
  3
txt
  4

  0
STYLE
  5
7F
330
11
100
AcDbSymbolTableRecord
100
AcDbTextStyleTableRecord
  2
FISO
 70
     0
 40
3.5
 41
1.0
 50
0.0
 71
     0
 42
3.5
  3
fiso.shx
  4

  0
STYLE
  5
80
330
11
100
AcDbSymbolTableRecord
100
AcDbTextStyleTableRecord
  2
SST
 70
     0
 40
0.0
 41
1.0
 50
0.0
 71
     0
 42
3.5
  3
romans.shx
  4

  0
ENDTAB
  0
TABLE
  2
VIEW
  5
17
330
0
100
AcDbSymbolTable
 70
     0
  0
ENDTAB
  0
TABLE
  2
UCS
  5
18
330
0
100
AcDbSymbolTable
 70
     0
  0
ENDTAB
  0
TABLE
  2
APPID
  5
1B
330
0
100
AcDbSymbolTable
 70
     2
  0
APPID
  5
1C
330
1B
100
AcDbSymbolTableRecord
100
AcDbRegAppTableRecord
  2
ACAD
 70
     0
  0
APPID
  5
83
330
1B
100
AcDbSymbolTableRecord
100
AcDbRegAppTableRecord
  2
ACAD_PSEXT
 70
     0
  0
ENDTAB
  0
TABLE
  2
DIMSTYLE
  5
1D
330
0
100
AcDbSymbolTable
 70
     3
100
AcDbDimStyleTable
 71
     0
  0
DIMSTYLE
105
27
330
1D
100
AcDbSymbolTableRecord
100
AcDbDimStyleTableRecord
  2
ISO-25
 70
     0
 41
2.5
 42
0.625
 43
3.75
 44
1.25
 73
     0
 74
     0
 77
     1
 78
     8
140
2.5
141
2.5
143
0.03937007874016
147
0.625
171
     3
172
     1
271
     2
272
     2
274
     3
278
    44
283
     0
284
     8
340
12
  0
DIMSTYLE
105
81
330
1D
100
AcDbSymbolTableRecord
100
AcDbDimStyleTableRecord
  2
Standard
 70
     0
340
12
  0
DIMSTYLE
105
82
330
1D
100
AcDbSymbolTableRecord
100
AcDbDimStyleTableRecord
  2
SST
 70
     0
 41
2.0
 42
1.0
 43
10.0
 44
1.0
 73
     0
 74
     0
 77
     1
 78
     8
140
3.5
141
2.5
147
1.0
172
     1
284
     8
285
     8
286
     8
340
12
  0
ENDTAB
  0
TABLE
  2
BLOCK_RECORD
  5
1
330
0
100
AcDbSymbolTable
 70
     2
  0
BLOCK_RECORD
  5
2
330
1
100
AcDbSymbolTableRecord
100
AcDbBlockTableRecord
  2
*Model_Space
340
A
  0
BLOCK_RECORD
  5
C
330
1
100
AcDbSymbolTableRecord
100
AcDbBlockTableRecord
  2
*Paper_Space
340
F
  0
BLOCK_RECORD
  5
78
102
{ACAD_XDICTIONARY
360
79
102
}
330
1
100
AcDbSymbolTableRecord
100
AcDbBlockTableRecord
  2
SST_STEMPEL
340
0
102
{BLKREFS
331
87
331
8C
102
}
  0
ENDTAB
  0
ENDSEC
  0
SECTION
  2
BLOCKS
  0
BLOCK
  5
3
330
2
100
AcDbEntity
  8
0
100
AcDbBlockBegin
  2
*Model_Space
 70
     0
 10
0.0
 20
0.0
 30
0.0
  3
*Model_Space
  1

  0
ENDBLK
  5
9
330
2
100
AcDbEntity
  8
0
100
AcDbBlockEnd
  0
BLOCK
  5
D
330
C
100
AcDbEntity
 67
     1
  8
0
100
AcDbBlockBegin
  2
*Paper_Space
 70
     0
 10
0.0
 20
0.0
 30
0.0
  3
*Paper_Space
  1

  0
ENDBLK
  5
E
330
C
100
AcDbEntity
 67
     1
  8
0
100
AcDbBlockEnd
  0
BLOCK
  5
7B
330
78
100
AcDbEntity
  8
0
100
AcDbBlockBegin
  2
SST_STEMPEL
 70
     0
 10
0.0
 20
0.0
 30
0.0
  3
SST_STEMPEL
  1

  0
TEXT
  5
7C
330
78
100
AcDbEntity
  8
0
  6
Continuous
100
AcDbText
 10
-3.741149563515705
 20
3.992811447199528
 30
0.0
 40
2.0
  1
SIMPSON
 50
316.9414863909134
  7
SST
100
AcDbText
  0
TEXT
  5
7D
330
78
100
AcDbEntity
  8
0
  6
Continuous
100
AcDbText
 10
-6.656222857237139
 20
3.112015578657064
 30
0.0
 40
2.0
  1
Strong-Tie
 50
316.9414863909134
  7
SST
100
AcDbText
  0
ENDBLK
  5
7E
330
78
100
AcDbEntity
  8
0
100
AcDbBlockEnd
  0
ENDSEC
  0
SECTION
  2
ENTITIES
  0
LINE
  5
28
330
2
100
AcDbEntity
  8
0
100
AcDbLine
 10
504.0552538682057
 20
238.2696041519452
 30
0.0
 11
504.0552538682057
 21
178.2696041519453
 31
0.0
  0
LINE
  5
29
330
2
100
AcDbEntity
  8
0
100
AcDbLine
 10
494.0552538682058
 20
168.2696041519453
 30
0.0
 11
364.0552538682058
 21
168.2696041519453
 31
0.0
  0
LINE
  5
2A
330
2
100
AcDbEntity
  8
0
100
AcDbLine
 10
364.0552538682058
 20
168.2696041519453
 30
0.0
 11
364.0552538682058
 21
200.5236374595305
 31
0.0
  0
LINE
  5
2B
330
2
100
AcDbEntity
  8
0
100
AcDbLine
 10
364.0552538682058
 20
248.2696041519453
 30
0.0
 11
494.0552538682058
 21
248.2696041519453
 31
0.0
  0
LINE
  5
2C
330
2
100
AcDbEntity
  8
0
100
AcDbLine
 10
444.0552538682058
 20
243.2696041519453
 30
0.0
 11
444.0552538682058
 21
173.2696041519453
 31
0.0
  0
LINE
  5
2D
330
2
100
AcDbEntity
  8
0
100
AcDbLine
 10
494.0552538682058
 20
248.2696041519453
 30
0.0
 11
504.0552538682057
 21
238.2696041519452
 31
0.0
  0
LINE
  5
2E
330
2
100
AcDbEntity
  8
0
100
AcDbLine
 10
504.0552538682057
 20
178.2696041519453
 30
0.0
 11
494.0552538682058
 21
168.2696041519453
 31
0.0
  0
ARC
  5
2F
330
2
100
AcDbEntity
  8
0
100
AcDbCircle
 10
360.5552538682058
 20
208.2696041519453
 30
0.0
 40
8.5
100
AcDbArc
 50
294.3157391711744
 51
65.68426082882564
  0
LINE
  5
30
330
2
100
AcDbEntity
  8
0
100
AcDbLine
 10
364.0552538682058
 20
216.0155708443601
 30
0.0
 11
364.0552538682058
 21
248.2696041519453
 31
0.0
  0
CIRCLE
  5
31
330
2
100
AcDbEntity
  8
0
100
AcDbCircle
 10
494.0552538682058
 20
178.2696041519452
 30
0.0
 40
2.5
  0
CIRCLE
  5
32
330
2
100
AcDbEntity
  8
0
100
AcDbCircle
 10
494.0552538682058
 20
198.2696041519452
 30
0.0
 40
2.5
  0
CIRCLE
  5
33
330
2
100
AcDbEntity
  8
0
100
AcDbCircle
 10
494.0552538682058
 20
218.2696041519453
 30
0.0
 40
2.5
  0
CIRCLE
  5
34
330
2
100
AcDbEntity
  8
0
100
AcDbCircle
 10
494.0552538682058
 20
238.2696041519452
 30
0.0
 40
2.5
  0
CIRCLE
  5
35
330
2
100
AcDbEntity
  8
0
100
AcDbCircle
 10
474.0552538682059
 20
188.2696041519452
 30
0.0
 40
2.5
  0
CIRCLE
  5
36
330
2
100
AcDbEntity
  8
0
100
AcDbCircle
 10
474.0552538682059
 20
228.2696041519453
 30
0.0
 40
2.5
  0
CIRCLE
  5
37
330
2
100
AcDbEntity
  8
0
100
AcDbCircle
 10
454.0552538682057
 20
178.2696041519452
 30
0.0
 40
2.5
  0
CIRCLE
  5
38
330
2
100
AcDbEntity
  8
0
100
AcDbCircle
 10
454.0552538682057
 20
198.2696041519452
 30
0.0
 40
2.5
  0
CIRCLE
  5
39
330
2
100
AcDbEntity
  8
0
100
AcDbCircle
 10
454.0552538682057
 20
218.2696041519453
 30
0.0
 40
2.5
  0
CIRCLE
  5
3A
330
2
100
AcDbEntity
  8
0
100
AcDbCircle
 10
454.0552538682057
 20
238.2696041519452
 30
0.0
 40
2.5
  0
CIRCLE
  5
3B
330
2
100
AcDbEntity
  8
0
100
AcDbCircle
 10
474.0552538682059
 20
208.2696041519453
 30
0.0
 40
10.5
  0
LINE
  5
3C
330
2
100
AcDbEntity
  8
0
100
AcDbLine
 10
364.0552538682058
 20
200.2696041519452
 30
0.0
 11
345.5552538682058
 21
200.2696041519452
 31
0.0
  0
LINE
  5
3D
330
2
100
AcDbEntity
  8
0
100
AcDbLine
 10
364.0552538682058
 20
216.2696041519452
 30
0.0
 11
345.5552538682058
 21
216.2696041519453
 31
0.0
  0
LINE
  5
3E
330
2
100
AcDbEntity
  8
0
100
AcDbLine
 10
365.6552538682062
 20
201.4696041519451
 30
0.0
 11
345.5552538682058
 21
201.4696041519453
 31
0.0
  0
LINE
  5
3F
330
2
100
AcDbEntity
  8
0
100
AcDbLine
 10
365.6552538682063
 20
215.0696041519453
 30
0.0
 11
345.5552538682058
 21
215.0696041519453
 31
0.0
  0
LINE
  5
40
330
2
100
AcDbEntity
  8
0
100
AcDbLine
 10
300.4552538682054
 20
201.4696041519451
 30
0.0
 11
320.5552538682058
 21
201.4696041519453
 31
0.0
  0
LINE
  5
41
330
2
100
AcDbEntity
  8
0
100
AcDbLine
 10
300.4552538682054
 20
215.0696041519453
 30
0.0
 11
320.5552538682058
 21
215.0696041519453
 31
0.0
  0
LINE
  5
42
330
2
100
AcDbEntity
  8
0
100
AcDbLine
 10
302.0552538682058
 20
200.2696041519452
 30
0.0
 11
345.5552538682058
 21
200.2696041519452
 31
0.0
  0
LINE
  5
43
330
2
100
AcDbEntity
  8
0
100
AcDbLine
 10
302.0552538682058
 20
216.2696041519452
 30
0.0
 11
345.5552538682058
 21
216.2696041519454
 31
0.0
  0
LINE
  5
44
330
2
100
AcDbEntity
  8
0
100
AcDbLine
 10
222.0552538682059
 20
243.2696041519454
 30
0.0
 11
222.0552538682059
 21
173.2696041519453
 31
0.0
  0
LINE
  5
45
330
2
100
AcDbEntity
  8
0
100
AcDbLine
 10
162.0552538682058
 20
238.2696041519454
 30
0.0
 11
162.0552538682058
 21
178.2696041519453
 31
0.0
  0
ARC
  5
46
330
2
100
AcDbEntity
  8
0
100
AcDbCircle
 10
305.5552538682059
 20
208.2696041519453
 30
0.0
 40
8.5
100
AcDbArc
 50
114.3157391711743
 51
245.6842608288256
  0
LINE
  5
47
330
2
100
AcDbEntity
  8
0
100
AcDbLine
 10
302.0552538682058
 20
248.2696041519453
 30
0.0
 11
172.0552538682058
 21
248.2696041519454
 31
0.0
  0
LINE
  5
48
330
2
100
AcDbEntity
  8
0
100
AcDbLine
 10
302.0552538682058
 20
216.0155708443601
 30
0.0
 11
302.0552538682058
 21
248.2696041519453
 31
0.0
  0
LINE
  5
49
330
2
100
AcDbEntity
  8
0
100
AcDbLine
 10
172.0552538682058
 20
248.2696041519454
 30
0.0
 11
162.0552538682058
 21
238.2696041519454
 31
0.0
  0
CIRCLE
  5
4A
330
2
100
AcDbEntity
  8
0
100
AcDbCircle
 10
212.0552538682059
 20
238.2696041519453
 30
0.0
 40
2.5
  0
CIRCLE
  5
4B
330
2
100
AcDbEntity
  8
0
100
AcDbCircle
 10
212.0552538682059
 20
218.2696041519453
 30
0.0
 40
2.5
  0
CIRCLE
  5
4C
330
2
100
AcDbEntity
  8
0
100
AcDbCircle
 10
192.0552538682058
 20
228.2696041519453
 30
0.0
 40
2.5
  0
CIRCLE
  5
4D
330
2
100
AcDbEntity
  8
0
100
AcDbCircle
 10
172.0552538682059
 20
238.2696041519454
 30
0.0
 40
2.5
  0
CIRCLE
  5
4E
330
2
100
AcDbEntity
  8
0
100
AcDbCircle
 10
172.0552538682059
 20
218.2696041519454
 30
0.0
 40
2.5
  0
LINE
  5
4F
330
2
100
AcDbEntity
  8
0
100
AcDbLine
 10
172.0552538682058
 20
168.2696041519453
 30
0.0
 11
302.0552538682058
 21
168.2696041519453
 31
0.0
  0
LINE
  5
50
330
2
100
AcDbEntity
  8
0
100
AcDbLine
 10
302.0552538682058
 20
168.2696041519453
 30
0.0
 11
302.0552538682058
 21
200.5236374595305
 31
0.0
  0
CIRCLE
  5
51
330
2
100
AcDbEntity
  8
0
100
AcDbCircle
 10
212.0552538682059
 20
198.2696041519453
 30
0.0
 40
2.5
  0
CIRCLE
  5
52
330
2
100
AcDbEntity
  8
0
100
AcDbCircle
 10
192.0552538682058
 20
188.2696041519453
 30
0.0
 40
2.5
  0
CIRCLE
  5
53
330
2
100
AcDbEntity
  8
0
100
AcDbCircle
 10
172.0552538682059
 20
198.2696041519453
 30
0.0
 40
2.5
  0
CIRCLE
  5
54
330
2
100
AcDbEntity
  8
0
100
AcDbCircle
 10
212.0552538682059
 20
178.2696041519453
 30
0.0
 40
2.5
  0
LINE
  5
55
330
2
100
AcDbEntity
  8
0
100
AcDbLine
 10
162.0552538682058
 20
178.2696041519453
 30
0.0
 11
172.0552538682058
 21
168.2696041519453
 31
0.0
  0
CIRCLE
  5
56
330
2
100
AcDbEntity
  8
0
100
AcDbCircle
 10
172.0552538682058
 20
178.2696041519453
 30
0.0
 40
2.5
  0
CIRCLE
  5
57
330
2
100
AcDbEntity
  8
0
100
AcDbCircle
 10
192.0552538682058
 20
208.2696041519453
 30
0.0
 40
2.5
  0
LINE
  5
58
330
2
100
AcDbEntity
  8
0
  6
HIDDEN
100
AcDbLine
 10
366.055253868206
 20
248.2696041519453
 30
0.0
 11
366.0552538682058
 21
214.7503448503531
 31
0.0
  0
LINE
  5
5A
330
2
100
AcDbEntity
  8
0
  6
HIDDEN
100
AcDbLine
 10
300.0552538682058
 20
248.2696041519453
 30
0.0
 11
300.0552538682058
 21
214.7503448503532
 31
0.0
  0
LINE
  5
5B
330
2
100
AcDbEntity
  8
0
  6
HIDDEN
100
AcDbLine
 10
366.0552538682058
 20
201.7888634535375
 30
0.0
 11
366.0552538682058
 21
168.2696041519453
 31
0.0
  0
LINE
  5
5C
330
2
100
AcDbEntity
  8
0
  6
HIDDEN
100
AcDbLine
 10
300.0552538682058
 20
201.7888634535374
 30
0.0
 11
300.0552538682058
 21
168.2696041519453
 31
0.0
  0
LINE
  5
5D
330
2
100
AcDbEntity
  8
0
  6
Continuous
100
AcDbLine
 10
320.5552538682058
 20
200.2696041519453
 30
0.0
 11
320.5552538682058
 21
216.2696041519453
 31
0.0
  0
LINE
  5
5E
330
2
100
AcDbEntity
  8
0
  6
Continuous
100
AcDbLine
 10
341.0552538682058
 20
213.2696041519453
 30
0.0
 11
325.0552538682057
 21
203.2696041519453
 31
0.0
  0
LINE
  5
5F
330
2
100
AcDbEntity
  8
0
  6
Continuous
100
AcDbLine
 10
341.0552538682058
 20
203.2696041519453
 30
0.0
 11
325.0552538682057
 21
213.2696041519453
 31
0.0
  0
LINE
  5
60
330
2
100
AcDbEntity
  8
0
  6
Continuous
100
AcDbLine
 10
325.0552538682057
 20
213.2696041519453
 30
0.0
 11
341.0552538682058
 21
213.2696041519453
 31
0.0
  0
LINE
  5
61
330
2
100
AcDbEntity
  8
0
  6
Continuous
100
AcDbLine
 10
341.0552538682058
 20
203.2696041519453
 30
0.0
 11
325.0552538682057
 21
203.2696041519453
 31
0.0
  0
LINE
  5
62
330
2
100
AcDbEntity
  8
0
  6
Continuous
100
AcDbLine
 10
325.0552538682057
 20
213.2696041519453
 30
0.0
 11
325.0552538682057
 21
203.2696041519453
 31
0.0
  0
LINE
  5
63
330
2
100
AcDbEntity
  8
0
  6
Continuous
100
AcDbLine
 10
341.0552538682058
 20
213.2696041519453
 30
0.0
 11
341.0552538682058
 21
203.2696041519453
 31
0.0
  0
LINE
  5
64
330
2
100
AcDbEntity
  8
0
  6
Continuous
100
AcDbLine
 10
345.5552538682058
 20
216.2696041519453
 30
0.0
 11
345.5552538682058
 21
200.2696041519453
 31
0.0
  0
INSERT
  5
8C
330
2
100
AcDbEntity
  8
0
100
AcDbBlockReference
  2
SST_STEMPEL
 10
405.5459409934606
 20
208.3767742029889
 30
0.0
  0
ENDSEC
  0
SECTION
  2
OBJECTS
  0
DICTIONARY
  5
7
330
0
100
AcDbDictionary
281
     1
  3
ACAD_COLOR
350
23
  3
ACAD_GROUP
350
1F
  3
ACAD_LAYOUT
350
B
  3
ACAD_MATERIAL
350
22
  3
ACAD_MLINESTYLE
350
20
  3
ACAD_PLOTSETTINGS
350
21
  3
ACAD_PLOTSTYLENAME
350
6
  3
ACAD_TABLESTYLE
350
24
  3
ACDBHEADERROUNDTRIPXREC
350
8E
  3
AcDbVariableDictionary
350
65
  0
DICTIONARY
  5
84
330
10
100
AcDbDictionary
280
     1
281
     1
  3
ACAD_LAYERSTATES
360
85
  0
DICTIONARY
  5
79
330
78
100
AcDbDictionary
280
     1
281
     1
  3
ACAD_SORTENTS
360
7A
  0
DICTIONARY
  5
23
102
{ACAD_REACTORS
330
7
102
}
330
7
100
AcDbDictionary
281
     1
  0
DICTIONARY
  5
1F
102
{ACAD_REACTORS
330
7
102
}
330
7
100
AcDbDictionary
281
     1
  0
DICTIONARY
  5
B
102
{ACAD_REACTORS
330
7
102
}
330
7
100
AcDbDictionary
281
     1
  3
Layout1
350
F
  3
Model
350
A
  0
DICTIONARY
  5
22
102
{ACAD_REACTORS
330
7
102
}
330
7
100
AcDbDictionary
281
     1
  0
DICTIONARY
  5
20
102
{ACAD_REACTORS
330
7
102
}
330
7
100
AcDbDictionary
281
     1
  3
Standard
350
25
  0
DICTIONARY
  5
21
102
{ACAD_REACTORS
330
7
102
}
330
7
100
AcDbDictionary
281
     1
  0
ACDBDICTIONARYWDFLT
  5
6
102
{ACAD_REACTORS
330
7
102
}
330
7
100
AcDbDictionary
281
     1
  3
Normal
350
5
100
AcDbDictionaryWithDefault
340
5
  0
DICTIONARY
  5
24
102
{ACAD_REACTORS
330
7
102
}
330
7
100
AcDbDictionary
281
     1
  3
Standard
350
26
  0
DICTIONARY
  5
8E
102
{ACAD_REACTORS
330
7
102
}
330
7
100
AcDbDictionary
281
     1
  0
DICTIONARY
  5
65
102
{ACAD_REACTORS
330
7
102
}
330
7
100
AcDbDictionary
281
     1
  3
CTABLESTYLE
350
66
  3
DIMASSOC
350
6C
  3
HIDETEXT
350
6B
  3
PROJECTNAME
350
6D
  0
DICTIONARY
  5
85
102
{ACAD_REACTORS
330
84
102
}
330
84
100
AcDbDictionary
281
     1
  0
SORTENTSTABLE
  5
7A
102
{ACAD_REACTORS
330
79
102
}
330
79
100
AcDbSortentsTable
330
78
  0
LAYOUT
  5
F
102
{ACAD_XDICTIONARY
360
91
102
}
102
{ACAD_REACTORS
330
B
102
}
330
B
100
AcDbPlotSettings
  1

  2
\\46nt\Lexmark Optra S 1855 plus
  4

  6

 40
0.0
 41
0.0
 42
0.0
 43
0.0
 44
0.0
 45
0.0
 46
0.0
 47
0.0
 48
0.0
 49
0.0
140
0.0
141
0.0
142
1.0
143
1.0
 70
   688
 72
     0
 73
     0
 74
     5
  7

 75
    16
147
1.0
148
0.0
149
0.0
100
AcDbLayout
  1
Layout1
 70
     1
 71
     1
 10
0.0
 20
0.0
 11
420.0
 21
297.0
 12
0.0
 22
0.0
 32
0.0
 14
1.000000000000000E+20
 24
1.000000000000000E+20
 34
1.000000000000000E+20
 15
-1.000000000000000E+20
 25
-1.000000000000000E+20
 35
-1.000000000000000E+20
146
0.0
 13
0.0
 23
0.0
 33
0.0
 16
1.0
 26
0.0
 36
0.0
 17
0.0
 27
1.0
 37
0.0
 76
     0
330
C
  0
LAYOUT
  5
A
102
{ACAD_XDICTIONARY
360
8F
102
}
102
{ACAD_REACTORS
330
B
102
}
330
B
100
AcDbPlotSettings
  1

  2
\\46nt\Lexmark Optra S 1855 plus
  4

  6

 40
0.0
 41
0.0
 42
0.0
 43
0.0
 44
0.0
 45
0.0
 46
0.0
 47
0.0
 48
0.0
 49
0.0
140
0.0
141
0.0
142
1.0
143
1.0
 70
  1712
 72
     0
 73
     0
 74
     0
  7

 75
     0
147
1.0
148
0.0
149
0.0
100
AcDbLayout
  1
Model
 70
     1
 71
     0
 10
0.0
 20
0.0
 11
12.0
 21
9.0
 12
0.0
 22
0.0
 32
0.0
 14
0.0
 24
0.0
 34
0.0
 15
0.0
 25
0.0
 35
0.0
146
0.0
 13
0.0
 23
0.0
 33
0.0
 16
1.0
 26
0.0
 36
0.0
 17
0.0
 27
1.0
 37
0.0
 76
     0
330
2
  0
MLINESTYLE
  5
25
102
{ACAD_REACTORS
330
20
102
}
330
20
100
AcDbMlineStyle
  2
STANDARD
 70
     0
  3

 62
   256
 51
90.0
 52
90.0
 71
     2
 49
0.5
 62
   256
  6
BYLAYER
 49
-0.5
 62
   256
  6
BYLAYER
  0
ACDBPLACEHOLDER
  5
5
102
{ACAD_REACTORS
330
6
102
}
330
6
  0
TABLESTYLE
  5
26
102
{ACAD_REACTORS
330
24
102
}
330
24
100
AcDbTableStyle
  3
Standard
 70
     0
 71
     0
 40
1.5
 41
1.5
280
     0
281
     0
  7
Standard
140
4.5
170
     2
 62
     0
 63
     7
283
     0
274
    -2
284
     1
 64
     0
275
    -2
285
     1
 65
     0
276
    -2
286
     1
 66
     0
277
    -2
287
     1
 67
     0
278
    -2
288
     1
 68
     0
279
    -2
289
     1
 69
     0
  7
Standard
140
6.0
170
     5
 62
     0
 63
     7
283
     0
274
    -2
284
     1
 64
     0
275
    -2
285
     1
 65
     0
276
    -2
286
     1
 66
     0
277
    -2
287
     1
 67
     0
278
    -2
288
     1
 68
     0
279
    -2
289
     1
 69
     0
  7
Standard
140
4.5
170
     5
 62
     0
 63
     7
283
     0
274
    -2
284
     1
 64
     0
275
    -2
285
     1
 65
     0
276
    -2
286
     1
 66
     0
277
    -2
287
     1
 67
     0
278
    -2
288
     1
 68
     0
279
    -2
289
     1
 69
     0
  0
DICTIONARYVAR
  5
66
102
{ACAD_REACTORS
330
65
102
}
330
65
100
DictionaryVariables
280
     0
  1
STANDARD
  0
DICTIONARYVAR
  5
6C
102
{ACAD_REACTORS
330
65
102
}
330
65
100
DictionaryVariables
280
     0
  1
2
  0
DICTIONARYVAR
  5
6B
102
{ACAD_REACTORS
330
65
102
}
330
65
100
DictionaryVariables
280
     0
  1
1
  0
DICTIONARYVAR
  5
6D
102
{ACAD_REACTORS
330
65
102
}
330
65
100
DictionaryVariables
280
     0
  1

  0
DICTIONARY
  5
91
330
F
100
AcDbDictionary
280
     1
281
     1
  3
ACAD_XREC_ROUNDTRIP
360
92
  0
DICTIONARY
  5
8F
330
A
100
AcDbDictionary
280
     1
281
     1
  3
ACAD_XREC_ROUNDTRIP
360
90
  0
XRECORD
  5
92
102
{ACAD_REACTORS
330
91
102
}
330
91
100
AcDbXrecord
280
     1
102
SHADEPLOT
 70
     0
102
SHADEPLOTRESLEVEL
 70
     2
102
SHADEPLOTCUSTOMDPI
 70
   300
  0
XRECORD
  5
90
102
{ACAD_REACTORS
330
8F
102
}
330
8F
100
AcDbXrecord
280
     1
102
SHADEPLOT
 70
     0
102
SHADEPLOTRESLEVEL
 70
     2
102
SHADEPLOTCUSTOMDPI
 70
   300
  0
ENDSEC
  0
EOF
