  0
SECTION
  2
HEADER
  9
$ACADVER
  1
AC1009
  9
$INSBASE
 10
0.0
 20
0.0
 30
0.0
  9
$EXTMIN
 10
-80.000000000000057
 20
-0.0000000000000284
 30
0.0
  9
$EXTMAX
 10
80.000000000000625
 20
1200.0
 30
0.0
  9
$LIMMIN
 10
0.0
 20
0.0
  9
$LIMMAX
 10
420.0
 20
297.0
  9
$ORTHOMODE
 70
     1
  9
$REGENMODE
 70
     1
  9
$FILLMODE
 70
     1
  9
$QTEXTMODE
 70
     0
  9
$MIRRTEXT
 70
     1
  9
$DRAGMODE
 70
     2
  9
$LTSCALE
 40
1.0
  9
$OSMODE
 70
    47
  9
$ATTMODE
 70
     1
  9
$TEXTSIZE
 40
3.5
  9
$TRACEWID
 40
0.05
  9
$TEXTSTYLE
  7
SST
  9
$CLAYER
  8
0
  9
$CELTYPE
  6
BYLAYER
  9
$CECOLOR
 62
   256
  9
$DIMSCALE
 40
1.0
  9
$DIMASZ
 40
0.18
  9
$DIMEXO
 40
0.0625
  9
$DIMDLI
 40
0.38
  9
$DIMRND
 40
0.0
  9
$DIMDLE
 40
0.0
  9
$DIMEXE
 40
0.18
  9
$DIMTP
 40
0.0
  9
$DIMTM
 40
0.0
  9
$DIMTXT
 40
0.18
  9
$DIMCEN
 40
0.09
  9
$DIMTSZ
 40
0.0
  9
$DIMTOL
 70
     0
  9
$DIMLIM
 70
     0
  9
$DIMTIH
 70
     1
  9
$DIMTOH
 70
     1
  9
$DIMSE1
 70
     0
  9
$DIMSE2
 70
     0
  9
$DIMTAD
 70
     0
  9
$DIMZIN
 70
     0
  9
$DIMBLK
  1

  9
$DIMASO
 70
     1
  9
$DIMSHO
 70
     1
  9
$DIMPOST
  1

  9
$DIMAPOST
  1

  9
$DIMALT
 70
     0
  9
$DIMALTD
 70
     2
  9
$DIMALTF
 40
25.399999999999999
  9
$DIMLFAC
 40
1.0
  9
$DIMTOFL
 70
     0
  9
$DIMTVP
 40
0.0
  9
$DIMTIX
 70
     0
  9
$DIMSOXD
 70
     0
  9
$DIMSAH
 70
     0
  9
$DIMBLK1
  1

  9
$DIMBLK2
  1

  9
$DIMSTYLE
  2
STANDARD
  9
$DIMCLRD
 70
     0
  9
$DIMCLRE
 70
     0
  9
$DIMCLRT
 70
     0
  9
$DIMTFAC
 40
1.0
  9
$DIMGAP
 40
0.09
  9
$LUNITS
 70
     2
  9
$LUPREC
 70
     4
  9
$SKETCHINC
 40
0.1
  9
$FILLETRAD
 40
0.0
  9
$AUNITS
 70
     0
  9
$AUPREC
 70
     2
  9
$MENU
  1
acad
  9
$ELEVATION
 40
0.0
  9
$PELEVATION
 40
0.0
  9
$THICKNESS
 40
0.0
  9
$LIMCHECK
 70
     0
  9
$BLIPMODE
 70
     0
  9
$CHAMFERA
 40
0.0
  9
$CHAMFERB
 40
0.0
  9
$SKPOLY
 70
     0
  9
$TDCREATE
 40
2449450.4613901619
  9
$TDUPDATE
 40
2453443.5662463768
  9
$TDINDWG
 40
1.5705833333000001
  9
$TDUSRTIMER
 40
1.5705833333000001
  9
$USRTIMER
 70
     1
  9
$ANGBASE
 50
0.0
  9
$ANGDIR
 70
     0
  9
$PDMODE
 70
     0
  9
$PDSIZE
 40
0.0
  9
$PLINEWID
 40
0.0
  9
$COORDS
 70
     1
  9
$SPLFRAME
 70
     0
  9
$SPLINETYPE
 70
     6
  9
$SPLINESEGS
 70
     8
  9
$ATTDIA
 70
     0
  9
$ATTREQ
 70
     1
  9
$HANDLING
 70
     1
  9
$HANDSEED
  5
2C0
  9
$SURFTAB1
 70
     6
  9
$SURFTAB2
 70
     6
  9
$SURFTYPE
 70
     6
  9
$SURFU
 70
     6
  9
$SURFV
 70
     6
  9
$UCSNAME
  2

  9
$UCSORG
 10
0.0
 20
0.0
 30
0.0
  9
$UCSXDIR
 10
1.0
 20
0.0
 30
0.0
  9
$UCSYDIR
 10
0.0
 20
1.0
 30
0.0
  9
$PUCSNAME
  2

  9
$PUCSORG
 10
0.0
 20
0.0
 30
0.0
  9
$PUCSXDIR
 10
1.0
 20
0.0
 30
0.0
  9
$PUCSYDIR
 10
0.0
 20
1.0
 30
0.0
  9
$USERI1
 70
     0
  9
$USERI2
 70
     0
  9
$USERI3
 70
     0
  9
$USERI4
 70
     0
  9
$USERI5
 70
     0
  9
$USERR1
 40
0.0
  9
$USERR2
 40
0.0
  9
$USERR3
 40
0.0
  9
$USERR4
 40
0.0
  9
$USERR5
 40
0.0
  9
$WORLDVIEW
 70
     1
  9
$SHADEDGE
 70
     3
  9
$SHADEDIF
 70
    70
  9
$TILEMODE
 70
     1
  9
$MAXACTVP
 70
    16
  9
$PLIMCHECK
 70
     0
  9
$PEXTMIN
 10
1.0000000000000000E+020
 20
1.0000000000000000E+020
 30
1.0000000000000000E+020
  9
$PEXTMAX
 10
-1.0000000000000000E+020
 20
-1.0000000000000000E+020
 30
-1.0000000000000000E+020
  9
$PLIMMIN
 10
0.0
 20
0.0
  9
$PLIMMAX
 10
420.0
 20
297.0
  9
$UNITMODE
 70
     0
  9
$VISRETAIN
 70
     0
  9
$PLINEGEN
 70
     0
  9
$PSLTSCALE
 70
     1
  0
ENDSEC
  0
SECTION
  2
TABLES
  0
TABLE
  2
VPORT
 70
     2
  0
VPORT
  2
*ACTIVE
 70
     0
 10
0.0
 20
0.0
 11
1.0
 21
1.0
 12
10.9031616972677
 22
626.18691008612404
 13
0.0
 23
0.0
 14
0.1
 24
0.1
 15
10.0
 25
10.0
 16
0.0
 26
0.0
 36
1.0
 17
0.0
 27
0.0
 37
0.0
 40
1295.7173921535971
 41
1.4993646759847521
 42
50.0
 43
0.0
 44
0.0
 50
0.0
 51
0.0
 71
     0
 72
   100
 73
     1
 74
     1
 75
     1
 76
     0
 77
     0
 78
     0
  0
ENDTAB
  0
TABLE
  2
LTYPE
 70
     1
  0
LTYPE
  2
CONTINUOUS
 70
     0
  3
Solid line
 72
    65
 73
     0
 40
0.0
  0
ENDTAB
  0
TABLE
  2
LAYER
 70
     1
  0
LAYER
  2
0
 70
     0
 62
     7
  6
CONTINUOUS
  0
ENDTAB
  0
TABLE
  2
STYLE
 70
     2
  0
STYLE
  2
STANDARD
 70
     0
 40
0.0
 41
1.0
 50
0.0
 71
     0
 42
3.0
  3
txt
  4

  0
STYLE
  2
SST
 70
     0
 40
0.0
 41
1.0
 50
0.0
 71
     0
 42
3.5
  3
romans.shx
  4

  0
ENDTAB
  0
TABLE
  2
VIEW
 70
     0
  0
ENDTAB
  0
TABLE
  2
UCS
 70
     0
  0
ENDTAB
  0
TABLE
  2
APPID
 70
     1
  0
APPID
  2
ACAD
 70
     0
  0
ENDTAB
  0
TABLE
  2
DIMSTYLE
 70
     2
  0
DIMSTYLE
  2
NORDIC
 70
     0
  3

  4

  5

  6

  7

 40
2.0
 41
2.0
 42
1.0
 43
10.0
 44
1.0
 45
0.0
 46
0.0
 47
0.0
 48
0.0
140
3.5
141
2.5
142
0.0
143
25.399999999999999
144
1.0
145
0.0
146
1.0
147
1.0
 71
     0
 72
     0
 73
     0
 74
     0
 75
     0
 76
     0
 77
     1
 78
     8
170
     0
171
     2
172
     1
173
     0
174
     0
175
     0
176
     0
177
     0
178
     0
  0
DIMSTYLE
  2
STANDARD
 70
     0
  3

  4

  5

  6

  7

 40
1.0
 41
0.18
 42
0.0625
 43
0.38
 44
0.18
 45
0.0
 46
0.0
 47
0.0
 48
0.0
140
0.18
141
0.09
142
0.0
143
25.399999999999999
144
1.0
145
0.0
146
1.0
147
0.09
 71
     0
 72
     0
 73
     1
 74
     1
 75
     0
 76
     0
 77
     0
 78
     0
170
     0
171
     2
172
     0
173
     0
174
     0
175
     0
176
     0
177
     0
178
     0
  0
ENDTAB
  0
ENDSEC
  0
SECTION
  2
BLOCKS
  0
BLOCK
  8
0
  2
$MODEL_SPACE
 70
     0
 10
0.0
 20
0.0
 30
0.0
  3
$MODEL_SPACE
  1

  0
ENDBLK
  5
B
  8
0
  0
BLOCK
 67
     1
  8
0
  2
$PAPER_SPACE
 70
     0
 10
0.0
 20
0.0
 30
0.0
  3
$PAPER_SPACE
  1

  0
ENDBLK
  5
10
 67
     1
  8
0
  0
BLOCK
  8
0
  2
SIMPSON-STRONG-TIE
 70
     0
 10
0.0
 20
0.0
 30
0.0
  3
SIMPSON-STRONG-TIE
  1

  0
TEXT
  5
2A9
  8
0
  6
CONTINUOUS
 10
-4.7318727780691416
 20
4.4215860385237811
 30
0.0
 40
2.0
  1
SIMPSON
 50
316.94148639091338
  7
SST
 72
     1
 11
0.0
 21
0.0
 31
0.0
  0
TEXT
  5
2AA
  8
0
  6
CONTINUOUS
 10
-7.9648409725863862
 20
3.4769825481547749
 30
0.0
 40
2.0
  1
Strong-Tie
 50
316.94148639091338
  7
SST
 72
     1
 11
-2.0499999999999541
 21
-2.0499999999999541
 31
0.0
  0
ENDBLK
  5
2AB
  8
0
  0
ENDSEC
  0
SECTION
  2
ENTITIES
  0
LINE
  5
2C
  8
0
 10
-80.000000000000057
 20
-0.0000000000000284
 30
0.0
 11
-79.999999999999446
 21
1200.0
 31
0.0
  0
LINE
  5
2D
  8
0
 10
80.000000000000057
 20
0.0000000000000284
 30
0.0
 11
-80.000000000000057
 21
-0.0000000000000284
 31
0.0
  0
LINE
  5
2E
  8
0
 10
80.000000000000625
 20
1200.0
 30
0.0
 11
-79.999999999999446
 21
1200.0
 31
0.0
  0
CIRCLE
  5
2F
  8
0
 10
70.000000000000043
 20
10.0
 30
0.0
 40
2.5
  0
CIRCLE
  5
30
  8
0
 10
70.000000000000156
 20
50.0
 30
0.0
 40
2.5
  0
LINE
  5
31
  8
0
 10
80.000000000000057
 20
0.0000000000000284
 30
0.0
 11
80.000000000000625
 21
1200.0
 31
0.0
  0
CIRCLE
  5
32
  8
0
 10
70.000000000000384
 20
90.000000000000028
 30
0.0
 40
2.5
  0
CIRCLE
  5
33
  8
0
 10
50.000000000000071
 20
9.9999999999999432
 30
0.0
 40
2.5
  0
CIRCLE
  5
34
  8
0
 10
60.000000000000071
 20
29.999999999999972
 30
0.0
 40
2.5
  0
CIRCLE
  5
35
  8
0
 10
50.000000000000178
 20
49.999999999999943
 30
0.0
 40
2.5
  0
CIRCLE
  5
36
  8
0
 10
60.000000000000298
 20
70.000000000000028
 30
0.0
 40
2.5
  0
CIRCLE
  5
37
  8
0
 10
50.000000000000412
 20
89.999999999999986
 30
0.0
 40
2.5
  0
CIRCLE
  5
38
  8
0
 10
60.000000000000412
 20
110.0
 30
0.0
 40
2.5
  0
CIRCLE
  5
39
  8
0
 10
40.000000000000071
 20
29.999999999999918
 30
0.0
 40
2.5
  0
CIRCLE
  5
3A
  8
0
 10
30.000000000000071
 20
9.9999999999998863
 30
0.0
 40
2.5
  0
CIRCLE
  5
3B
  8
0
 10
30.000000000000188
 20
49.999999999999893
 30
0.0
 40
2.5
  0
CIRCLE
  5
3C
  8
0
 10
40.000000000000298
 20
69.999999999999972
 30
0.0
 40
2.5
  0
CIRCLE
  5
3D
  8
0
 10
30.000000000000409
 20
89.999999999999915
 30
0.0
 40
2.5
  0
CIRCLE
  5
3E
  8
0
 10
40.000000000000412
 20
109.9999999999999
 30
0.0
 40
2.5
  0
CIRCLE
  5
3F
  8
0
 10
20.000000000000071
 20
29.999999999999861
 30
0.0
 40
2.5
  0
CIRCLE
  5
40
  8
0
 10
10.000000000000069
 20
9.9999999999998295
 30
0.0
 40
2.5
  0
CIRCLE
  5
41
  8
0
 10
10.000000000000179
 20
49.999999999999829
 30
0.0
 40
2.5
  0
CIRCLE
  5
42
  8
0
 10
20.000000000000298
 20
69.999999999999915
 30
0.0
 40
2.5
  0
CIRCLE
  5
43
  8
0
 10
10.00000000000041
 20
89.999999999999844
 30
0.0
 40
2.5
  0
CIRCLE
  5
44
  8
0
 10
20.000000000000409
 20
109.9999999999999
 30
0.0
 40
2.5
  0
CIRCLE
  5
45
  8
0
 10
0.0000000000000711
 20
29.999999999999861
 30
0.0
 40
2.5
  0
CIRCLE
  5
46
  8
0
 10
-9.9999999999999272
 20
9.9999999999998295
 30
0.0
 40
2.5
  0
CIRCLE
  5
47
  8
0
 10
10.000000000000069
 20
9.9999999999998863
 30
0.0
 40
2.5
  0
CIRCLE
  5
48
  8
0
 10
0.0000000000004121
 20
109.9999999999999
 30
0.0
 40
2.5
  0
CIRCLE
  5
49
  8
0
 10
0.0000000000002984
 20
69.999999999999915
 30
0.0
 40
2.5
  0
CIRCLE
  5
4A
  8
0
 10
-9.9999999999998153
 20
49.999999999999829
 30
0.0
 40
2.5
  0
CIRCLE
  5
4B
  8
0
 10
-9.9999999999995879
 20
89.999999999999844
 30
0.0
 40
2.5
  0
CIRCLE
  5
4C
  8
0
 10
10.000000000000179
 20
49.999999999999893
 30
0.0
 40
2.5
  0
CIRCLE
  5
4D
  8
0
 10
10.00000000000041
 20
89.999999999999915
 30
0.0
 40
2.5
  0
CIRCLE
  5
4E
  8
0
 10
-19.999999999999758
 20
29.999999999999861
 30
0.0
 40
2.5
  0
CIRCLE
  5
4F
  8
0
 10
-9.9999999999997584
 20
9.9999999999998295
 30
0.0
 40
2.5
  0
CIRCLE
  5
50
  8
0
 10
-9.9999999999997584
 20
9.9999999999998863
 30
0.0
 40
2.5
  0
CIRCLE
  5
51
  8
0
 10
-29.999999999999758
 20
9.9999999999998295
 30
0.0
 40
2.5
  0
CIRCLE
  5
52
  8
0
 10
-9.9999999999994174
 20
89.999999999999844
 30
0.0
 40
2.5
  0
CIRCLE
  5
53
  8
0
 10
-9.9999999999994174
 20
89.999999999999915
 30
0.0
 40
2.5
  0
CIRCLE
  5
54
  8
0
 10
-9.9999999999996447
 20
49.999999999999829
 30
0.0
 40
2.5
  0
CIRCLE
  5
55
  8
0
 10
-9.9999999999996447
 20
49.999999999999893
 30
0.0
 40
2.5
  0
CIRCLE
  5
56
  8
0
 10
-29.999999999999641
 20
49.999999999999829
 30
0.0
 40
2.5
  0
CIRCLE
  5
57
  8
0
 10
-19.999999999999531
 20
69.999999999999915
 30
0.0
 40
2.5
  0
CIRCLE
  5
58
  8
0
 10
-29.999999999999421
 20
89.999999999999844
 30
0.0
 40
2.5
  0
CIRCLE
  5
59
  8
0
 10
-19.999999999999421
 20
109.9999999999999
 30
0.0
 40
2.5
  0
CIRCLE
  5
5A
  8
0
 10
-39.999999999999588
 20
29.999999999999861
 30
0.0
 40
2.5
  0
CIRCLE
  5
5B
  8
0
 10
-49.999999999999588
 20
9.9999999999998295
 30
0.0
 40
2.5
  0
CIRCLE
  5
5C
  8
0
 10
-29.999999999999758
 20
9.9999999999998295
 30
0.0
 40
2.5
  0
CIRCLE
  5
5D
  8
0
 10
-29.999999999999591
 20
9.9999999999998295
 30
0.0
 40
2.5
  0
CIRCLE
  5
5E
  8
0
 10
-29.999999999999591
 20
9.9999999999998863
 30
0.0
 40
2.5
  0
CIRCLE
  5
5F
  8
0
 10
-39.999999999999361
 20
69.999999999999915
 30
0.0
 40
2.5
  0
CIRCLE
  5
60
  8
0
 10
-49.999999999999467
 20
49.999999999999829
 30
0.0
 40
2.5
  0
CIRCLE
  5
61
  8
0
 10
-29.999999999999641
 20
49.999999999999829
 30
0.0
 40
2.5
  0
CIRCLE
  5
62
  8
0
 10
-29.999999999999481
 20
49.999999999999829
 30
0.0
 40
2.5
  0
CIRCLE
  5
63
  8
0
 10
-29.999999999999481
 20
49.999999999999893
 30
0.0
 40
2.5
  0
CIRCLE
  5
64
  8
0
 10
-39.999999999999247
 20
109.9999999999999
 30
0.0
 40
2.5
  0
CIRCLE
  5
65
  8
0
 10
-49.999999999999247
 20
89.999999999999844
 30
0.0
 40
2.5
  0
CIRCLE
  5
66
  8
0
 10
-29.999999999999421
 20
89.999999999999844
 30
0.0
 40
2.5
  0
CIRCLE
  5
67
  8
0
 10
-29.99999999999925
 20
89.999999999999844
 30
0.0
 40
2.5
  0
CIRCLE
  5
68
  8
0
 10
-29.99999999999925
 20
89.999999999999915
 30
0.0
 40
2.5
  0
CIRCLE
  5
69
  8
0
 10
-69.999999999999417
 20
9.9999999999998295
 30
0.0
 40
2.5
  0
CIRCLE
  5
6A
  8
0
 10
-69.999999999999304
 20
49.999999999999829
 30
0.0
 40
2.5
  0
CIRCLE
  5
6B
  8
0
 10
-69.999999999999076
 20
89.999999999999844
 30
0.0
 40
2.5
  0
CIRCLE
  5
6C
  8
0
 10
-59.999999999999417
 20
29.999999999999861
 30
0.0
 40
2.5
  0
CIRCLE
  5
6D
  8
0
 10
-59.99999999999919
 20
69.999999999999915
 30
0.0
 40
2.5
  0
CIRCLE
  5
6E
  8
0
 10
-59.999999999999069
 20
109.9999999999999
 30
0.0
 40
2.5
  0
CIRCLE
  5
6F
  8
0
 10
70.000000000000483
 20
130.0
 30
0.0
 40
2.5
  0
CIRCLE
  5
70
  8
0
 10
70.000000000000725
 20
170.00000000000011
 30
0.0
 40
2.5
  0
CIRCLE
  5
71
  8
0
 10
50.000000000000533
 20
130.0
 30
0.0
 40
2.5
  0
CIRCLE
  5
72
  8
0
 10
60.000000000000632
 20
150.00000000000011
 30
0.0
 40
2.5
  0
CIRCLE
  5
73
  8
0
 10
50.000000000000753
 20
170.0
 30
0.0
 40
2.5
  0
CIRCLE
  5
74
  8
0
 10
60.000000000000753
 20
190.00000000000011
 30
0.0
 40
2.5
  0
CIRCLE
  5
75
  8
0
 10
30.000000000000529
 20
129.99999999999989
 30
0.0
 40
2.5
  0
CIRCLE
  5
76
  8
0
 10
40.000000000000632
 20
150.0
 30
0.0
 40
2.5
  0
CIRCLE
  5
77
  8
0
 10
30.00000000000075
 20
170.0
 30
0.0
 40
2.5
  0
CIRCLE
  5
78
  8
0
 10
40.000000000000753
 20
190.0
 30
0.0
 40
2.5
  0
CIRCLE
  5
79
  8
0
 10
10.00000000000052
 20
129.99999999999989
 30
0.0
 40
2.5
  0
CIRCLE
  5
7A
  8
0
 10
20.000000000000639
 20
150.0
 30
0.0
 40
2.5
  0
CIRCLE
  5
7B
  8
0
 10
10.00000000000075
 20
169.99999999999989
 30
0.0
 40
2.5
  0
CIRCLE
  5
7C
  8
0
 10
20.00000000000075
 20
190.0
 30
0.0
 40
2.5
  0
CIRCLE
  5
7D
  8
0
 10
0.0000000000007532
 20
190.0
 30
0.0
 40
2.5
  0
CIRCLE
  5
7E
  8
0
 10
0.0000000000006395
 20
150.0
 30
0.0
 40
2.5
  0
CIRCLE
  5
7F
  8
0
 10
-9.9999999999994742
 20
129.99999999999989
 30
0.0
 40
2.5
  0
CIRCLE
  5
80
  8
0
 10
-9.9999999999992468
 20
169.99999999999989
 30
0.0
 40
2.5
  0
CIRCLE
  5
81
  8
0
 10
10.00000000000052
 20
129.99999999999989
 30
0.0
 40
2.5
  0
CIRCLE
  5
82
  8
0
 10
10.00000000000075
 20
170.0
 30
0.0
 40
2.5
  0
CIRCLE
  5
83
  8
0
 10
-9.9999999999990763
 20
169.99999999999989
 30
0.0
 40
2.5
  0
CIRCLE
  5
84
  8
0
 10
-9.9999999999990763
 20
170.0
 30
0.0
 40
2.5
  0
CIRCLE
  5
85
  8
0
 10
-9.9999999999993037
 20
129.99999999999989
 30
0.0
 40
2.5
  0
CIRCLE
  5
86
  8
0
 10
-9.9999999999993037
 20
129.99999999999989
 30
0.0
 40
2.5
  0
CIRCLE
  5
87
  8
0
 10
-29.999999999999311
 20
129.99999999999989
 30
0.0
 40
2.5
  0
CIRCLE
  5
88
  8
0
 10
-19.99999999999919
 20
150.0
 30
0.0
 40
2.5
  0
CIRCLE
  5
89
  8
0
 10
-29.999999999999069
 20
169.99999999999989
 30
0.0
 40
2.5
  0
CIRCLE
  5
8A
  8
0
 10
-19.999999999999069
 20
190.0
 30
0.0
 40
2.5
  0
CIRCLE
  5
8B
  8
0
 10
-39.999999999999019
 20
150.0
 30
0.0
 40
2.5
  0
CIRCLE
  5
8C
  8
0
 10
-49.999999999999133
 20
129.99999999999989
 30
0.0
 40
2.5
  0
CIRCLE
  5
8D
  8
0
 10
-29.999999999999311
 20
129.99999999999989
 30
0.0
 40
2.5
  0
CIRCLE
  5
8E
  8
0
 10
-29.99999999999913
 20
129.99999999999989
 30
0.0
 40
2.5
  0
CIRCLE
  5
8F
  8
0
 10
-29.99999999999913
 20
129.99999999999989
 30
0.0
 40
2.5
  0
CIRCLE
  5
90
  8
0
 10
-39.999999999998913
 20
190.0
 30
0.0
 40
2.5
  0
CIRCLE
  5
91
  8
0
 10
-49.999999999998899
 20
169.99999999999989
 30
0.0
 40
2.5
  0
CIRCLE
  5
92
  8
0
 10
-29.999999999999069
 20
169.99999999999989
 30
0.0
 40
2.5
  0
CIRCLE
  5
93
  8
0
 10
-29.999999999998909
 20
169.99999999999989
 30
0.0
 40
2.5
  0
CIRCLE
  5
94
  8
0
 10
-29.999999999998909
 20
170.0
 30
0.0
 40
2.5
  0
CIRCLE
  5
95
  8
0
 10
-69.999999999998963
 20
129.99999999999989
 30
0.0
 40
2.5
  0
CIRCLE
  5
96
  8
0
 10
-69.999999999998735
 20
169.99999999999989
 30
0.0
 40
2.5
  0
CIRCLE
  5
97
  8
0
 10
-59.999999999998849
 20
150.0
 30
0.0
 40
2.5
  0
CIRCLE
  5
98
  8
0
 10
-59.999999999998728
 20
190.0
 30
0.0
 40
2.5
  0
CIRCLE
  5
99
  8
0
 10
70.000000000000838
 20
210.00000000000011
 30
0.0
 40
2.5
  0
CIRCLE
  5
9A
  8
0
 10
70.000000000001066
 20
250.00000000000011
 30
0.0
 40
2.5
  0
CIRCLE
  5
9B
  8
0
 10
50.000000000000867
 20
210.0
 30
0.0
 40
2.5
  0
CIRCLE
  5
9C
  8
0
 10
60.000000000000981
 20
230.0000000000002
 30
0.0
 40
2.5
  0
CIRCLE
  5
9D
  8
0
 10
50.000000000001101
 20
250.00000000000011
 30
0.0
 40
2.5
  0
CIRCLE
  5
9E
  8
0
 10
60.000000000001101
 20
270.00000000000011
 30
0.0
 40
2.5
  0
CIRCLE
  5
9F
  8
0
 10
30.00000000000087
 20
210.0
 30
0.0
 40
2.5
  0
CIRCLE
  5
A0
  8
0
 10
40.000000000000981
 20
230.00000000000011
 30
0.0
 40
2.5
  0
CIRCLE
  5
A1
  8
0
 10
30.000000000001101
 20
250.0
 30
0.0
 40
2.5
  0
CIRCLE
  5
A2
  8
0
 10
40.000000000001087
 20
270.00000000000011
 30
0.0
 40
2.5
  0
CIRCLE
  5
A3
  8
0
 10
10.00000000000087
 20
209.99999999999989
 30
0.0
 40
2.5
  0
CIRCLE
  5
A4
  8
0
 10
20.000000000000981
 20
230.0
 30
0.0
 40
2.5
  0
CIRCLE
  5
A5
  8
0
 10
10.000000000001091
 20
250.0
 30
0.0
 40
2.5
  0
CIRCLE
  5
A6
  8
0
 10
20.000000000001101
 20
270.0
 30
0.0
 40
2.5
  0
CIRCLE
  5
A7
  8
0
 10
0.0000000000010942
 20
270.0
 30
0.0
 40
2.5
  0
CIRCLE
  5
A8
  8
0
 10
0.0000000000009805
 20
230.0
 30
0.0
 40
2.5
  0
CIRCLE
  5
A9
  8
0
 10
-9.9999999999991331
 20
209.99999999999989
 30
0.0
 40
2.5
  0
CIRCLE
  5
AA
  8
0
 10
-9.9999999999989058
 20
250.0
 30
0.0
 40
2.5
  0
CIRCLE
  5
AB
  8
0
 10
10.00000000000087
 20
210.0
 30
0.0
 40
2.5
  0
CIRCLE
  5
AC
  8
0
 10
10.000000000001091
 20
250.0
 30
0.0
 40
2.5
  0
CIRCLE
  5
AD
  8
0
 10
-9.9999999999987352
 20
250.0
 30
0.0
 40
2.5
  0
CIRCLE
  5
AE
  8
0
 10
-9.9999999999987352
 20
250.0
 30
0.0
 40
2.5
  0
CIRCLE
  5
AF
  8
0
 10
-9.9999999999989626
 20
209.99999999999989
 30
0.0
 40
2.5
  0
CIRCLE
  5
B0
  8
0
 10
-9.9999999999989626
 20
210.0
 30
0.0
 40
2.5
  0
CIRCLE
  5
B1
  8
0
 10
-29.999999999998959
 20
209.99999999999989
 30
0.0
 40
2.5
  0
CIRCLE
  5
B2
  8
0
 10
-19.999999999998849
 20
230.0
 30
0.0
 40
2.5
  0
CIRCLE
  5
B3
  8
0
 10
-29.999999999998739
 20
250.0
 30
0.0
 40
2.5
  0
CIRCLE
  5
B4
  8
0
 10
-19.999999999998732
 20
270.0
 30
0.0
 40
2.5
  0
CIRCLE
  5
B5
  8
0
 10
-39.999999999998678
 20
230.0
 30
0.0
 40
2.5
  0
CIRCLE
  5
B6
  8
0
 10
-49.999999999998792
 20
209.99999999999989
 30
0.0
 40
2.5
  0
CIRCLE
  5
B7
  8
0
 10
-29.999999999998959
 20
209.99999999999989
 30
0.0
 40
2.5
  0
CIRCLE
  5
B8
  8
0
 10
-29.999999999998789
 20
209.99999999999989
 30
0.0
 40
2.5
  0
CIRCLE
  5
B9
  8
0
 10
-29.999999999998789
 20
210.0
 30
0.0
 40
2.5
  0
CIRCLE
  5
BA
  8
0
 10
-39.999999999998572
 20
270.0
 30
0.0
 40
2.5
  0
CIRCLE
  5
BB
  8
0
 10
-49.999999999998572
 20
250.0
 30
0.0
 40
2.5
  0
CIRCLE
  5
BC
  8
0
 10
-29.999999999998739
 20
250.0
 30
0.0
 40
2.5
  0
CIRCLE
  5
BD
  8
0
 10
-29.999999999998568
 20
250.0
 30
0.0
 40
2.5
  0
CIRCLE
  5
BE
  8
0
 10
-29.999999999998568
 20
250.0
 30
0.0
 40
2.5
  0
CIRCLE
  5
BF
  8
0
 10
-69.999999999998622
 20
209.99999999999989
 30
0.0
 40
2.5
  0
CIRCLE
  5
C0
  8
0
 10
-69.999999999998394
 20
250.0
 30
0.0
 40
2.5
  0
CIRCLE
  5
C1
  8
0
 10
-59.999999999998501
 20
230.0
 30
0.0
 40
2.5
  0
CIRCLE
  5
C2
  8
0
 10
-59.999999999998401
 20
270.0
 30
0.0
 40
2.5
  0
CIRCLE
  5
C3
  8
0
 10
70.00000000000118
 20
290.00000000000011
 30
0.0
 40
2.5
  0
CIRCLE
  5
C4
  8
0
 10
70.000000000001407
 20
330.00000000000023
 30
0.0
 40
2.5
  0
CIRCLE
  5
C5
  8
0
 10
50.000000000001201
 20
290.00000000000011
 30
0.0
 40
2.5
  0
CIRCLE
  5
C6
  8
0
 10
60.000000000001322
 20
310.00000000000023
 30
0.0
 40
2.5
  0
CIRCLE
  5
C7
  8
0
 10
50.000000000001428
 20
330.00000000000011
 30
0.0
 40
2.5
  0
CIRCLE
  5
C8
  8
0
 10
60.000000000001428
 20
350.00000000000023
 30
0.0
 40
2.5
  0
CIRCLE
  5
C9
  8
0
 10
30.000000000001211
 20
290.0
 30
0.0
 40
2.5
  0
CIRCLE
  5
CA
  8
0
 10
40.000000000001322
 20
310.00000000000011
 30
0.0
 40
2.5
  0
CIRCLE
  5
CB
  8
0
 10
30.000000000001439
 20
330.00000000000011
 30
0.0
 40
2.5
  0
CIRCLE
  5
CC
  8
0
 10
40.000000000001428
 20
350.00000000000011
 30
0.0
 40
2.5
  0
CIRCLE
  5
CD
  8
0
 10
10.00000000000121
 20
290.0
 30
0.0
 40
2.5
  0
CIRCLE
  5
CE
  8
0
 10
20.000000000001322
 20
310.00000000000011
 30
0.0
 40
2.5
  0
CIRCLE
  5
CF
  8
0
 10
10.00000000000143
 20
330.0
 30
0.0
 40
2.5
  0
CIRCLE
  5
D0
  8
0
 10
20.000000000001432
 20
350.00000000000011
 30
0.0
 40
2.5
  0
CIRCLE
  5
D1
  8
0
 10
0.0000000000014353
 20
350.00000000000011
 30
0.0
 40
2.5
  0
CIRCLE
  5
D2
  8
0
 10
0.0000000000013216
 20
310.00000000000011
 30
0.0
 40
2.5
  0
CIRCLE
  5
D3
  8
0
 10
-9.9999999999987921
 20
290.0
 30
0.0
 40
2.5
  0
CIRCLE
  5
D4
  8
0
 10
-9.9999999999985647
 20
330.0
 30
0.0
 40
2.5
  0
CIRCLE
  5
D5
  8
0
 10
10.00000000000121
 20
290.0
 30
0.0
 40
2.5
  0
CIRCLE
  5
D6
  8
0
 10
10.00000000000143
 20
330.00000000000011
 30
0.0
 40
2.5
  0
CIRCLE
  5
D7
  8
0
 10
-9.9999999999983942
 20
330.0
 30
0.0
 40
2.5
  0
CIRCLE
  5
D8
  8
0
 10
-9.9999999999983942
 20
330.00000000000011
 30
0.0
 40
2.5
  0
CIRCLE
  5
D9
  8
0
 10
-9.9999999999986215
 20
290.0
 30
0.0
 40
2.5
  0
CIRCLE
  5
DA
  8
0
 10
-9.9999999999986215
 20
290.0
 30
0.0
 40
2.5
  0
CIRCLE
  5
DB
  8
0
 10
-29.999999999998622
 20
290.0
 30
0.0
 40
2.5
  0
CIRCLE
  5
DC
  8
0
 10
-19.999999999998501
 20
310.00000000000011
 30
0.0
 40
2.5
  0
CIRCLE
  5
DD
  8
0
 10
-29.999999999998401
 20
330.0
 30
0.0
 40
2.5
  0
CIRCLE
  5
DE
  8
0
 10
-19.999999999998391
 20
350.00000000000011
 30
0.0
 40
2.5
  0
CIRCLE
  5
DF
  8
0
 10
-39.999999999998337
 20
310.00000000000011
 30
0.0
 40
2.5
  0
CIRCLE
  5
E0
  8
0
 10
-49.999999999998451
 20
290.0
 30
0.0
 40
2.5
  0
CIRCLE
  5
E1
  8
0
 10
-29.999999999998622
 20
290.0
 30
0.0
 40
2.5
  0
CIRCLE
  5
E2
  8
0
 10
-29.999999999998451
 20
290.0
 30
0.0
 40
2.5
  0
CIRCLE
  5
E3
  8
0
 10
-29.999999999998451
 20
290.0
 30
0.0
 40
2.5
  0
CIRCLE
  5
E4
  8
0
 10
-39.999999999998217
 20
350.00000000000011
 30
0.0
 40
2.5
  0
CIRCLE
  5
E5
  8
0
 10
-49.999999999998217
 20
330.0
 30
0.0
 40
2.5
  0
CIRCLE
  5
E6
  8
0
 10
-29.999999999998401
 20
330.0
 30
0.0
 40
2.5
  0
CIRCLE
  5
E7
  8
0
 10
-29.99999999999822
 20
330.0
 30
0.0
 40
2.5
  0
CIRCLE
  5
E8
  8
0
 10
-29.99999999999822
 20
330.00000000000011
 30
0.0
 40
2.5
  0
CIRCLE
  5
E9
  8
0
 10
-69.99999999999828
 20
290.0
 30
0.0
 40
2.5
  0
CIRCLE
  5
EA
  8
0
 10
-69.999999999998053
 20
330.0
 30
0.0
 40
2.5
  0
CIRCLE
  5
EB
  8
0
 10
-59.999999999998167
 20
310.00000000000011
 30
0.0
 40
2.5
  0
CIRCLE
  5
EC
  8
0
 10
-59.999999999998053
 20
350.00000000000011
 30
0.0
 40
2.5
  0
CIRCLE
  5
ED
  8
0
 10
70.000000000001521
 20
370.00000000000023
 30
0.0
 40
2.5
  0
CIRCLE
  5
EE
  8
0
 10
70.000000000001734
 20
410.00000000000023
 30
0.0
 40
2.5
  0
CIRCLE
  5
EF
  8
0
 10
50.000000000001549
 20
370.00000000000011
 30
0.0
 40
2.5
  0
CIRCLE
  5
F0
  8
0
 10
60.000000000001663
 20
390.00000000000028
 30
0.0
 40
2.5
  0
CIRCLE
  5
F1
  8
0
 10
50.000000000001769
 20
410.00000000000023
 30
0.0
 40
2.5
  0
CIRCLE
  5
F2
  8
0
 10
60.000000000001769
 20
430.00000000000028
 30
0.0
 40
2.5
  0
CIRCLE
  5
F3
  8
0
 10
30.000000000001549
 20
370.00000000000011
 30
0.0
 40
2.5
  0
CIRCLE
  5
F4
  8
0
 10
40.000000000001663
 20
390.00000000000028
 30
0.0
 40
2.5
  0
CIRCLE
  5
F5
  8
0
 10
30.00000000000178
 20
410.00000000000011
 30
0.0
 40
2.5
  0
CIRCLE
  5
F6
  8
0
 10
40.000000000001769
 20
430.00000000000028
 30
0.0
 40
2.5
  0
CIRCLE
  5
F7
  8
0
 10
10.000000000001551
 20
370.0
 30
0.0
 40
2.5
  0
CIRCLE
  5
F8
  8
0
 10
20.000000000001659
 20
390.00000000000011
 30
0.0
 40
2.5
  0
CIRCLE
  5
F9
  8
0
 10
10.000000000001769
 20
410.0
 30
0.0
 40
2.5
  0
CIRCLE
  5
FA
  8
0
 10
20.00000000000178
 20
430.00000000000011
 30
0.0
 40
2.5
  0
CIRCLE
  5
FB
  8
0
 10
0.0000000000017764
 20
430.00000000000011
 30
0.0
 40
2.5
  0
CIRCLE
  5
FC
  8
0
 10
0.0000000000016627
 20
390.00000000000011
 30
0.0
 40
2.5
  0
CIRCLE
  5
FD
  8
0
 10
-9.999999999998451
 20
370.0
 30
0.0
 40
2.5
  0
CIRCLE
  5
FE
  8
0
 10
-9.9999999999982236
 20
410.0
 30
0.0
 40
2.5
  0
CIRCLE
  5
FF
  8
0
 10
10.000000000001551
 20
370.00000000000011
 30
0.0
 40
2.5
  0
CIRCLE
  5
100
  8
0
 10
10.000000000001769
 20
410.00000000000011
 30
0.0
 40
2.5
  0
CIRCLE
  5
101
  8
0
 10
-9.9999999999980531
 20
410.0
 30
0.0
 40
2.5
  0
CIRCLE
  5
102
  8
0
 10
-9.9999999999980531
 20
410.00000000000011
 30
0.0
 40
2.5
  0
CIRCLE
  5
103
  8
0
 10
-9.9999999999982805
 20
370.0
 30
0.0
 40
2.5
  0
CIRCLE
  5
104
  8
0
 10
-9.9999999999982805
 20
370.00000000000011
 30
0.0
 40
2.5
  0
CIRCLE
  5
105
  8
0
 10
-29.99999999999828
 20
370.0
 30
0.0
 40
2.5
  0
CIRCLE
  5
106
  8
0
 10
-19.99999999999817
 20
390.00000000000011
 30
0.0
 40
2.5
  0
CIRCLE
  5
107
  8
0
 10
-29.99999999999806
 20
410.0
 30
0.0
 40
2.5
  0
CIRCLE
  5
108
  8
0
 10
-19.99999999999805
 20
430.00000000000011
 30
0.0
 40
2.5
  0
CIRCLE
  5
109
  8
0
 10
-39.999999999998003
 20
390.00000000000011
 30
0.0
 40
2.5
  0
CIRCLE
  5
10A
  8
0
 10
-49.99999999999811
 20
370.0
 30
0.0
 40
2.5
  0
CIRCLE
  5
10B
  8
0
 10
-29.99999999999828
 20
370.0
 30
0.0
 40
2.5
  0
CIRCLE
  5
10C
  8
0
 10
-29.99999999999811
 20
370.0
 30
0.0
 40
2.5
  0
CIRCLE
  5
10D
  8
0
 10
-29.99999999999811
 20
370.00000000000011
 30
0.0
 40
2.5
  0
CIRCLE
  5
10E
  8
0
 10
-39.999999999997883
 20
430.00000000000011
 30
0.0
 40
2.5
  0
CIRCLE
  5
10F
  8
0
 10
-49.999999999997883
 20
410.0
 30
0.0
 40
2.5
  0
CIRCLE
  5
110
  8
0
 10
-29.99999999999806
 20
410.0
 30
0.0
 40
2.5
  0
CIRCLE
  5
111
  8
0
 10
-29.999999999997879
 20
410.0
 30
0.0
 40
2.5
  0
CIRCLE
  5
112
  8
0
 10
-29.999999999997879
 20
410.00000000000011
 30
0.0
 40
2.5
  0
CIRCLE
  5
113
  8
0
 10
-69.999999999997925
 20
370.0
 30
0.0
 40
2.5
  0
CIRCLE
  5
114
  8
0
 10
-69.999999999997712
 20
410.0
 30
0.0
 40
2.5
  0
CIRCLE
  5
115
  8
0
 10
-59.999999999997833
 20
390.00000000000011
 30
0.0
 40
2.5
  0
CIRCLE
  5
116
  8
0
 10
-59.999999999997712
 20
430.00000000000011
 30
0.0
 40
2.5
  0
CIRCLE
  5
117
  8
0
 10
70.000000000001862
 20
450.00000000000028
 30
0.0
 40
2.5
  0
CIRCLE
  5
118
  8
0
 10
70.000000000002089
 20
490.00000000000028
 30
0.0
 40
2.5
  0
CIRCLE
  5
119
  8
0
 10
50.00000000000189
 20
450.00000000000028
 30
0.0
 40
2.5
  0
CIRCLE
  5
11A
  8
0
 10
60.000000000001997
 20
470.00000000000028
 30
0.0
 40
2.5
  0
CIRCLE
  5
11B
  8
0
 10
50.000000000002117
 20
490.00000000000028
 30
0.0
 40
2.5
  0
CIRCLE
  5
11C
  8
0
 10
60.000000000002117
 20
510.00000000000028
 30
0.0
 40
2.5
  0
CIRCLE
  5
11D
  8
0
 10
30.00000000000189
 20
450.0
 30
0.0
 40
2.5
  0
CIRCLE
  5
11E
  8
0
 10
40.000000000001997
 20
470.00000000000028
 30
0.0
 40
2.5
  0
CIRCLE
  5
11F
  8
0
 10
30.000000000002121
 20
490.00000000000028
 30
0.0
 40
2.5
  0
CIRCLE
  5
120
  8
0
 10
40.000000000002117
 20
510.00000000000028
 30
0.0
 40
2.5
  0
CIRCLE
  5
121
  8
0
 10
10.00000000000189
 20
450.0
 30
0.0
 40
2.5
  0
CIRCLE
  5
122
  8
0
 10
20.000000000002
 20
470.00000000000028
 30
0.0
 40
2.5
  0
CIRCLE
  5
123
  8
0
 10
10.000000000002119
 20
490.00000000000011
 30
0.0
 40
2.5
  0
CIRCLE
  5
124
  8
0
 10
20.000000000002121
 20
510.00000000000028
 30
0.0
 40
2.5
  0
CIRCLE
  5
125
  8
0
 10
0.0000000000021174
 20
510.00000000000028
 30
0.0
 40
2.5
  0
CIRCLE
  5
126
  8
0
 10
0.0000000000020037
 20
470.00000000000028
 30
0.0
 40
2.5
  0
CIRCLE
  5
127
  8
0
 10
-9.9999999999981082
 20
450.0
 30
0.0
 40
2.5
  0
CIRCLE
  5
128
  8
0
 10
-9.9999999999978826
 20
490.00000000000011
 30
0.0
 40
2.5
  0
CIRCLE
  5
129
  8
0
 10
10.00000000000189
 20
450.0
 30
0.0
 40
2.5
  0
CIRCLE
  5
12A
  8
0
 10
10.000000000002119
 20
490.00000000000028
 30
0.0
 40
2.5
  0
CIRCLE
  5
12B
  8
0
 10
-9.9999999999977121
 20
490.00000000000011
 30
0.0
 40
2.5
  0
CIRCLE
  5
12C
  8
0
 10
-9.9999999999977121
 20
490.00000000000028
 30
0.0
 40
2.5
  0
CIRCLE
  5
12D
  8
0
 10
-9.9999999999979394
 20
450.0
 30
0.0
 40
2.5
  0
CIRCLE
  5
12E
  8
0
 10
-9.9999999999979394
 20
450.0
 30
0.0
 40
2.5
  0
CIRCLE
  5
12F
  8
0
 10
-29.999999999997939
 20
450.0
 30
0.0
 40
2.5
  0
CIRCLE
  5
130
  8
0
 10
-19.999999999997819
 20
470.00000000000028
 30
0.0
 40
2.5
  0
CIRCLE
  5
131
  8
0
 10
-29.999999999997708
 20
490.00000000000011
 30
0.0
 40
2.5
  0
CIRCLE
  5
132
  8
0
 10
-19.999999999997708
 20
510.00000000000028
 30
0.0
 40
2.5
  0
CIRCLE
  5
133
  8
0
 10
-39.999999999997648
 20
470.00000000000028
 30
0.0
 40
2.5
  0
CIRCLE
  5
134
  8
0
 10
-49.999999999997769
 20
450.0
 30
0.0
 40
2.5
  0
CIRCLE
  5
135
  8
0
 10
-29.999999999997939
 20
450.0
 30
0.0
 40
2.5
  0
CIRCLE
  5
136
  8
0
 10
-29.999999999997769
 20
450.0
 30
0.0
 40
2.5
  0
CIRCLE
  5
137
  8
0
 10
-29.999999999997769
 20
450.0
 30
0.0
 40
2.5
  0
CIRCLE
  5
138
  8
0
 10
-39.999999999997542
 20
510.00000000000028
 30
0.0
 40
2.5
  0
CIRCLE
  5
139
  8
0
 10
-49.999999999997542
 20
490.00000000000011
 30
0.0
 40
2.5
  0
CIRCLE
  5
13A
  8
0
 10
-29.999999999997708
 20
490.00000000000011
 30
0.0
 40
2.5
  0
CIRCLE
  5
13B
  8
0
 10
-29.999999999997542
 20
490.00000000000011
 30
0.0
 40
2.5
  0
CIRCLE
  5
13C
  8
0
 10
-29.999999999997542
 20
490.00000000000028
 30
0.0
 40
2.5
  0
CIRCLE
  5
13D
  8
0
 10
-69.999999999997598
 20
450.0
 30
0.0
 40
2.5
  0
CIRCLE
  5
13E
  8
0
 10
-69.999999999997371
 20
490.00000000000011
 30
0.0
 40
2.5
  0
CIRCLE
  5
13F
  8
0
 10
-59.999999999997478
 20
470.00000000000028
 30
0.0
 40
2.5
  0
CIRCLE
  5
140
  8
0
 10
-59.999999999997371
 20
510.00000000000028
 30
0.0
 40
2.5
  0
CIRCLE
  5
141
  8
0
 10
70.000000000002203
 20
530.00000000000034
 30
0.0
 40
2.5
  0
CIRCLE
  5
142
  8
0
 10
70.00000000000243
 20
570.00000000000034
 30
0.0
 40
2.5
  0
CIRCLE
  5
143
  8
0
 10
50.000000000002231
 20
530.00000000000034
 30
0.0
 40
2.5
  0
CIRCLE
  5
144
  8
0
 10
60.000000000002338
 20
550.00000000000034
 30
0.0
 40
2.5
  0
CIRCLE
  5
145
  8
0
 10
50.000000000002458
 20
570.00000000000034
 30
0.0
 40
2.5
  0
CIRCLE
  5
146
  8
0
 10
60.000000000002458
 20
590.00000000000034
 30
0.0
 40
2.5
  0
CIRCLE
  5
147
  8
0
 10
30.000000000002231
 20
530.00000000000034
 30
0.0
 40
2.5
  0
CIRCLE
  5
148
  8
0
 10
40.000000000002338
 20
550.00000000000034
 30
0.0
 40
2.5
  0
CIRCLE
  5
149
  8
0
 10
30.000000000002458
 20
570.00000000000034
 30
0.0
 40
2.5
  0
CIRCLE
  5
14A
  8
0
 10
40.000000000002458
 20
590.00000000000034
 30
0.0
 40
2.5
  0
CIRCLE
  5
14B
  8
0
 10
10.000000000002229
 20
530.00000000000011
 30
0.0
 40
2.5
  0
CIRCLE
  5
14C
  8
0
 10
20.000000000002341
 20
550.00000000000034
 30
0.0
 40
2.5
  0
CIRCLE
  5
14D
  8
0
 10
10.00000000000246
 20
570.00000000000034
 30
0.0
 40
2.5
  0
CIRCLE
  5
14E
  8
0
 10
20.000000000002458
 20
590.00000000000034
 30
0.0
 40
2.5
  0
CIRCLE
  5
14F
  8
0
 10
0.0000000000024585
 20
590.00000000000034
 30
0.0
 40
2.5
  0
CIRCLE
  5
150
  8
0
 10
0.0000000000023448
 20
550.00000000000034
 30
0.0
 40
2.5
  0
CIRCLE
  5
151
  8
0
 10
-9.9999999999977671
 20
530.00000000000011
 30
0.0
 40
2.5
  0
CIRCLE
  5
152
  8
0
 10
-9.9999999999975415
 20
570.00000000000034
 30
0.0
 40
2.5
  0
CIRCLE
  5
153
  8
0
 10
10.000000000002229
 20
530.00000000000034
 30
0.0
 40
2.5
  0
CIRCLE
  5
154
  8
0
 10
10.00000000000246
 20
570.00000000000034
 30
0.0
 40
2.5
  0
CIRCLE
  5
155
  8
0
 10
-9.9999999999973692
 20
570.00000000000034
 30
0.0
 40
2.5
  0
CIRCLE
  5
156
  8
0
 10
-9.9999999999973692
 20
570.00000000000034
 30
0.0
 40
2.5
  0
CIRCLE
  5
157
  8
0
 10
-9.9999999999975984
 20
530.00000000000011
 30
0.0
 40
2.5
  0
CIRCLE
  5
158
  8
0
 10
-9.9999999999975984
 20
530.00000000000034
 30
0.0
 40
2.5
  0
CIRCLE
  5
159
  8
0
 10
-29.999999999997598
 20
530.00000000000011
 30
0.0
 40
2.5
  0
CIRCLE
  5
15A
  8
0
 10
-19.999999999997481
 20
550.00000000000034
 30
0.0
 40
2.5
  0
CIRCLE
  5
15B
  8
0
 10
-29.999999999997371
 20
570.00000000000034
 30
0.0
 40
2.5
  0
CIRCLE
  5
15C
  8
0
 10
-19.999999999997371
 20
590.00000000000034
 30
0.0
 40
2.5
  0
CIRCLE
  5
15D
  8
0
 10
-39.999999999997321
 20
550.00000000000034
 30
0.0
 40
2.5
  0
CIRCLE
  5
15E
  8
0
 10
-49.999999999997428
 20
530.00000000000011
 30
0.0
 40
2.5
  0
CIRCLE
  5
15F
  8
0
 10
-29.999999999997598
 20
530.00000000000011
 30
0.0
 40
2.5
  0
CIRCLE
  5
160
  8
0
 10
-29.999999999997431
 20
530.00000000000011
 30
0.0
 40
2.5
  0
CIRCLE
  5
161
  8
0
 10
-29.999999999997431
 20
530.00000000000034
 30
0.0
 40
2.5
  0
CIRCLE
  5
162
  8
0
 10
-39.9999999999972
 20
590.00000000000034
 30
0.0
 40
2.5
  0
CIRCLE
  5
163
  8
0
 10
-49.9999999999972
 20
570.00000000000034
 30
0.0
 40
2.5
  0
CIRCLE
  5
164
  8
0
 10
-29.999999999997371
 20
570.00000000000034
 30
0.0
 40
2.5
  0
CIRCLE
  5
165
  8
0
 10
-29.9999999999972
 20
570.00000000000034
 30
0.0
 40
2.5
  0
CIRCLE
  5
166
  8
0
 10
-29.9999999999972
 20
570.00000000000034
 30
0.0
 40
2.5
  0
CIRCLE
  5
167
  8
0
 10
-69.999999999997257
 20
530.00000000000011
 30
0.0
 40
2.5
  0
CIRCLE
  5
168
  8
0
 10
-69.99999999999703
 20
570.00000000000034
 30
0.0
 40
2.5
  0
CIRCLE
  5
169
  8
0
 10
-59.999999999997137
 20
550.00000000000034
 30
0.0
 40
2.5
  0
CIRCLE
  5
16A
  8
0
 10
-59.99999999999703
 20
590.00000000000034
 30
0.0
 40
2.5
  0
CIRCLE
  5
16B
  8
0
 10
70.000000000002544
 20
610.00000000000034
 30
0.0
 40
2.5
  0
CIRCLE
  5
16C
  8
0
 10
70.000000000002771
 20
650.00000000000057
 30
0.0
 40
2.5
  0
CIRCLE
  5
16D
  8
0
 10
50.000000000002572
 20
610.00000000000034
 30
0.0
 40
2.5
  0
CIRCLE
  5
16E
  8
0
 10
60.000000000002693
 20
630.00000000000057
 30
0.0
 40
2.5
  0
CIRCLE
  5
16F
  8
0
 10
50.0000000000028
 20
650.00000000000034
 30
0.0
 40
2.5
  0
CIRCLE
  5
170
  8
0
 10
60.0000000000028
 20
670.00000000000045
 30
0.0
 40
2.5
  0
CIRCLE
  5
171
  8
0
 10
30.000000000002579
 20
610.00000000000034
 30
0.0
 40
2.5
  0
CIRCLE
  5
172
  8
0
 10
40.000000000002693
 20
630.00000000000034
 30
0.0
 40
2.5
  0
CIRCLE
  5
173
  8
0
 10
30.0000000000028
 20
650.00000000000034
 30
0.0
 40
2.5
  0
CIRCLE
  5
174
  8
0
 10
40.000000000002792
 20
670.00000000000034
 30
0.0
 40
2.5
  0
CIRCLE
  5
175
  8
0
 10
10.00000000000257
 20
610.00000000000034
 30
0.0
 40
2.5
  0
CIRCLE
  5
176
  8
0
 10
20.000000000002689
 20
630.00000000000034
 30
0.0
 40
2.5
  0
CIRCLE
  5
177
  8
0
 10
10.0000000000028
 20
650.00000000000034
 30
0.0
 40
2.5
  0
CIRCLE
  5
178
  8
0
 10
20.0000000000028
 20
670.00000000000034
 30
0.0
 40
2.5
  0
CIRCLE
  5
179
  8
0
 10
0.0000000000027995
 20
670.00000000000034
 30
0.0
 40
2.5
  0
CIRCLE
  5
17A
  8
0
 10
0.0000000000026859
 20
630.00000000000034
 30
0.0
 40
2.5
  0
CIRCLE
  5
17B
  8
0
 10
-9.9999999999974278
 20
610.00000000000034
 30
0.0
 40
2.5
  0
CIRCLE
  5
17C
  8
0
 10
-9.9999999999972005
 20
650.00000000000034
 30
0.0
 40
2.5
  0
CIRCLE
  5
17D
  8
0
 10
10.00000000000257
 20
610.00000000000034
 30
0.0
 40
2.5
  0
CIRCLE
  5
17E
  8
0
 10
10.0000000000028
 20
650.00000000000034
 30
0.0
 40
2.5
  0
CIRCLE
  5
17F
  8
0
 10
-9.9999999999970282
 20
650.00000000000034
 30
0.0
 40
2.5
  0
CIRCLE
  5
180
  8
0
 10
-9.9999999999970282
 20
650.00000000000034
 30
0.0
 40
2.5
  0
CIRCLE
  5
181
  8
0
 10
-9.9999999999972573
 20
610.00000000000034
 30
0.0
 40
2.5
  0
CIRCLE
  5
182
  8
0
 10
-9.9999999999972573
 20
610.00000000000034
 30
0.0
 40
2.5
  0
CIRCLE
  5
183
  8
0
 10
-29.999999999997261
 20
610.00000000000034
 30
0.0
 40
2.5
  0
CIRCLE
  5
184
  8
0
 10
-19.99999999999714
 20
630.00000000000034
 30
0.0
 40
2.5
  0
CIRCLE
  5
185
  8
0
 10
-29.99999999999703
 20
650.00000000000034
 30
0.0
 40
2.5
  0
CIRCLE
  5
186
  8
0
 10
-19.99999999999703
 20
670.00000000000034
 30
0.0
 40
2.5
  0
CIRCLE
  5
187
  8
0
 10
-39.99999999999698
 20
630.00000000000034
 30
0.0
 40
2.5
  0
CIRCLE
  5
188
  8
0
 10
-49.99999999999708
 20
610.00000000000034
 30
0.0
 40
2.5
  0
CIRCLE
  5
189
  8
0
 10
-29.999999999997261
 20
610.00000000000034
 30
0.0
 40
2.5
  0
CIRCLE
  5
18A
  8
0
 10
-29.99999999999709
 20
610.00000000000034
 30
0.0
 40
2.5
  0
CIRCLE
  5
18B
  8
0
 10
-29.99999999999709
 20
610.00000000000034
 30
0.0
 40
2.5
  0
CIRCLE
  5
18C
  8
0
 10
-39.999999999996859
 20
670.00000000000034
 30
0.0
 40
2.5
  0
CIRCLE
  5
18D
  8
0
 10
-49.999999999996859
 20
650.00000000000034
 30
0.0
 40
2.5
  0
CIRCLE
  5
18E
  8
0
 10
-29.99999999999703
 20
650.00000000000034
 30
0.0
 40
2.5
  0
CIRCLE
  5
18F
  8
0
 10
-29.999999999996859
 20
650.00000000000034
 30
0.0
 40
2.5
  0
CIRCLE
  5
190
  8
0
 10
-29.999999999996859
 20
650.00000000000034
 30
0.0
 40
2.5
  0
CIRCLE
  5
191
  8
0
 10
-69.999999999996916
 20
610.00000000000034
 30
0.0
 40
2.5
  0
CIRCLE
  5
192
  8
0
 10
-69.999999999996689
 20
650.00000000000034
 30
0.0
 40
2.5
  0
CIRCLE
  5
193
  8
0
 10
-59.999999999996803
 20
630.00000000000034
 30
0.0
 40
2.5
  0
CIRCLE
  5
194
  8
0
 10
-59.999999999996689
 20
670.00000000000034
 30
0.0
 40
2.5
  0
CIRCLE
  5
195
  8
0
 10
70.000000000002885
 20
690.00000000000045
 30
0.0
 40
2.5
  0
CIRCLE
  5
196
  8
0
 10
70.000000000003112
 20
730.00000000000057
 30
0.0
 40
2.5
  0
CIRCLE
  5
197
  8
0
 10
50.000000000002913
 20
690.00000000000034
 30
0.0
 40
2.5
  0
CIRCLE
  5
198
  8
0
 10
60.00000000000302
 20
710.00000000000045
 30
0.0
 40
2.5
  0
CIRCLE
  5
199
  8
0
 10
50.000000000003141
 20
730.00000000000057
 30
0.0
 40
2.5
  0
CIRCLE
  5
19A
  8
0
 10
60.000000000003141
 20
750.00000000000057
 30
0.0
 40
2.5
  0
CIRCLE
  5
19B
  8
0
 10
30.00000000000291
 20
690.00000000000034
 30
0.0
 40
2.5
  0
CIRCLE
  5
19C
  8
0
 10
40.00000000000302
 20
710.00000000000045
 30
0.0
 40
2.5
  0
CIRCLE
  5
19D
  8
0
 10
30.000000000003141
 20
730.00000000000034
 30
0.0
 40
2.5
  0
CIRCLE
  5
19E
  8
0
 10
40.000000000003141
 20
750.00000000000057
 30
0.0
 40
2.5
  0
CIRCLE
  5
19F
  8
0
 10
10.00000000000291
 20
690.00000000000034
 30
0.0
 40
2.5
  0
CIRCLE
  5
1A0
  8
0
 10
20.00000000000303
 20
710.00000000000034
 30
0.0
 40
2.5
  0
CIRCLE
  5
1A1
  8
0
 10
10.000000000003141
 20
730.00000000000034
 30
0.0
 40
2.5
  0
CIRCLE
  5
1A2
  8
0
 10
20.000000000003141
 20
750.00000000000034
 30
0.0
 40
2.5
  0
CIRCLE
  5
1A3
  8
0
 10
0.0000000000031406
 20
750.00000000000034
 30
0.0
 40
2.5
  0
CIRCLE
  5
1A4
  8
0
 10
0.0000000000030269
 20
710.00000000000034
 30
0.0
 40
2.5
  0
CIRCLE
  5
1A5
  8
0
 10
-9.9999999999970868
 20
690.00000000000034
 30
0.0
 40
2.5
  0
CIRCLE
  5
1A6
  8
0
 10
-9.9999999999968594
 20
730.00000000000034
 30
0.0
 40
2.5
  0
CIRCLE
  5
1A7
  8
0
 10
10.00000000000291
 20
690.00000000000034
 30
0.0
 40
2.5
  0
CIRCLE
  5
1A8
  8
0
 10
10.000000000003141
 20
730.00000000000034
 30
0.0
 40
2.5
  0
CIRCLE
  5
1A9
  8
0
 10
-9.9999999999966889
 20
730.00000000000034
 30
0.0
 40
2.5
  0
CIRCLE
  5
1AA
  8
0
 10
-9.9999999999966889
 20
730.00000000000034
 30
0.0
 40
2.5
  0
CIRCLE
  5
1AB
  8
0
 10
-9.9999999999969162
 20
690.00000000000034
 30
0.0
 40
2.5
  0
CIRCLE
  5
1AC
  8
0
 10
-9.9999999999969162
 20
690.00000000000034
 30
0.0
 40
2.5
  0
CIRCLE
  5
1AD
  8
0
 10
-29.99999999999692
 20
690.00000000000034
 30
0.0
 40
2.5
  0
CIRCLE
  5
1AE
  8
0
 10
-19.999999999996799
 20
710.00000000000034
 30
0.0
 40
2.5
  0
CIRCLE
  5
1AF
  8
0
 10
-29.999999999996689
 20
730.00000000000034
 30
0.0
 40
2.5
  0
CIRCLE
  5
1B0
  8
0
 10
-19.999999999996689
 20
750.00000000000034
 30
0.0
 40
2.5
  0
CIRCLE
  5
1B1
  8
0
 10
-39.999999999996632
 20
710.00000000000034
 30
0.0
 40
2.5
  0
CIRCLE
  5
1B2
  8
0
 10
-49.999999999996739
 20
690.00000000000034
 30
0.0
 40
2.5
  0
CIRCLE
  5
1B3
  8
0
 10
-29.99999999999692
 20
690.00000000000034
 30
0.0
 40
2.5
  0
CIRCLE
  5
1B4
  8
0
 10
-29.999999999996749
 20
690.00000000000034
 30
0.0
 40
2.5
  0
CIRCLE
  5
1B5
  8
0
 10
-29.999999999996749
 20
690.00000000000034
 30
0.0
 40
2.5
  0
CIRCLE
  5
1B6
  8
0
 10
-39.999999999996518
 20
750.00000000000034
 30
0.0
 40
2.5
  0
CIRCLE
  5
1B7
  8
0
 10
-49.999999999996511
 20
730.00000000000034
 30
0.0
 40
2.5
  0
CIRCLE
  5
1B8
  8
0
 10
-29.999999999996689
 20
730.00000000000034
 30
0.0
 40
2.5
  0
CIRCLE
  5
1B9
  8
0
 10
-29.999999999996518
 20
730.00000000000034
 30
0.0
 40
2.5
  0
CIRCLE
  5
1BA
  8
0
 10
-29.999999999996518
 20
730.00000000000034
 30
0.0
 40
2.5
  0
CIRCLE
  5
1BB
  8
0
 10
-69.999999999996575
 20
690.00000000000034
 30
0.0
 40
2.5
  0
CIRCLE
  5
1BC
  8
0
 10
-69.999999999996334
 20
730.00000000000034
 30
0.0
 40
2.5
  0
CIRCLE
  5
1BD
  8
0
 10
-59.999999999996461
 20
710.00000000000034
 30
0.0
 40
2.5
  0
CIRCLE
  5
1BE
  8
0
 10
-59.999999999996341
 20
750.00000000000034
 30
0.0
 40
2.5
  0
CIRCLE
  5
1BF
  8
0
 10
70.000000000003226
 20
770.00000000000045
 30
0.0
 40
2.5
  0
CIRCLE
  5
1C0
  8
0
 10
70.000000000003453
 20
810.00000000000045
 30
0.0
 40
2.5
  0
CIRCLE
  5
1C1
  8
0
 10
50.000000000003247
 20
770.00000000000045
 30
0.0
 40
2.5
  0
CIRCLE
  5
1C2
  8
0
 10
60.000000000003368
 20
790.00000000000045
 30
0.0
 40
2.5
  0
CIRCLE
  5
1C3
  8
0
 10
50.000000000003482
 20
810.00000000000045
 30
0.0
 40
2.5
  0
CIRCLE
  5
1C4
  8
0
 10
60.000000000003482
 20
830.00000000000057
 30
0.0
 40
2.5
  0
CIRCLE
  5
1C5
  8
0
 10
30.000000000003251
 20
770.00000000000034
 30
0.0
 40
2.5
  0
CIRCLE
  5
1C6
  8
0
 10
40.000000000003361
 20
790.00000000000045
 30
0.0
 40
2.5
  0
CIRCLE
  5
1C7
  8
0
 10
30.000000000003482
 20
810.00000000000045
 30
0.0
 40
2.5
  0
CIRCLE
  5
1C8
  8
0
 10
40.000000000003482
 20
830.00000000000057
 30
0.0
 40
2.5
  0
CIRCLE
  5
1C9
  8
0
 10
10.000000000003251
 20
770.00000000000034
 30
0.0
 40
2.5
  0
CIRCLE
  5
1CA
  8
0
 10
20.000000000003372
 20
790.00000000000045
 30
0.0
 40
2.5
  0
CIRCLE
  5
1CB
  8
0
 10
10.00000000000348
 20
810.00000000000034
 30
0.0
 40
2.5
  0
CIRCLE
  5
1CC
  8
0
 10
20.000000000003482
 20
830.00000000000057
 30
0.0
 40
2.5
  0
CIRCLE
  5
1CD
  8
0
 10
0.0000000000034817
 20
830.00000000000057
 30
0.0
 40
2.5
  0
CIRCLE
  5
1CE
  8
0
 10
0.000000000003368
 20
790.00000000000045
 30
0.0
 40
2.5
  0
CIRCLE
  5
1CF
  8
0
 10
-9.9999999999967457
 20
770.00000000000034
 30
0.0
 40
2.5
  0
CIRCLE
  5
1D0
  8
0
 10
-9.9999999999965183
 20
810.00000000000034
 30
0.0
 40
2.5
  0
CIRCLE
  5
1D1
  8
0
 10
10.000000000003251
 20
770.00000000000034
 30
0.0
 40
2.5
  0
CIRCLE
  5
1D2
  8
0
 10
10.00000000000348
 20
810.00000000000045
 30
0.0
 40
2.5
  0
CIRCLE
  5
1D3
  8
0
 10
-9.9999999999963478
 20
810.00000000000034
 30
0.0
 40
2.5
  0
CIRCLE
  5
1D4
  8
0
 10
-9.9999999999963478
 20
810.00000000000045
 30
0.0
 40
2.5
  0
CIRCLE
  5
1D5
  8
0
 10
-9.9999999999965752
 20
770.00000000000034
 30
0.0
 40
2.5
  0
CIRCLE
  5
1D6
  8
0
 10
-9.9999999999965752
 20
770.00000000000034
 30
0.0
 40
2.5
  0
CIRCLE
  5
1D7
  8
0
 10
-29.999999999996579
 20
770.00000000000034
 30
0.0
 40
2.5
  0
CIRCLE
  5
1D8
  8
0
 10
-19.999999999996461
 20
790.00000000000045
 30
0.0
 40
2.5
  0
CIRCLE
  5
1D9
  8
0
 10
-29.999999999996351
 20
810.00000000000034
 30
0.0
 40
2.5
  0
CIRCLE
  5
1DA
  8
0
 10
-19.999999999996351
 20
830.00000000000057
 30
0.0
 40
2.5
  0
CIRCLE
  5
1DB
  8
0
 10
-39.999999999996291
 20
790.00000000000045
 30
0.0
 40
2.5
  0
CIRCLE
  5
1DC
  8
0
 10
-49.999999999996412
 20
770.00000000000034
 30
0.0
 40
2.5
  0
CIRCLE
  5
1DD
  8
0
 10
-29.999999999996579
 20
770.00000000000034
 30
0.0
 40
2.5
  0
CIRCLE
  5
1DE
  8
0
 10
-29.999999999996412
 20
770.00000000000034
 30
0.0
 40
2.5
  0
CIRCLE
  5
1DF
  8
0
 10
-29.999999999996412
 20
770.00000000000034
 30
0.0
 40
2.5
  0
CIRCLE
  5
1E0
  8
0
 10
-39.999999999996177
 20
830.00000000000057
 30
0.0
 40
2.5
  0
CIRCLE
  5
1E1
  8
0
 10
-49.999999999996177
 20
810.00000000000034
 30
0.0
 40
2.5
  0
CIRCLE
  5
1E2
  8
0
 10
-29.999999999996351
 20
810.00000000000034
 30
0.0
 40
2.5
  0
CIRCLE
  5
1E3
  8
0
 10
-29.999999999996181
 20
810.00000000000034
 30
0.0
 40
2.5
  0
CIRCLE
  5
1E4
  8
0
 10
-29.999999999996181
 20
810.00000000000045
 30
0.0
 40
2.5
  0
CIRCLE
  5
1E5
  8
0
 10
-69.999999999996234
 20
770.00000000000034
 30
0.0
 40
2.5
  0
CIRCLE
  5
1E6
  8
0
 10
-69.999999999996007
 20
810.00000000000034
 30
0.0
 40
2.5
  0
CIRCLE
  5
1E7
  8
0
 10
-59.99999999999612
 20
790.00000000000045
 30
0.0
 40
2.5
  0
CIRCLE
  5
1E8
  8
0
 10
-59.999999999996007
 20
830.00000000000057
 30
0.0
 40
2.5
  0
CIRCLE
  5
1E9
  8
0
 10
70.000000000003567
 20
850.00000000000045
 30
0.0
 40
2.5
  0
CIRCLE
  5
1EA
  8
0
 10
70.000000000003794
 20
890.00000000000045
 30
0.0
 40
2.5
  0
CIRCLE
  5
1EB
  8
0
 10
50.000000000003588
 20
850.00000000000045
 30
0.0
 40
2.5
  0
CIRCLE
  5
1EC
  8
0
 10
60.000000000003709
 20
870.00000000000057
 30
0.0
 40
2.5
  0
CIRCLE
  5
1ED
  8
0
 10
50.000000000003823
 20
890.00000000000045
 30
0.0
 40
2.5
  0
CIRCLE
  5
1EE
  8
0
 10
60.000000000003823
 20
910.00000000000057
 30
0.0
 40
2.5
  0
CIRCLE
  5
1EF
  8
0
 10
30.000000000003599
 20
850.00000000000045
 30
0.0
 40
2.5
  0
CIRCLE
  5
1F0
  8
0
 10
40.000000000003709
 20
870.00000000000057
 30
0.0
 40
2.5
  0
CIRCLE
  5
1F1
  8
0
 10
30.000000000003819
 20
890.00000000000045
 30
0.0
 40
2.5
  0
CIRCLE
  5
1F2
  8
0
 10
40.000000000003823
 20
910.00000000000057
 30
0.0
 40
2.5
  0
CIRCLE
  5
1F3
  8
0
 10
10.00000000000359
 20
850.00000000000034
 30
0.0
 40
2.5
  0
CIRCLE
  5
1F4
  8
0
 10
20.000000000003709
 20
870.00000000000057
 30
0.0
 40
2.5
  0
CIRCLE
  5
1F5
  8
0
 10
10.000000000003819
 20
890.00000000000045
 30
0.0
 40
2.5
  0
CIRCLE
  5
1F6
  8
0
 10
20.000000000003819
 20
910.00000000000057
 30
0.0
 40
2.5
  0
CIRCLE
  5
1F7
  8
0
 10
0.0000000000038227
 20
910.00000000000057
 30
0.0
 40
2.5
  0
CIRCLE
  5
1F8
  8
0
 10
0.000000000003709
 20
870.00000000000057
 30
0.0
 40
2.5
  0
CIRCLE
  5
1F9
  8
0
 10
-9.9999999999964047
 20
850.00000000000034
 30
0.0
 40
2.5
  0
CIRCLE
  5
1FA
  8
0
 10
-9.9999999999961773
 20
890.00000000000045
 30
0.0
 40
2.5
  0
CIRCLE
  5
1FB
  8
0
 10
10.00000000000359
 20
850.00000000000045
 30
0.0
 40
2.5
  0
CIRCLE
  5
1FC
  8
0
 10
10.000000000003819
 20
890.00000000000045
 30
0.0
 40
2.5
  0
CIRCLE
  5
1FD
  8
0
 10
-9.9999999999960067
 20
890.00000000000045
 30
0.0
 40
2.5
  0
CIRCLE
  5
1FE
  8
0
 10
-9.9999999999960067
 20
890.00000000000045
 30
0.0
 40
2.5
  0
CIRCLE
  5
1FF
  8
0
 10
-9.9999999999962341
 20
850.00000000000034
 30
0.0
 40
2.5
  0
CIRCLE
  5
200
  8
0
 10
-9.9999999999962341
 20
850.00000000000045
 30
0.0
 40
2.5
  0
CIRCLE
  5
201
  8
0
 10
-29.999999999996231
 20
850.00000000000034
 30
0.0
 40
2.5
  0
CIRCLE
  5
202
  8
0
 10
-19.99999999999612
 20
870.00000000000057
 30
0.0
 40
2.5
  0
CIRCLE
  5
203
  8
0
 10
-29.99999999999601
 20
890.00000000000045
 30
0.0
 40
2.5
  0
CIRCLE
  5
204
  8
0
 10
-19.99999999999601
 20
910.00000000000057
 30
0.0
 40
2.5
  0
CIRCLE
  5
205
  8
0
 10
-39.99999999999595
 20
870.00000000000057
 30
0.0
 40
2.5
  0
CIRCLE
  5
206
  8
0
 10
-49.999999999996056
 20
850.00000000000034
 30
0.0
 40
2.5
  0
CIRCLE
  5
207
  8
0
 10
-29.999999999996231
 20
850.00000000000034
 30
0.0
 40
2.5
  0
CIRCLE
  5
208
  8
0
 10
-29.999999999996071
 20
850.00000000000034
 30
0.0
 40
2.5
  0
CIRCLE
  5
209
  8
0
 10
-29.999999999996071
 20
850.00000000000045
 30
0.0
 40
2.5
  0
CIRCLE
  5
20A
  8
0
 10
-39.999999999995843
 20
910.00000000000057
 30
0.0
 40
2.5
  0
CIRCLE
  5
20B
  8
0
 10
-49.999999999995843
 20
890.00000000000045
 30
0.0
 40
2.5
  0
CIRCLE
  5
20C
  8
0
 10
-29.99999999999601
 20
890.00000000000045
 30
0.0
 40
2.5
  0
CIRCLE
  5
20D
  8
0
 10
-29.99999999999584
 20
890.00000000000045
 30
0.0
 40
2.5
  0
CIRCLE
  5
20E
  8
0
 10
-29.99999999999584
 20
890.00000000000045
 30
0.0
 40
2.5
  0
CIRCLE
  5
20F
  8
0
 10
-69.999999999995893
 20
850.00000000000034
 30
0.0
 40
2.5
  0
CIRCLE
  5
210
  8
0
 10
-69.999999999995666
 20
890.00000000000045
 30
0.0
 40
2.5
  0
CIRCLE
  5
211
  8
0
 10
-59.999999999995779
 20
870.00000000000057
 30
0.0
 40
2.5
  0
CIRCLE
  5
212
  8
0
 10
-59.999999999995659
 20
910.00000000000057
 30
0.0
 40
2.5
  0
CIRCLE
  5
213
  8
0
 10
70.000000000003894
 20
930.00000000000057
 30
0.0
 40
2.5
  0
CIRCLE
  5
214
  8
0
 10
70.000000000004135
 20
970.0000000000008
 30
0.0
 40
2.5
  0
CIRCLE
  5
215
  8
0
 10
50.000000000003944
 20
930.00000000000057
 30
0.0
 40
2.5
  0
CIRCLE
  5
216
  8
0
 10
60.00000000000405
 20
950.0000000000008
 30
0.0
 40
2.5
  0
CIRCLE
  5
217
  8
0
 10
50.000000000004157
 20
970.00000000000057
 30
0.0
 40
2.5
  0
CIRCLE
  5
218
  8
0
 10
60.000000000004157
 20
990.00000000000068
 30
0.0
 40
2.5
  0
CIRCLE
  5
219
  8
0
 10
30.00000000000394
 20
930.00000000000057
 30
0.0
 40
2.5
  0
CIRCLE
  5
21A
  8
0
 10
40.00000000000405
 20
950.00000000000045
 30
0.0
 40
2.5
  0
CIRCLE
  5
21B
  8
0
 10
30.00000000000416
 20
970.00000000000057
 30
0.0
 40
2.5
  0
CIRCLE
  5
21C
  8
0
 10
40.000000000004157
 20
990.00000000000045
 30
0.0
 40
2.5
  0
CIRCLE
  5
21D
  8
0
 10
10.000000000003929
 20
930.00000000000057
 30
0.0
 40
2.5
  0
CIRCLE
  5
21E
  8
0
 10
20.00000000000405
 20
950.00000000000045
 30
0.0
 40
2.5
  0
CIRCLE
  5
21F
  8
0
 10
10.00000000000416
 20
970.00000000000057
 30
0.0
 40
2.5
  0
CIRCLE
  5
220
  8
0
 10
20.00000000000416
 20
990.00000000000045
 30
0.0
 40
2.5
  0
CIRCLE
  5
221
  8
0
 10
0.0000000000041638
 20
990.00000000000045
 30
0.0
 40
2.5
  0
CIRCLE
  5
222
  8
0
 10
0.0000000000040501
 20
950.00000000000045
 30
0.0
 40
2.5
  0
CIRCLE
  5
223
  8
0
 10
-9.9999999999960636
 20
930.00000000000057
 30
0.0
 40
2.5
  0
CIRCLE
  5
224
  8
0
 10
-9.9999999999958362
 20
970.00000000000057
 30
0.0
 40
2.5
  0
CIRCLE
  5
225
  8
0
 10
10.000000000003929
 20
930.00000000000057
 30
0.0
 40
2.5
  0
CIRCLE
  5
226
  8
0
 10
10.00000000000416
 20
970.00000000000057
 30
0.0
 40
2.5
  0
CIRCLE
  5
227
  8
0
 10
-9.9999999999956657
 20
970.00000000000057
 30
0.0
 40
2.5
  0
CIRCLE
  5
228
  8
0
 10
-9.9999999999956657
 20
970.00000000000057
 30
0.0
 40
2.5
  0
CIRCLE
  5
229
  8
0
 10
-9.9999999999958931
 20
930.00000000000057
 30
0.0
 40
2.5
  0
CIRCLE
  5
22A
  8
0
 10
-9.9999999999958931
 20
930.00000000000057
 30
0.0
 40
2.5
  0
CIRCLE
  5
22B
  8
0
 10
-29.9999999999959
 20
930.00000000000057
 30
0.0
 40
2.5
  0
CIRCLE
  5
22C
  8
0
 10
-19.999999999995779
 20
950.00000000000045
 30
0.0
 40
2.5
  0
CIRCLE
  5
22D
  8
0
 10
-29.999999999995659
 20
970.00000000000057
 30
0.0
 40
2.5
  0
CIRCLE
  5
22E
  8
0
 10
-19.999999999995659
 20
990.00000000000045
 30
0.0
 40
2.5
  0
CIRCLE
  5
22F
  8
0
 10
-39.999999999995609
 20
950.00000000000045
 30
0.0
 40
2.5
  0
CIRCLE
  5
230
  8
0
 10
-49.999999999995723
 20
930.00000000000057
 30
0.0
 40
2.5
  0
CIRCLE
  5
231
  8
0
 10
-29.9999999999959
 20
930.00000000000057
 30
0.0
 40
2.5
  0
CIRCLE
  5
232
  8
0
 10
-29.999999999995719
 20
930.00000000000057
 30
0.0
 40
2.5
  0
CIRCLE
  5
233
  8
0
 10
-29.999999999995719
 20
930.00000000000057
 30
0.0
 40
2.5
  0
CIRCLE
  5
234
  8
0
 10
-39.999999999995502
 20
990.00000000000045
 30
0.0
 40
2.5
  0
CIRCLE
  5
235
  8
0
 10
-49.999999999995488
 20
970.00000000000057
 30
0.0
 40
2.5
  0
CIRCLE
  5
236
  8
0
 10
-29.999999999995659
 20
970.00000000000057
 30
0.0
 40
2.5
  0
CIRCLE
  5
237
  8
0
 10
-29.999999999995499
 20
970.00000000000057
 30
0.0
 40
2.5
  0
CIRCLE
  5
238
  8
0
 10
-29.999999999995499
 20
970.00000000000057
 30
0.0
 40
2.5
  0
CIRCLE
  5
239
  8
0
 10
-69.999999999995552
 20
930.00000000000057
 30
0.0
 40
2.5
  0
CIRCLE
  5
23A
  8
0
 10
-69.999999999995325
 20
970.00000000000057
 30
0.0
 40
2.5
  0
CIRCLE
  5
23B
  8
0
 10
-59.999999999995438
 20
950.00000000000045
 30
0.0
 40
2.5
  0
CIRCLE
  5
23C
  8
0
 10
-59.999999999995318
 20
990.00000000000045
 30
0.0
 40
2.5
  0
CIRCLE
  5
23D
  8
0
 10
70.000000000004249
 20
1010.000000000001
 30
0.0
 40
2.5
  0
CIRCLE
  5
23E
  8
0
 10
70.000000000004476
 20
1050.0
 30
0.0
 40
2.5
  0
CIRCLE
  5
23F
  8
0
 10
50.000000000004277
 20
1010.000000000001
 30
0.0
 40
2.5
  0
CIRCLE
  5
240
  8
0
 10
60.000000000004391
 20
1030.0000000000009
 30
0.0
 40
2.5
  0
CIRCLE
  5
241
  8
0
 10
50.000000000004512
 20
1050.0
 30
0.0
 40
2.5
  0
CIRCLE
  5
242
  8
0
 10
60.000000000004512
 20
1070.0
 30
0.0
 40
2.5
  0
CIRCLE
  5
243
  8
0
 10
30.000000000004281
 20
1010.0
 30
0.0
 40
2.5
  0
CIRCLE
  5
244
  8
0
 10
40.000000000004391
 20
1030.0000000000009
 30
0.0
 40
2.5
  0
CIRCLE
  5
245
  8
0
 10
30.000000000004508
 20
1050.0
 30
0.0
 40
2.5
  0
CIRCLE
  5
246
  8
0
 10
40.000000000004498
 20
1070.0
 30
0.0
 40
2.5
  0
CIRCLE
  5
247
  8
0
 10
10.000000000004279
 20
1010.0
 30
0.0
 40
2.5
  0
CIRCLE
  5
248
  8
0
 10
20.000000000004391
 20
1030.0
 30
0.0
 40
2.5
  0
CIRCLE
  5
249
  8
0
 10
10.0000000000045
 20
1050.0
 30
0.0
 40
2.5
  0
CIRCLE
  5
24A
  8
0
 10
20.000000000004508
 20
1070.0
 30
0.0
 40
2.5
  0
CIRCLE
  5
24B
  8
0
 10
0.0000000000045048
 20
1070.0
 30
0.0
 40
2.5
  0
CIRCLE
  5
24C
  8
0
 10
0.0000000000043912
 20
1030.0
 30
0.0
 40
2.5
  0
CIRCLE
  5
24D
  8
0
 10
-9.9999999999957225
 20
1010.0
 30
0.0
 40
2.5
  0
CIRCLE
  5
24E
  8
0
 10
-9.9999999999954952
 20
1050.0
 30
0.0
 40
2.5
  0
CIRCLE
  5
24F
  8
0
 10
10.000000000004279
 20
1010.0
 30
0.0
 40
2.5
  0
CIRCLE
  5
250
  8
0
 10
10.0000000000045
 20
1050.0
 30
0.0
 40
2.5
  0
CIRCLE
  5
251
  8
0
 10
-9.9999999999953246
 20
1050.0
 30
0.0
 40
2.5
  0
CIRCLE
  5
252
  8
0
 10
-9.9999999999953246
 20
1050.0
 30
0.0
 40
2.5
  0
CIRCLE
  5
253
  8
0
 10
-9.999999999995552
 20
1010.0
 30
0.0
 40
2.5
  0
CIRCLE
  5
254
  8
0
 10
-9.999999999995552
 20
1010.0
 30
0.0
 40
2.5
  0
CIRCLE
  5
255
  8
0
 10
-29.999999999995548
 20
1010.0
 30
0.0
 40
2.5
  0
CIRCLE
  5
256
  8
0
 10
-19.999999999995438
 20
1030.0
 30
0.0
 40
2.5
  0
CIRCLE
  5
257
  8
0
 10
-29.999999999995332
 20
1050.0
 30
0.0
 40
2.5
  0
CIRCLE
  5
258
  8
0
 10
-19.999999999995321
 20
1070.0
 30
0.0
 40
2.5
  0
CIRCLE
  5
259
  8
0
 10
-39.999999999995268
 20
1030.0
 30
0.0
 40
2.5
  0
CIRCLE
  5
25A
  8
0
 10
-49.999999999995381
 20
1010.0
 30
0.0
 40
2.5
  0
CIRCLE
  5
25B
  8
0
 10
-29.999999999995548
 20
1010.0
 30
0.0
 40
2.5
  0
CIRCLE
  5
25C
  8
0
 10
-29.999999999995381
 20
1010.0
 30
0.0
 40
2.5
  0
CIRCLE
  5
25D
  8
0
 10
-29.999999999995381
 20
1010.0
 30
0.0
 40
2.5
  0
CIRCLE
  5
25E
  8
0
 10
-39.999999999995147
 20
1070.0
 30
0.0
 40
2.5
  0
CIRCLE
  5
25F
  8
0
 10
-49.999999999995147
 20
1050.0
 30
0.0
 40
2.5
  0
CIRCLE
  5
260
  8
0
 10
-29.999999999995332
 20
1050.0
 30
0.0
 40
2.5
  0
CIRCLE
  5
261
  8
0
 10
-29.999999999995151
 20
1050.0
 30
0.0
 40
2.5
  0
CIRCLE
  5
262
  8
0
 10
-29.999999999995151
 20
1050.0
 30
0.0
 40
2.5
  0
CIRCLE
  5
263
  8
0
 10
-69.999999999995211
 20
1010.0
 30
0.0
 40
2.5
  0
CIRCLE
  5
264
  8
0
 10
-69.999999999994984
 20
1050.0
 30
0.0
 40
2.5
  0
CIRCLE
  5
265
  8
0
 10
-59.99999999999509
 20
1030.0
 30
0.0
 40
2.5
  0
CIRCLE
  5
266
  8
0
 10
-59.999999999994991
 20
1070.0
 30
0.0
 40
2.5
  0
CIRCLE
  5
267
  8
0
 10
70.00000000000459
 20
1090.0
 30
0.0
 40
2.5
  0
CIRCLE
  5
268
  8
0
 10
70.000000000004817
 20
1130.0000000000009
 30
0.0
 40
2.5
  0
CIRCLE
  5
269
  8
0
 10
50.000000000004611
 20
1090.0
 30
0.0
 40
2.5
  0
CIRCLE
  5
26A
  8
0
 10
60.000000000004732
 20
1110.0
 30
0.0
 40
2.5
  0
CIRCLE
  5
26B
  8
0
 10
50.000000000004839
 20
1130.0000000000009
 30
0.0
 40
2.5
  0
CIRCLE
  5
26C
  8
0
 10
60.000000000004839
 20
1150.0000000000009
 30
0.0
 40
2.5
  0
CIRCLE
  5
26D
  8
0
 10
30.000000000004619
 20
1090.0
 30
0.0
 40
2.5
  0
CIRCLE
  5
26E
  8
0
 10
40.000000000004732
 20
1110.0
 30
0.0
 40
2.5
  0
CIRCLE
  5
26F
  8
0
 10
30.000000000004849
 20
1130.0000000000009
 30
0.0
 40
2.5
  0
CIRCLE
  5
270
  8
0
 10
40.000000000004839
 20
1150.0000000000009
 30
0.0
 40
2.5
  0
CIRCLE
  5
271
  8
0
 10
10.00000000000462
 20
1090.0
 30
0.0
 40
2.5
  0
CIRCLE
  5
272
  8
0
 10
20.000000000004729
 20
1110.0
 30
0.0
 40
2.5
  0
CIRCLE
  5
273
  8
0
 10
10.000000000004841
 20
1130.0
 30
0.0
 40
2.5
  0
CIRCLE
  5
274
  8
0
 10
20.000000000004839
 20
1150.0000000000009
 30
0.0
 40
2.5
  0
CIRCLE
  5
275
  8
0
 10
0.0000000000048459
 20
1150.0000000000009
 30
0.0
 40
2.5
  0
CIRCLE
  5
276
  8
0
 10
0.0000000000047322
 20
1110.0
 30
0.0
 40
2.5
  0
CIRCLE
  5
277
  8
0
 10
-9.9999999999953815
 20
1090.0
 30
0.0
 40
2.5
  0
CIRCLE
  5
278
  8
0
 10
-9.9999999999951541
 20
1130.0
 30
0.0
 40
2.5
  0
CIRCLE
  5
279
  8
0
 10
10.00000000000462
 20
1090.0
 30
0.0
 40
2.5
  0
CIRCLE
  5
27A
  8
0
 10
10.000000000004841
 20
1130.0000000000009
 30
0.0
 40
2.5
  0
CIRCLE
  5
27B
  8
0
 10
-9.9999999999949836
 20
1130.0
 30
0.0
 40
2.5
  0
CIRCLE
  5
27C
  8
0
 10
-9.9999999999949836
 20
1130.0000000000009
 30
0.0
 40
2.5
  0
CIRCLE
  5
27D
  8
0
 10
-9.9999999999952092
 20
1090.0
 30
0.0
 40
2.5
  0
CIRCLE
  5
27E
  8
0
 10
-9.9999999999952092
 20
1090.0
 30
0.0
 40
2.5
  0
CIRCLE
  5
27F
  8
0
 10
-29.999999999995211
 20
1090.0
 30
0.0
 40
2.5
  0
CIRCLE
  5
280
  8
0
 10
-19.99999999999509
 20
1110.0
 30
0.0
 40
2.5
  0
CIRCLE
  5
281
  8
0
 10
-29.999999999994991
 20
1130.0
 30
0.0
 40
2.5
  0
CIRCLE
  5
282
  8
0
 10
-19.99999999999498
 20
1150.0000000000009
 30
0.0
 40
2.5
  0
CIRCLE
  5
283
  8
0
 10
-39.999999999994927
 20
1110.0
 30
0.0
 40
2.5
  0
CIRCLE
  5
284
  8
0
 10
-49.99999999999504
 20
1090.0
 30
0.0
 40
2.5
  0
CIRCLE
  5
285
  8
0
 10
-29.999999999995211
 20
1090.0
 30
0.0
 40
2.5
  0
CIRCLE
  5
286
  8
0
 10
-29.99999999999504
 20
1090.0
 30
0.0
 40
2.5
  0
CIRCLE
  5
287
  8
0
 10
-29.99999999999504
 20
1090.0
 30
0.0
 40
2.5
  0
CIRCLE
  5
288
  8
0
 10
-39.999999999994813
 20
1150.0000000000009
 30
0.0
 40
2.5
  0
CIRCLE
  5
289
  8
0
 10
-49.999999999994813
 20
1130.0
 30
0.0
 40
2.5
  0
CIRCLE
  5
28A
  8
0
 10
-29.999999999994991
 20
1130.0
 30
0.0
 40
2.5
  0
CIRCLE
  5
28B
  8
0
 10
-29.999999999994809
 20
1130.0
 30
0.0
 40
2.5
  0
CIRCLE
  5
28C
  8
0
 10
-29.999999999994809
 20
1130.0000000000009
 30
0.0
 40
2.5
  0
CIRCLE
  5
28D
  8
0
 10
-69.99999999999487
 20
1090.0
 30
0.0
 40
2.5
  0
CIRCLE
  5
28E
  8
0
 10
-69.999999999994643
 20
1130.0
 30
0.0
 40
2.5
  0
CIRCLE
  5
28F
  8
0
 10
-59.999999999994749
 20
1110.0
 30
0.0
 40
2.5
  0
CIRCLE
  5
290
  8
0
 10
-59.999999999994643
 20
1150.0000000000009
 30
0.0
 40
2.5
  0
CIRCLE
  5
291
  8
0
 10
70.000000000004931
 20
1170.0000000000009
 30
0.0
 40
2.5
  0
CIRCLE
  5
292
  8
0
 10
50.00000000000496
 20
1170.0
 30
0.0
 40
2.5
  0
CIRCLE
  5
293
  8
0
 10
60.00000000000508
 20
1190.0000000000009
 30
0.0
 40
2.5
  0
CIRCLE
  5
294
  8
0
 10
30.00000000000496
 20
1170.0
 30
0.0
 40
2.5
  0
CIRCLE
  5
295
  8
0
 10
40.000000000005073
 20
1190.0000000000009
 30
0.0
 40
2.5
  0
CIRCLE
  5
296
  8
0
 10
10.00000000000496
 20
1170.0
 30
0.0
 40
2.5
  0
CIRCLE
  5
297
  8
0
 10
20.00000000000508
 20
1190.0000000000009
 30
0.0
 40
2.5
  0
CIRCLE
  5
298
  8
0
 10
0.0000000000050733
 20
1190.0000000000009
 30
0.0
 40
2.5
  0
CIRCLE
  5
299
  8
0
 10
-9.9999999999950404
 20
1170.0
 30
0.0
 40
2.5
  0
CIRCLE
  5
29A
  8
0
 10
10.00000000000496
 20
1170.0
 30
0.0
 40
2.5
  0
CIRCLE
  5
29B
  8
0
 10
-9.9999999999948699
 20
1170.0
 30
0.0
 40
2.5
  0
CIRCLE
  5
29C
  8
0
 10
-9.9999999999948699
 20
1170.0
 30
0.0
 40
2.5
  0
CIRCLE
  5
29D
  8
0
 10
-29.99999999999487
 20
1170.0
 30
0.0
 40
2.5
  0
CIRCLE
  5
29E
  8
0
 10
-19.999999999994749
 20
1190.0000000000009
 30
0.0
 40
2.5
  0
CIRCLE
  5
29F
  8
0
 10
-39.999999999994593
 20
1190.0000000000009
 30
0.0
 40
2.5
  0
CIRCLE
  5
2A0
  8
0
 10
-49.999999999994699
 20
1170.0
 30
0.0
 40
2.5
  0
CIRCLE
  5
2A1
  8
0
 10
-29.99999999999487
 20
1170.0
 30
0.0
 40
2.5
  0
CIRCLE
  5
2A2
  8
0
 10
-29.999999999994699
 20
1170.0
 30
0.0
 40
2.5
  0
CIRCLE
  5
2A3
  8
0
 10
-29.999999999994699
 20
1170.0
 30
0.0
 40
2.5
  0
CIRCLE
  5
2A4
  8
0
 10
-69.999999999994515
 20
1170.0
 30
0.0
 40
2.5
  0
CIRCLE
  5
2A5
  8
0
 10
-59.999999999994422
 20
1190.0000000000009
 30
0.0
 40
2.5
  0
INSERT
  5
2A6
  8
0
  2
SIMPSON-STRONG-TIE
 10
-6.3999999999998201
 20
23.99999999999995
 30
0.0
  0
ENDSEC
  0
EOF
