  0
SECTION
  2
HEADER
  9
$ACADVER
  1
AC1009
  9
$INSBASE
 10
0.0
 20
0.0
 30
0.0
  9
$EXTMIN
 10
-57.287111790687902
 20
-255.21569165582881
 30
0.0
  9
$EXTMAX
 10
57.287111790687959
 20
121.4999999999999
 30
0.0
  9
$LIMMIN
 10
0.0
 20
0.0
  9
$LIMMAX
 10
420.0
 20
297.0
  9
$ORTHOMODE
 70
     1
  9
$REGENMODE
 70
     1
  9
$FILLMODE
 70
     1
  9
$QTEXTMODE
 70
     0
  9
$MIRRTEXT
 70
     1
  9
$DRAGMODE
 70
     2
  9
$LTSCALE
 40
1.0
  9
$OSMODE
 70
    47
  9
$ATTMODE
 70
     1
  9
$TEXTSIZE
 40
3.5
  9
$TRACEWID
 40
0.05
  9
$TEXTSTYLE
  7
SST
  9
$CLAYER
  8
0
  9
$CELTYPE
  6
BYLAYER
  9
$CECOLOR
 62
   256
  9
$DIMSCALE
 40
2.0
  9
$DIMASZ
 40
2.0
  9
$DIMEXO
 40
1.0
  9
$DIMDLI
 40
10.0
  9
$DIMRND
 40
0.0
  9
$DIMDLE
 40
0.0
  9
$DIMEXE
 40
1.0
  9
$DIMTP
 40
0.0
  9
$DIMTM
 40
0.0
  9
$DIMTXT
 40
3.5
  9
$DIMCEN
 40
2.5
  9
$DIMTSZ
 40
0.0
  9
$DIMTOL
 70
     0
  9
$DIMLIM
 70
     0
  9
$DIMTIH
 70
     0
  9
$DIMTOH
 70
     0
  9
$DIMSE1
 70
     0
  9
$DIMSE2
 70
     0
  9
$DIMTAD
 70
     1
  9
$DIMZIN
 70
     8
  9
$DIMBLK
  1

  9
$DIMASO
 70
     1
  9
$DIMSHO
 70
     1
  9
$DIMPOST
  1

  9
$DIMAPOST
  1

  9
$DIMALT
 70
     0
  9
$DIMALTD
 70
     2
  9
$DIMALTF
 40
25.399999999999999
  9
$DIMLFAC
 40
1.0
  9
$DIMTOFL
 70
     1
  9
$DIMTVP
 40
0.0
  9
$DIMTIX
 70
     0
  9
$DIMSOXD
 70
     0
  9
$DIMSAH
 70
     0
  9
$DIMBLK1
  1

  9
$DIMBLK2
  1

  9
$DIMSTYLE
  2
STANDARD
  9
$DIMCLRD
 70
     0
  9
$DIMCLRE
 70
     0
  9
$DIMCLRT
 70
     0
  9
$DIMTFAC
 40
1.0
  9
$DIMGAP
 40
1.0
  9
$LUNITS
 70
     2
  9
$LUPREC
 70
     4
  9
$SKETCHINC
 40
0.1
  9
$FILLETRAD
 40
10.0
  9
$AUNITS
 70
     0
  9
$AUPREC
 70
     2
  9
$MENU
  1
acad
  9
$ELEVATION
 40
0.0
  9
$PELEVATION
 40
0.0
  9
$THICKNESS
 40
0.0
  9
$LIMCHECK
 70
     0
  9
$BLIPMODE
 70
     0
  9
$CHAMFERA
 40
0.0
  9
$CHAMFERB
 40
0.0
  9
$SKPOLY
 70
     0
  9
$TDCREATE
 40
2449450.4197234958
  9
$TDUPDATE
 40
2453443.5668326742
  9
$TDINDWG
 40
1.5160534144
  9
$TDUSRTIMER
 40
1.5160534144
  9
$USRTIMER
 70
     1
  9
$ANGBASE
 50
0.0
  9
$ANGDIR
 70
     0
  9
$PDMODE
 70
     0
  9
$PDSIZE
 40
0.0
  9
$PLINEWID
 40
0.0
  9
$COORDS
 70
     1
  9
$SPLFRAME
 70
     0
  9
$SPLINETYPE
 70
     6
  9
$SPLINESEGS
 70
     8
  9
$ATTDIA
 70
     0
  9
$ATTREQ
 70
     1
  9
$HANDLING
 70
     1
  9
$HANDSEED
  5
14C
  9
$SURFTAB1
 70
     6
  9
$SURFTAB2
 70
     6
  9
$SURFTYPE
 70
     6
  9
$SURFU
 70
     6
  9
$SURFV
 70
     6
  9
$UCSNAME
  2

  9
$UCSORG
 10
0.0
 20
0.0
 30
0.0
  9
$UCSXDIR
 10
1.0
 20
0.0
 30
0.0
  9
$UCSYDIR
 10
0.0
 20
1.0
 30
0.0
  9
$PUCSNAME
  2

  9
$PUCSORG
 10
0.0
 20
0.0
 30
0.0
  9
$PUCSXDIR
 10
1.0
 20
0.0
 30
0.0
  9
$PUCSYDIR
 10
0.0
 20
1.0
 30
0.0
  9
$USERI1
 70
     0
  9
$USERI2
 70
     0
  9
$USERI3
 70
     0
  9
$USERI4
 70
     0
  9
$USERI5
 70
     0
  9
$USERR1
 40
0.0
  9
$USERR2
 40
0.0
  9
$USERR3
 40
0.0
  9
$USERR4
 40
0.0
  9
$USERR5
 40
0.0
  9
$WORLDVIEW
 70
     1
  9
$SHADEDGE
 70
     3
  9
$SHADEDIF
 70
    70
  9
$TILEMODE
 70
     1
  9
$MAXACTVP
 70
    16
  9
$PLIMCHECK
 70
     0
  9
$PEXTMIN
 10
1.0000000000000000E+020
 20
1.0000000000000000E+020
 30
1.0000000000000000E+020
  9
$PEXTMAX
 10
-1.0000000000000000E+020
 20
-1.0000000000000000E+020
 30
-1.0000000000000000E+020
  9
$PLIMMIN
 10
0.0
 20
0.0
  9
$PLIMMAX
 10
420.0
 20
297.0
  9
$UNITMODE
 70
     0
  9
$VISRETAIN
 70
     0
  9
$PLINEGEN
 70
     0
  9
$PSLTSCALE
 70
     1
  0
ENDSEC
  0
SECTION
  2
TABLES
  0
TABLE
  2
VPORT
 70
     2
  0
VPORT
  2
*ACTIVE
 70
     0
 10
0.0
 20
0.0
 11
1.0
 21
1.0
 12
21.945893293175232
 22
-65.417203758807517
 13
0.0
 23
0.0
 14
0.1
 24
0.1
 15
10.0
 25
10.0
 16
0.0
 26
0.0
 36
1.0
 17
0.0
 27
0.0
 37
0.0
 40
474.53576073634792
 41
1.4993646759847521
 42
50.0
 43
0.0
 44
0.0
 50
0.0
 51
0.0
 71
     0
 72
   100
 73
     1
 74
     1
 75
     1
 76
     0
 77
     0
 78
     0
  0
ENDTAB
  0
TABLE
  2
LTYPE
 70
     1
  0
LTYPE
  2
CONTINUOUS
 70
     0
  3
Solid line
 72
    65
 73
     0
 40
0.0
  0
ENDTAB
  0
TABLE
  2
LAYER
 70
     1
  0
LAYER
  2
0
 70
     0
 62
     7
  6
CONTINUOUS
  0
ENDTAB
  0
TABLE
  2
STYLE
 70
     2
  0
STYLE
  2
STANDARD
 70
     0
 40
0.0
 41
1.0
 50
0.0
 71
     0
 42
3.0
  3
txt
  4

  0
STYLE
  2
SST
 70
     0
 40
0.0
 41
1.0
 50
0.0
 71
     0
 42
3.5
  3
romans.shx
  4

  0
ENDTAB
  0
TABLE
  2
VIEW
 70
     0
  0
ENDTAB
  0
TABLE
  2
UCS
 70
     0
  0
ENDTAB
  0
TABLE
  2
APPID
 70
     1
  0
APPID
  2
ACAD
 70
     0
  0
ENDTAB
  0
TABLE
  2
DIMSTYLE
 70
     1
  0
DIMSTYLE
  2
STANDARD
 70
     0
  3

  4

  5

  6

  7

 40
2.0
 41
2.0
 42
1.0
 43
10.0
 44
1.0
 45
0.0
 46
0.0
 47
0.0
 48
0.0
140
3.5
141
2.5
142
0.0
143
25.399999999999999
144
1.0
145
0.0
146
1.0
147
1.0
 71
     0
 72
     0
 73
     0
 74
     0
 75
     0
 76
     0
 77
     1
 78
     8
170
     0
171
     2
172
     1
173
     0
174
     0
175
     0
176
     0
177
     0
178
     0
  0
ENDTAB
  0
ENDSEC
  0
SECTION
  2
BLOCKS
  0
BLOCK
  8
0
  2
$MODEL_SPACE
 70
     0
 10
0.0
 20
0.0
 30
0.0
  3
$MODEL_SPACE
  1

  0
ENDBLK
  5
9
  8
0
  0
BLOCK
 67
     1
  8
0
  2
$PAPER_SPACE
 70
     0
 10
0.0
 20
0.0
 30
0.0
  3
$PAPER_SPACE
  1

  0
ENDBLK
  5
E
 67
     1
  8
0
  0
ENDSEC
  0
SECTION
  2
ENTITIES
  0
LINE
  5
29
  8
0
 10
49.999999999999972
 20
121.4999999999999
 30
0.0
 11
54.999999999999972
 21
121.4999999999999
 31
0.0
  0
LINE
  5
2A
  8
0
 10
54.999999999999972
 20
121.4999999999999
 30
0.0
 11
54.999999999999972
 21
7.5
 31
0.0
  0
LINE
  5
2B
  8
0
 10
44.999999999999972
 20
-5.0
 30
0.0
 11
-44.999999999999922
 21
-5.000000000000056
 31
0.0
  0
LINE
  5
2C
  8
0
 10
-54.999999999999922
 20
7.4999999999999432
 30
0.0
 11
-55.000000000000028
 21
121.4999999999999
 31
0.0
  0
LINE
  5
2D
  8
0
 10
-55.000000000000028
 20
121.4999999999999
 30
0.0
 11
-50.000000000000028
 21
121.4999999999999
 31
0.0
  0
LINE
  5
2E
  8
0
 10
-49.999999999999922
 20
7.4999999999999432
 30
0.0
 11
-50.000000000000028
 21
121.4999999999999
 31
0.0
  0
LINE
  5
2F
  8
0
 10
44.999999999999922
 20
0.0
 30
0.0
 11
-44.999999999999922
 21
-0.0000000000000568
 31
0.0
  0
LINE
  5
30
  8
0
 10
49.999999999999972
 20
121.4999999999999
 30
0.0
 11
49.999999999999922
 21
7.5
 31
0.0
  0
ARC
  5
31
  8
0
 10
42.338885004564041
 20
7.1907433302906147
 30
0.0
 40
7.6673543456040036
 50
290.30825796284068
 51
2.311606985199306
  0
ARC
  5
32
  8
0
 10
-42.338885004564041
 20
7.1907433302905011
 30
0.0
 40
7.667354345603969
 50
177.6883930148002
 51
249.69174203715909
  0
ARC
  5
33
  8
0
 10
-42.603855265264571
 20
7.1669157877881844
 30
0.0
 40
12.400618911043569
 50
178.4608336668656
 51
258.85878284131428
  0
ARC
  5
34
  8
0
 10
42.60385526526462
 20
7.1669157877882981
 30
0.0
 40
12.40061891104359
 50
281.14121715868561
 51
1.539166333134077
  0
LINE
  5
35
  8
0
 10
-8.9999999999999716
 20
-29.018753226760509
 30
0.0
 11
-8.9999999999999716
 21
-32.015798451726369
 31
0.0
  0
LINE
  5
36
  8
0
 10
-7.9999999999999707
 20
-23.768885163179512
 30
0.0
 11
-7.9999999999999707
 21
-31.562129325254659
 31
0.0
  0
ARC
  5
37
  8
0
 10
-2.827530536155876
 20
-27.449882095449709
 30
0.0
 40
6.6079510919375126
 50
200.91720190638929
 51
277.19418518754139
  0
LINE
  5
38
  8
0
 10
-1.9999999999999709
 20
-10.00000000000005
 30
0.0
 11
-1.9999999999999709
 21
-255.0
 31
0.0
  0
LINE
  5
39
  8
0
 10
8.0000000000000284
 20
-26.768885163179501
 30
0.0
 11
8.0000000000000284
 21
-34.562129325254659
 31
0.0
  0
ARC
  5
3A
  8
0
 10
2.8275305361559329
 20
-22.656637933374562
 30
0.0
 40
6.6079510919375126
 50
262.80581481245861
 51
339.08279809361062
  0
LINE
  5
3B
  8
0
 10
2.000000000000028
 20
-10.00000000000011
 30
0.0
 11
2.000000000000028
 21
-255.0
 31
0.0
  0
LINE
  5
3C
  8
0
 10
-7.9999999999999707
 20
-163.7688851631795
 30
0.0
 11
-7.9999999999999707
 21
-171.5621293252546
 31
0.0
  0
ARC
  5
3D
  8
0
 10
-2.827530536155876
 20
-159.6566379333745
 30
0.0
 40
6.6079510919375126
 50
200.91720190638929
 51
277.19418518754139
  0
ARC
  5
3E
  8
0
 10
2.8275305361559329
 20
-162.6566379333745
 30
0.0
 40
6.6079510919375126
 50
262.80581481245861
 51
339.08279809361062
  0
ARC
  5
3F
  8
0
 10
2.8275305361559329
 20
-160.44988209544971
 30
0.0
 40
6.6079510919375126
 50
262.80581481245861
 51
339.08279809361062
  0
ARC
  5
40
  8
0
 10
2.8275305361559329
 20
-190.44988209544971
 30
0.0
 40
6.6079510919375126
 50
262.80581481245861
 51
339.08279809361062
  0
ARC
  5
41
  8
0
 10
2.8275305361559329
 20
-192.6566379333745
 30
0.0
 40
6.6079510919375126
 50
262.80581481245861
 51
339.08279809361062
  0
ARC
  5
42
  8
0
 10
2.8275305361559329
 20
-182.6566379333745
 30
0.0
 40
6.6079510919375126
 50
262.80581481245861
 51
339.08279809361062
  0
ARC
  5
43
  8
0
 10
2.8275305361559329
 20
-180.44988209544971
 30
0.0
 40
6.6079510919375126
 50
262.80581481245861
 51
339.08279809361062
  0
ARC
  5
44
  8
0
 10
2.8275305361559329
 20
-170.44988209544971
 30
0.0
 40
6.6079510919375126
 50
262.80581481245861
 51
339.08279809361062
  0
ARC
  5
45
  8
0
 10
2.8275305361559329
 20
-172.6566379333745
 30
0.0
 40
6.6079510919375126
 50
262.80581481245861
 51
339.08279809361062
  0
LINE
  5
46
  8
0
 10
-8.0000000000000284
 20
-193.76888516317939
 30
0.0
 11
-8.0000000000000284
 21
-201.5621293252546
 31
0.0
  0
ARC
  5
47
  8
0
 10
-6.6154600685083258
 20
-179.41389792028119
 30
0.0
 40
2.417058132047242
 50
124.94712799183731
 51
189.4090427875108
  0
ARC
  5
48
  8
0
 10
-6.6154600685083258
 20
-189.41389792028119
 30
0.0
 40
2.417058132047242
 50
124.94712799183731
 51
189.4090427875108
  0
ARC
  5
49
  8
0
 10
-6.6154600685083258
 20
-169.41389792028119
 30
0.0
 40
2.417058132047242
 50
124.94712799183731
 51
189.4090427875108
  0
ARC
  5
4A
  8
0
 10
-2.827530536155876
 20
-187.44988209544971
 30
0.0
 40
6.6079510919375126
 50
200.91720190638929
 51
277.19418518754139
  0
ARC
  5
4B
  8
0
 10
-2.827530536155876
 20
-189.6566379333745
 30
0.0
 40
6.6079510919375126
 50
200.91720190638929
 51
277.19418518754139
  0
ARC
  5
4C
  8
0
 10
-2.827530536155876
 20
-179.6566379333745
 30
0.0
 40
6.6079510919375126
 50
200.91720190638929
 51
277.19418518754139
  0
ARC
  5
4D
  8
0
 10
-2.827530536155876
 20
-177.44988209544971
 30
0.0
 40
6.6079510919375126
 50
200.91720190638929
 51
277.19418518754139
  0
ARC
  5
4E
  8
0
 10
-2.827530536155876
 20
-167.44988209544971
 30
0.0
 40
6.6079510919375126
 50
200.91720190638929
 51
277.19418518754139
  0
ARC
  5
4F
  8
0
 10
-2.827530536155876
 20
-169.6566379333745
 30
0.0
 40
6.6079510919375126
 50
200.91720190638929
 51
277.19418518754139
  0
LINE
  5
50
  8
0
 10
-8.9999999999999716
 20
-189.80904261380161
 30
0.0
 11
-8.9999999999999716
 21
-192.0157984517264
 31
0.0
  0
LINE
  5
51
  8
0
 10
-8.9999999999999716
 20
-179.80904261380149
 30
0.0
 11
-8.9999999999999716
 21
-182.0157984517264
 31
0.0
  0
LINE
  5
52
  8
0
 10
-8.9999999999999716
 20
-169.80904261380161
 30
0.0
 11
-8.9999999999999716
 21
-172.01579845172631
 31
0.0
  0
LINE
  5
53
  8
0
 10
-7.9999999999999707
 20
-183.7688851631795
 30
0.0
 11
-8.0000000000000284
 21
-191.5621293252546
 31
0.0
  0
LINE
  5
54
  8
0
 10
-7.9999999999999707
 20
-173.7688851631795
 30
0.0
 11
-7.9999999999999707
 21
-181.5621293252546
 31
0.0
  0
LINE
  5
55
  8
0
 10
8.0000000000000853
 20
-196.76888516317939
 30
0.0
 11
8.0000000000000853
 21
-204.5621293252546
 31
0.0
  0
LINE
  5
56
  8
0
 10
8.0000000000000284
 20
-176.7688851631795
 30
0.0
 11
8.0000000000000284
 21
-184.5621293252546
 31
0.0
  0
LINE
  5
57
  8
0
 10
8.9999999999999716
 20
-182.80904261380169
 30
0.0
 11
9.0000000000000284
 21
-185.01579845172631
 31
0.0
  0
ARC
  5
58
  8
0
 10
6.6154600685083826
 20
-182.41389792028119
 30
0.0
 40
2.417058132047242
 50
350.59095721248917
 51
55.052872008162652
  0
ARC
  5
59
  8
0
 10
6.6154600685083826
 20
-192.41389792028119
 30
0.0
 40
2.417058132047242
 50
350.59095721248917
 51
55.052872008162652
  0
LINE
  5
5A
  8
0
 10
8.0000000000000284
 20
-186.7688851631795
 30
0.0
 11
8.0000000000000853
 21
-194.5621293252546
 31
0.0
  0
LINE
  5
5B
  8
0
 10
8.9999999999999716
 20
-192.80904261380169
 30
0.0
 11
9.0000000000000284
 21
-195.01579845172631
 31
0.0
  0
ARC
  5
5C
  8
0
 10
6.6154600685083826
 20
-172.41389792028119
 30
0.0
 40
2.417058132047242
 50
350.59095721248917
 51
55.052872008162652
  0
LINE
  5
5D
  8
0
 10
8.0000000000000284
 20
-166.7688851631795
 30
0.0
 11
8.0000000000000284
 21
-174.5621293252546
 31
0.0
  0
LINE
  5
5E
  8
0
 10
8.9999999999999716
 20
-172.80904261380169
 30
0.0
 11
9.0000000000000284
 21
-175.01579845172631
 31
0.0
  0
ARC
  5
5F
  8
0
 10
-6.6154600685083258
 20
-99.413897920281215
 30
0.0
 40
2.417058132047242
 50
124.94712799183731
 51
189.4090427875108
  0
LINE
  5
60
  8
0
 10
-8.0000000000000284
 20
-93.768885163179448
 30
0.0
 11
-8.0000000000000284
 21
-101.5621293252546
 31
0.0
  0
LINE
  5
61
  8
0
 10
8.0000000000000853
 20
-96.768885163179434
 30
0.0
 11
8.0000000000000853
 21
-104.5621293252546
 31
0.0
  0
ARC
  5
62
  8
0
 10
2.8275305361559329
 20
-92.656637933374554
 30
0.0
 40
6.6079510919375126
 50
262.80581481245861
 51
339.08279809361062
  0
ARC
  5
63
  8
0
 10
2.8275305361559329
 20
-90.449882095449709
 30
0.0
 40
6.6079510919375126
 50
262.80581481245861
 51
339.08279809361062
  0
ARC
  5
64
  8
0
 10
2.8275305361559329
 20
-150.44988209544971
 30
0.0
 40
6.6079510919375126
 50
262.80581481245861
 51
339.08279809361062
  0
ARC
  5
65
  8
0
 10
2.8275305361559329
 20
-152.6566379333745
 30
0.0
 40
6.6079510919375126
 50
262.80581481245861
 51
339.08279809361062
  0
ARC
  5
66
  8
0
 10
2.8275305361559329
 20
-142.6566379333745
 30
0.0
 40
6.6079510919375126
 50
262.80581481245861
 51
339.08279809361062
  0
ARC
  5
67
  8
0
 10
2.8275305361559329
 20
-140.44988209544971
 30
0.0
 40
6.6079510919375126
 50
262.80581481245861
 51
339.08279809361062
  0
ARC
  5
68
  8
0
 10
2.8275305361559329
 20
-132.6566379333745
 30
0.0
 40
6.6079510919375126
 50
262.80581481245861
 51
339.08279809361062
  0
ARC
  5
69
  8
0
 10
2.8275305361559329
 20
-130.44988209544971
 30
0.0
 40
6.6079510919375126
 50
262.80581481245861
 51
339.08279809361062
  0
ARC
  5
6A
  8
0
 10
2.8275305361559329
 20
-120.44988209544969
 30
0.0
 40
6.6079510919375126
 50
262.80581481245861
 51
339.08279809361062
  0
ARC
  5
6B
  8
0
 10
2.8275305361559329
 20
-122.6566379333745
 30
0.0
 40
6.6079510919375126
 50
262.80581481245861
 51
339.08279809361062
  0
ARC
  5
6C
  8
0
 10
2.8275305361559329
 20
-112.6566379333745
 30
0.0
 40
6.6079510919375126
 50
262.80581481245861
 51
339.08279809361062
  0
ARC
  5
6D
  8
0
 10
2.8275305361559329
 20
-110.44988209544969
 30
0.0
 40
6.6079510919375126
 50
262.80581481245861
 51
339.08279809361062
  0
ARC
  5
6E
  8
0
 10
2.8275305361559329
 20
-100.44988209544969
 30
0.0
 40
6.6079510919375126
 50
262.80581481245861
 51
339.08279809361062
  0
ARC
  5
6F
  8
0
 10
2.8275305361559329
 20
-102.6566379333745
 30
0.0
 40
6.6079510919375126
 50
262.80581481245861
 51
339.08279809361062
  0
LINE
  5
70
  8
0
 10
-8.9999999999999716
 20
-129.01875322676051
 30
0.0
 11
-8.9999999999999716
 21
-132.01579845172631
 31
0.0
  0
LINE
  5
71
  8
0
 10
-8.0000000000000284
 20
-123.76888516317941
 30
0.0
 11
-8.0000000000000284
 21
-131.5621293252546
 31
0.0
  0
ARC
  5
72
  8
0
 10
-2.827530536155876
 20
-127.44988209544969
 30
0.0
 40
6.6079510919375126
 50
200.91720190638929
 51
277.19418518754139
  0
ARC
  5
73
  8
0
 10
-6.6154600685083258
 20
-149.41389792028119
 30
0.0
 40
2.417058132047242
 50
124.94712799183731
 51
189.4090427875108
  0
ARC
  5
74
  8
0
 10
-6.6154600685083258
 20
-139.41389792028119
 30
0.0
 40
2.417058132047242
 50
124.94712799183731
 51
189.4090427875108
  0
ARC
  5
75
  8
0
 10
-6.6154600685083258
 20
-159.41389792028119
 30
0.0
 40
2.417058132047242
 50
124.94712799183731
 51
189.4090427875108
  0
ARC
  5
76
  8
0
 10
-2.827530536155876
 20
-157.44988209544971
 30
0.0
 40
6.6079510919375126
 50
200.91720190638929
 51
277.19418518754139
  0
ARC
  5
77
  8
0
 10
-2.827530536155876
 20
-147.44988209544971
 30
0.0
 40
6.6079510919375126
 50
200.91720190638929
 51
277.19418518754139
  0
ARC
  5
78
  8
0
 10
-2.827530536155876
 20
-149.6566379333745
 30
0.0
 40
6.6079510919375126
 50
200.91720190638929
 51
277.19418518754139
  0
ARC
  5
79
  8
0
 10
-2.827530536155876
 20
-139.6566379333745
 30
0.0
 40
6.6079510919375126
 50
200.91720190638929
 51
277.19418518754139
  0
ARC
  5
7A
  8
0
 10
-2.827530536155876
 20
-137.44988209544971
 30
0.0
 40
6.6079510919375126
 50
200.91720190638929
 51
277.19418518754139
  0
ARC
  5
7B
  8
0
 10
-2.827530536155876
 20
-129.6566379333745
 30
0.0
 40
6.6079510919375126
 50
200.91720190638929
 51
277.19418518754139
  0
LINE
  5
7C
  8
0
 10
-8.9999999999999716
 20
-159.80904261380149
 30
0.0
 11
-8.9999999999999716
 21
-162.0157984517264
 31
0.0
  0
LINE
  5
7D
  8
0
 10
-8.9999999999999716
 20
-149.01875322676051
 30
0.0
 11
-8.9999999999999716
 21
-152.01579845172631
 31
0.0
  0
LINE
  5
7E
  8
0
 10
-8.9999999999999716
 20
-139.01875322676051
 30
0.0
 11
-8.9999999999999716
 21
-142.01579845172631
 31
0.0
  0
LINE
  5
7F
  8
0
 10
-7.9999999999999707
 20
-143.7688851631795
 30
0.0
 11
-7.9999999999999707
 21
-151.5621293252546
 31
0.0
  0
LINE
  5
80
  8
0
 10
-7.9999999999999707
 20
-153.7688851631795
 30
0.0
 11
-7.9999999999999707
 21
-161.5621293252546
 31
0.0
  0
LINE
  5
81
  8
0
 10
-8.0000000000000284
 20
-133.76888516317939
 30
0.0
 11
-8.0000000000000284
 21
-141.5621293252546
 31
0.0
  0
ARC
  5
82
  8
0
 10
-6.6154600685083258
 20
-109.4138979202812
 30
0.0
 40
2.417058132047242
 50
124.94712799183731
 51
189.4090427875108
  0
ARC
  5
83
  8
0
 10
-6.6154600685083258
 20
-129.41389792028119
 30
0.0
 40
2.417058132047242
 50
124.94712799183731
 51
189.4090427875108
  0
ARC
  5
84
  8
0
 10
-6.6154600685083258
 20
-119.4138979202812
 30
0.0
 40
2.417058132047242
 50
124.94712799183731
 51
189.4090427875108
  0
ARC
  5
85
  8
0
 10
-2.827530536155876
 20
-117.44988209544969
 30
0.0
 40
6.6079510919375126
 50
200.91720190638929
 51
277.19418518754139
  0
ARC
  5
86
  8
0
 10
-2.827530536155876
 20
-119.6566379333745
 30
0.0
 40
6.6079510919375126
 50
200.91720190638929
 51
277.19418518754139
  0
ARC
  5
87
  8
0
 10
-2.827530536155876
 20
-109.6566379333745
 30
0.0
 40
6.6079510919375126
 50
200.91720190638929
 51
277.19418518754139
  0
ARC
  5
88
  8
0
 10
-2.827530536155876
 20
-107.44988209544969
 30
0.0
 40
6.6079510919375126
 50
200.91720190638929
 51
277.19418518754139
  0
ARC
  5
89
  8
0
 10
-2.827530536155876
 20
-97.449882095449695
 30
0.0
 40
6.6079510919375126
 50
200.91720190638929
 51
277.19418518754139
  0
ARC
  5
8A
  8
0
 10
-2.827530536155876
 20
-99.656637933374554
 30
0.0
 40
6.6079510919375126
 50
200.91720190638929
 51
277.19418518754139
  0
LINE
  5
8B
  8
0
 10
-8.9999999999999716
 20
-119.0187532267605
 30
0.0
 11
-8.9999999999999716
 21
-122.0157984517263
 31
0.0
  0
LINE
  5
8C
  8
0
 10
-8.9999999999999716
 20
-109.0187532267605
 30
0.0
 11
-8.9999999999999716
 21
-112.0157984517264
 31
0.0
  0
LINE
  5
8D
  8
0
 10
-8.9999999999999716
 20
-99.018753226760509
 30
0.0
 11
-8.9999999999999716
 21
-102.0157984517263
 31
0.0
  0
LINE
  5
8E
  8
0
 10
-8.0000000000000284
 20
-113.76888516317941
 30
0.0
 11
-8.0000000000000284
 21
-121.5621293252546
 31
0.0
  0
LINE
  5
8F
  8
0
 10
-8.0000000000000284
 20
-103.76888516317941
 30
0.0
 11
-8.0000000000000284
 21
-111.5621293252546
 31
0.0
  0
LINE
  5
90
  8
0
 10
8.0000000000000853
 20
-126.76888516317941
 30
0.0
 11
8.0000000000000853
 21
-134.5621293252546
 31
0.0
  0
ARC
  5
91
  8
0
 10
6.6154600685083826
 20
-132.41389792028119
 30
0.0
 40
2.417058132047242
 50
350.59095721248917
 51
55.052872008162652
  0
LINE
  5
92
  8
0
 10
8.0000000000000284
 20
-146.7688851631795
 30
0.0
 11
8.0000000000000284
 21
-154.5621293252546
 31
0.0
  0
ARC
  5
93
  8
0
 10
6.6154600685083826
 20
-162.41389792028119
 30
0.0
 40
2.417058132047242
 50
350.59095721248917
 51
55.052872008162652
  0
ARC
  5
94
  8
0
 10
6.6154600685083826
 20
-152.41389792028119
 30
0.0
 40
2.417058132047242
 50
350.59095721248917
 51
55.052872008162652
  0
LINE
  5
95
  8
0
 10
8.0000000000000284
 20
-156.7688851631795
 30
0.0
 11
8.0000000000000284
 21
-164.5621293252546
 31
0.0
  0
LINE
  5
96
  8
0
 10
8.9999999999999716
 20
-162.80904261380169
 30
0.0
 11
9.0000000000000284
 21
-165.0157984517264
 31
0.0
  0
LINE
  5
97
  8
0
 10
8.9999999999999716
 20
-152.80904261380169
 30
0.0
 11
9.0000000000000284
 21
-155.01579845172631
 31
0.0
  0
ARC
  5
98
  8
0
 10
6.6154600685083826
 20
-142.41389792028119
 30
0.0
 40
2.417058132047242
 50
350.59095721248917
 51
55.052872008162652
  0
LINE
  5
99
  8
0
 10
8.0000000000000853
 20
-136.76888516317939
 30
0.0
 11
8.0000000000000853
 21
-144.5621293252546
 31
0.0
  0
LINE
  5
9A
  8
0
 10
8.9999999999999716
 20
-142.80904261380169
 30
0.0
 11
9.0000000000000284
 21
-145.01579845172631
 31
0.0
  0
LINE
  5
9B
  8
0
 10
8.9999999999999716
 20
-132.80904261380169
 30
0.0
 11
9.0000000000000284
 21
-135.01579845172631
 31
0.0
  0
LINE
  5
9C
  8
0
 10
8.0000000000000853
 20
-106.76888516317941
 30
0.0
 11
8.0000000000000853
 21
-114.5621293252546
 31
0.0
  0
LINE
  5
9D
  8
0
 10
8.9999999999999716
 20
-112.80904261380169
 30
0.0
 11
9.0000000000000284
 21
-115.0157984517264
 31
0.0
  0
ARC
  5
9E
  8
0
 10
6.6154600685083826
 20
-122.4138979202812
 30
0.0
 40
2.417058132047242
 50
350.59095721248917
 51
55.052872008162652
  0
LINE
  5
9F
  8
0
 10
8.0000000000000853
 20
-116.76888516317941
 30
0.0
 11
8.0000000000000853
 21
-124.5621293252546
 31
0.0
  0
LINE
  5
A0
  8
0
 10
8.9999999999999716
 20
-122.80904261380169
 30
0.0
 11
9.0000000000000284
 21
-125.0157984517263
 31
0.0
  0
ARC
  5
A1
  8
0
 10
6.6154600685083826
 20
-112.4138979202812
 30
0.0
 40
2.417058132047242
 50
350.59095721248917
 51
55.052872008162652
  0
ARC
  5
A2
  8
0
 10
6.6154600685083826
 20
-102.4138979202812
 30
0.0
 40
2.417058132047242
 50
350.59095721248917
 51
55.052872008162652
  0
LINE
  5
A3
  8
0
 10
8.9999999999999716
 20
-102.80904261380169
 30
0.0
 11
9.0000000000000284
 21
-105.0157984517263
 31
0.0
  0
ARC
  5
A4
  8
0
 10
2.8275305361559329
 20
-80.449882095449709
 30
0.0
 40
6.6079510919375126
 50
262.80581481245861
 51
339.08279809361062
  0
ARC
  5
A5
  8
0
 10
2.8275305361559329
 20
-82.656637933374554
 30
0.0
 40
6.6079510919375126
 50
262.80581481245861
 51
339.08279809361062
  0
ARC
  5
A6
  8
0
 10
2.8275305361559329
 20
-72.656637933374554
 30
0.0
 40
6.6079510919375126
 50
262.80581481245861
 51
339.08279809361062
  0
ARC
  5
A7
  8
0
 10
2.8275305361559329
 20
-70.449882095449709
 30
0.0
 40
6.6079510919375126
 50
262.80581481245861
 51
339.08279809361062
  0
ARC
  5
A8
  8
0
 10
2.8275305361559329
 20
-60.449882095449709
 30
0.0
 40
6.6079510919375126
 50
262.80581481245861
 51
339.08279809361062
  0
ARC
  5
A9
  8
0
 10
2.8275305361559329
 20
-62.656637933374562
 30
0.0
 40
6.6079510919375126
 50
262.80581481245861
 51
339.08279809361062
  0
ARC
  5
AA
  8
0
 10
2.8275305361559329
 20
-52.656637933374562
 30
0.0
 40
6.6079510919375126
 50
262.80581481245861
 51
339.08279809361062
  0
ARC
  5
AB
  8
0
 10
2.8275305361559329
 20
-50.449882095449709
 30
0.0
 40
6.6079510919375126
 50
262.80581481245861
 51
339.08279809361062
  0
ARC
  5
AC
  8
0
 10
2.8275305361559329
 20
-40.449882095449702
 30
0.0
 40
6.6079510919375126
 50
262.80581481245861
 51
339.08279809361062
  0
ARC
  5
AD
  8
0
 10
2.8275305361559329
 20
-42.656637933374547
 30
0.0
 40
6.6079510919375126
 50
262.80581481245861
 51
339.08279809361062
  0
ARC
  5
AE
  8
0
 10
2.8275305361559329
 20
-32.656637933374562
 30
0.0
 40
6.6079510919375126
 50
262.80581481245861
 51
339.08279809361062
  0
ARC
  5
AF
  8
0
 10
2.8275305361559329
 20
-30.449882095449709
 30
0.0
 40
6.6079510919375126
 50
262.80581481245861
 51
339.08279809361062
  0
ARC
  5
B0
  8
0
 10
-2.827530536155876
 20
-57.449882095449702
 30
0.0
 40
6.6079510919375126
 50
200.91720190638929
 51
277.19418518754139
  0
ARC
  5
B1
  8
0
 10
-2.827530536155876
 20
-59.656637933374547
 30
0.0
 40
6.6079510919375126
 50
200.91720190638929
 51
277.19418518754139
  0
LINE
  5
B2
  8
0
 10
-8.0000000000000284
 20
-63.768885163179441
 30
0.0
 11
-8.0000000000000284
 21
-71.562129325254602
 31
0.0
  0
ARC
  5
B3
  8
0
 10
-6.6154600685083258
 20
-79.413897920281215
 30
0.0
 40
2.417058132047242
 50
124.94712799183731
 51
189.4090427875108
  0
ARC
  5
B4
  8
0
 10
-6.6154600685083258
 20
-69.413897920281215
 30
0.0
 40
2.417058132047242
 50
124.94712799183731
 51
189.4090427875108
  0
ARC
  5
B5
  8
0
 10
-6.6154600685083258
 20
-89.413897920281215
 30
0.0
 40
2.417058132047242
 50
124.94712799183731
 51
189.4090427875108
  0
ARC
  5
B6
  8
0
 10
-2.827530536155876
 20
-89.656637933374554
 30
0.0
 40
6.6079510919375126
 50
200.91720190638929
 51
277.19418518754139
  0
ARC
  5
B7
  8
0
 10
-2.827530536155876
 20
-87.449882095449695
 30
0.0
 40
6.6079510919375126
 50
200.91720190638929
 51
277.19418518754139
  0
ARC
  5
B8
  8
0
 10
-2.827530536155876
 20
-77.449882095449695
 30
0.0
 40
6.6079510919375126
 50
200.91720190638929
 51
277.19418518754139
  0
ARC
  5
B9
  8
0
 10
-2.827530536155876
 20
-79.656637933374554
 30
0.0
 40
6.6079510919375126
 50
200.91720190638929
 51
277.19418518754139
  0
ARC
  5
BA
  8
0
 10
-2.827530536155876
 20
-69.656637933374554
 30
0.0
 40
6.6079510919375126
 50
200.91720190638929
 51
277.19418518754139
  0
ARC
  5
BB
  8
0
 10
-2.827530536155876
 20
-67.449882095449695
 30
0.0
 40
6.6079510919375126
 50
200.91720190638929
 51
277.19418518754139
  0
LINE
  5
BC
  8
0
 10
-8.9999999999999716
 20
-79.018753226760509
 30
0.0
 11
-8.9999999999999716
 21
-82.015798451726354
 31
0.0
  0
LINE
  5
BD
  8
0
 10
-8.9999999999999716
 20
-89.018753226760509
 30
0.0
 11
-8.9999999999999716
 21
-92.015798451726354
 31
0.0
  0
LINE
  5
BE
  8
0
 10
-8.9999999999999716
 20
-69.018753226760509
 30
0.0
 11
-8.9999999999999716
 21
-72.015798451726369
 31
0.0
  0
LINE
  5
BF
  8
0
 10
-8.0000000000000284
 20
-73.768885163179434
 30
0.0
 11
-8.0000000000000284
 21
-81.562129325254617
 31
0.0
  0
LINE
  5
C0
  8
0
 10
-8.0000000000000284
 20
-83.768885163179448
 30
0.0
 11
-8.0000000000000284
 21
-91.562129325254617
 31
0.0
  0
ARC
  5
C1
  8
0
 10
-6.6154600685083258
 20
-49.413897920281222
 30
0.0
 40
2.417058132047242
 50
124.94712799183731
 51
189.4090427875108
  0
ARC
  5
C2
  8
0
 10
-6.6154600685083258
 20
-39.413897920281222
 30
0.0
 40
2.417058132047242
 50
124.94712799183731
 51
189.4090427875108
  0
ARC
  5
C3
  8
0
 10
-6.6154600685083258
 20
-59.413897920281222
 30
0.0
 40
2.417058132047242
 50
124.94712799183731
 51
189.4090427875108
  0
ARC
  5
C4
  8
0
 10
-2.827530536155876
 20
-49.656637933374547
 30
0.0
 40
6.6079510919375126
 50
200.91720190638929
 51
277.19418518754139
  0
ARC
  5
C5
  8
0
 10
-2.827530536155876
 20
-47.449882095449702
 30
0.0
 40
6.6079510919375126
 50
200.91720190638929
 51
277.19418518754139
  0
ARC
  5
C6
  8
0
 10
-2.827530536155876
 20
-39.656637933374547
 30
0.0
 40
6.6079510919375126
 50
200.91720190638929
 51
277.19418518754139
  0
ARC
  5
C7
  8
0
 10
-2.827530536155876
 20
-29.656637933374551
 30
0.0
 40
6.6079510919375126
 50
200.91720190638929
 51
277.19418518754139
  0
ARC
  5
C8
  8
0
 10
-2.827530536155876
 20
-37.449882095449709
 30
0.0
 40
6.6079510919375126
 50
200.91720190638929
 51
277.19418518754139
  0
LINE
  5
C9
  8
0
 10
-8.9999999999999716
 20
-59.018753226760509
 30
0.0
 11
-8.9999999999999716
 21
-62.015798451726369
 31
0.0
  0
LINE
  5
CA
  8
0
 10
-8.9999999999999716
 20
-49.018753226760509
 30
0.0
 11
-8.9999999999999716
 21
-52.015798451726369
 31
0.0
  0
LINE
  5
CB
  8
0
 10
-8.9999999999999716
 20
-39.018753226760509
 30
0.0
 11
-8.9999999999999716
 21
-42.015798451726369
 31
0.0
  0
LINE
  5
CC
  8
0
 10
-7.9999999999999707
 20
-43.768885163179498
 30
0.0
 11
-7.9999999999999707
 21
-51.562129325254659
 31
0.0
  0
LINE
  5
CD
  8
0
 10
-7.9999999999999707
 20
-53.768885163179512
 30
0.0
 11
-8.0000000000000284
 21
-61.562129325254602
 31
0.0
  0
LINE
  5
CE
  8
0
 10
-7.9999999999999707
 20
-33.768885163179512
 30
0.0
 11
-7.9999999999999707
 21
-41.562129325254652
 31
0.0
  0
LINE
  5
CF
  8
0
 10
8.0000000000000284
 20
-56.768885163179498
 30
0.0
 11
8.0000000000000853
 21
-64.562129325254602
 31
0.0
  0
LINE
  5
D0
  8
0
 10
8.9999999999999716
 20
-62.809042613801687
 30
0.0
 11
9.0000000000000284
 21
-65.015798451726369
 31
0.0
  0
LINE
  5
D1
  8
0
 10
8.0000000000000853
 20
-76.768885163179434
 30
0.0
 11
8.0000000000000853
 21
-84.562129325254602
 31
0.0
  0
ARC
  5
D2
  8
0
 10
6.6154600685083826
 20
-82.413897920281215
 30
0.0
 40
2.417058132047242
 50
350.59095721248917
 51
55.052872008162652
  0
ARC
  5
D3
  8
0
 10
6.6154600685083826
 20
-92.413897920281215
 30
0.0
 40
2.417058132047242
 50
350.59095721248917
 51
55.052872008162652
  0
LINE
  5
D4
  8
0
 10
8.0000000000000853
 20
-86.768885163179434
 30
0.0
 11
8.0000000000000853
 21
-94.562129325254602
 31
0.0
  0
LINE
  5
D5
  8
0
 10
8.9999999999999716
 20
-92.809042613801694
 30
0.0
 11
9.0000000000000284
 21
-95.015798451726369
 31
0.0
  0
LINE
  5
D6
  8
0
 10
8.9999999999999716
 20
-82.809042613801694
 30
0.0
 11
9.0000000000000284
 21
-85.015798451726369
 31
0.0
  0
ARC
  5
D7
  8
0
 10
6.6154600685083826
 20
-72.413897920281215
 30
0.0
 40
2.417058132047242
 50
350.59095721248917
 51
55.052872008162652
  0
LINE
  5
D8
  8
0
 10
8.0000000000000853
 20
-66.768885163179434
 30
0.0
 11
8.0000000000000853
 21
-74.562129325254602
 31
0.0
  0
LINE
  5
D9
  8
0
 10
8.9999999999999716
 20
-72.809042613801694
 30
0.0
 11
9.0000000000000284
 21
-75.015798451726369
 31
0.0
  0
LINE
  5
DA
  8
0
 10
8.0000000000000284
 20
-46.768885163179498
 30
0.0
 11
8.0000000000000284
 21
-54.562129325254659
 31
0.0
  0
ARC
  5
DB
  8
0
 10
6.6154600685083826
 20
-62.413897920281222
 30
0.0
 40
2.417058132047242
 50
350.59095721248917
 51
55.052872008162652
  0
ARC
  5
DC
  8
0
 10
6.6154600685083826
 20
-52.413897920281222
 30
0.0
 40
2.417058132047242
 50
350.59095721248917
 51
55.052872008162652
  0
LINE
  5
DD
  8
0
 10
8.9999999999999716
 20
-52.809042613801687
 30
0.0
 11
9.0000000000000284
 21
-55.015798451726369
 31
0.0
  0
ARC
  5
DE
  8
0
 10
6.6154600685083826
 20
-42.413897920281222
 30
0.0
 40
2.417058132047242
 50
350.59095721248917
 51
55.052872008162652
  0
ARC
  5
DF
  8
0
 10
6.6154600685083826
 20
-32.413897920281222
 30
0.0
 40
2.417058132047242
 50
350.59095721248917
 51
55.052872008162652
  0
LINE
  5
E0
  8
0
 10
8.0000000000000284
 20
-36.768885163179498
 30
0.0
 11
8.0000000000000284
 21
-44.562129325254659
 31
0.0
  0
LINE
  5
E1
  8
0
 10
8.9999999999999716
 20
-42.809042613801687
 30
0.0
 11
9.0000000000000284
 21
-45.015798451726369
 31
0.0
  0
LINE
  5
E2
  8
0
 10
8.9999999999999716
 20
-32.809042613801687
 30
0.0
 11
9.0000000000000284
 21
-35.015798451726369
 31
0.0
  0
ARC
  5
E3
  8
0
 10
2.8275305361559329
 20
-20.449882095449709
 30
0.0
 40
6.6079510919375126
 50
262.80581481245861
 51
339.08279809361062
  0
ARC
  5
E4
  8
0
 10
2.8275305361559329
 20
-12.656637933374549
 30
0.0
 40
6.6079510919375126
 50
262.80581481245861
 51
339.08279809361062
  0
ARC
  5
E5
  8
0
 10
2.8275305361559329
 20
-10.449882095449709
 30
0.0
 40
6.6079510919375126
 50
262.80581481245861
 51
339.08279809361062
  0
LINE
  5
E6
  8
0
 10
7.9999999999999707
 20
-10.0
 30
0.0
 11
-8.0000000000000284
 21
-10.00000000000005
 31
0.0
  0
ARC
  5
E7
  8
0
 10
-6.6154600685083258
 20
-29.413897920281219
 30
0.0
 40
2.417058132047242
 50
124.94712799183731
 51
189.4090427875108
  0
ARC
  5
E8
  8
0
 10
-6.6154600685083258
 20
-19.413897920281212
 30
0.0
 40
2.417058132047242
 50
124.94712799183731
 51
189.4090427875108
  0
ARC
  5
E9
  8
0
 10
-2.827530536155876
 20
-17.449882095449709
 30
0.0
 40
6.6079510919375126
 50
200.91720190638929
 51
277.19418518754139
  0
ARC
  5
EA
  8
0
 10
-2.827530536155876
 20
-19.656637933374551
 30
0.0
 40
6.6079510919375126
 50
200.91720190638929
 51
277.19418518754139
  0
ARC
  5
EB
  8
0
 10
-2.827530536155876
 20
-9.6566379333745544
 30
0.0
 40
6.6079510919375126
 50
200.91720190638929
 51
277.19418518754139
  0
ARC
  5
EC
  8
0
 10
-2.827530536155876
 20
-7.4498820954497091
 30
0.0
 40
6.6079510919375126
 50
200.91720190638929
 51
277.19418518754139
  0
LINE
  5
ED
  8
0
 10
-7.9999999999999707
 20
-10.0
 30
0.0
 11
-12.999999999999909
 21
-5.0
 31
0.0
  0
LINE
  5
EE
  8
0
 10
-8.9999999999999716
 20
-19.018753226760509
 30
0.0
 11
-8.9999999999999716
 21
-22.015798451726369
 31
0.0
  0
LINE
  5
EF
  8
0
 10
-8.9999999999999716
 20
-9.0187532267605093
 30
0.0
 11
-8.9999999999999716
 21
-12.01579845172637
 31
0.0
  0
ARC
  5
F0
  8
0
 10
-6.6154600685083258
 20
-9.4138979202812152
 30
0.0
 40
2.417058132047242
 50
170.20533532527119
 51
189.4090427875108
  0
LINE
  5
F1
  8
0
 10
-7.9999999999999707
 20
-13.768885163179499
 30
0.0
 11
-7.9999999999999707
 21
-13.955667172044739
 31
0.0
  0
LINE
  5
F2
  8
0
 10
-7.9999999999999707
 20
-13.768885163179499
 30
0.0
 11
-7.9999999999999707
 21
-21.562129325254659
 31
0.0
  0
LINE
  5
F3
  8
0
 10
-7.9999999999999707
 20
-10.00000000000011
 30
0.0
 11
-7.9999999999999707
 21
-11.562129325254659
 31
0.0
  0
LINE
  5
F4
  8
0
 10
8.9999999999999716
 20
-12.80904261380169
 30
0.0
 11
9.0000000000000284
 21
-15.01579845172637
 31
0.0
  0
LINE
  5
F5
  8
0
 10
8.0000000000000284
 20
-10.00000000000005
 30
0.0
 11
8.0000000000000284
 21
-14.562129325254659
 31
0.0
  0
ARC
  5
F6
  8
0
 10
6.6154600685083826
 20
-22.413897920281219
 30
0.0
 40
2.417058132047242
 50
350.59095721248917
 51
55.052872008162652
  0
LINE
  5
F7
  8
0
 10
8.0000000000000284
 20
-16.768885163179501
 30
0.0
 11
8.0000000000000284
 21
-16.955667172044741
 31
0.0
  0
LINE
  5
F8
  8
0
 10
8.0000000000000284
 20
-16.768885163179501
 30
0.0
 11
8.0000000000000284
 21
-24.562129325254659
 31
0.0
  0
LINE
  5
F9
  8
0
 10
8.9999999999999716
 20
-22.80904261380169
 30
0.0
 11
9.0000000000000284
 21
-25.015798451726369
 31
0.0
  0
ARC
  5
FA
  8
0
 10
6.6154600685083826
 20
-12.41389792028121
 30
0.0
 40
2.417058132047242
 50
350.59095721248917
 51
55.052872008162652
  0
LINE
  5
FB
  8
0
 10
12.99999999999997
 20
-5.0
 30
0.0
 11
8.0000000000000284
 21
-9.9999999999999432
 31
0.0
  0
LINE
  5
FC
  8
0
 10
-7.9999999999999707
 20
-255.0
 30
0.0
 11
9.0000000000000284
 21
-255.0
 31
0.0
  0
ARC
  5
FD
  8
0
 10
2.8275305361559329
 20
-200.44988209544971
 30
0.0
 40
6.6079510919375126
 50
262.80581481245861
 51
339.08279809361062
  0
ARC
  5
FE
  8
0
 10
2.8275305361559329
 20
-202.65663793337461
 30
0.0
 40
6.6079510919375126
 50
262.80581481245861
 51
339.08279809361062
  0
ARC
  5
FF
  8
0
 10
-2.827530536155876
 20
-199.6566379333745
 30
0.0
 40
6.6079510919375126
 50
200.91720190638929
 51
277.19418518754139
  0
LINE
  5
100
  8
0
 10
-7.9999999999999707
 20
-203.7688851631795
 30
0.0
 11
-7.9999999999999707
 21
-211.56212932525469
 31
0.0
  0
LINE
  5
101
  8
0
 10
8.0000000000000853
 20
-236.7688851631795
 30
0.0
 11
8.0000000000000853
 21
-244.5621293252546
 31
0.0
  0
LINE
  5
102
  8
0
 10
-8.0000000000000284
 20
-233.76888516317939
 30
0.0
 11
-8.0000000000000284
 21
-241.5621293252546
 31
0.0
  0
ARC
  5
103
  8
0
 10
2.8275305361559329
 20
-232.6566379333745
 30
0.0
 40
6.6079510919375126
 50
262.80581481245861
 51
339.08279809361062
  0
ARC
  5
104
  8
0
 10
-2.827530536155876
 20
-217.44988209544971
 30
0.0
 40
6.6079510919375126
 50
200.91720190638929
 51
277.19418518754139
  0
ARC
  5
105
  8
0
 10
-2.827530536155876
 20
-219.6566379333745
 30
0.0
 40
6.6079510919375126
 50
200.91720190638929
 51
277.19418518754139
  0
ARC
  5
106
  8
0
 10
-2.827530536155876
 20
-229.65663793337461
 30
0.0
 40
6.6079510919375126
 50
200.91720190638929
 51
277.19418518754139
  0
ARC
  5
107
  8
0
 10
-2.827530536155876
 20
-227.44988209544971
 30
0.0
 40
6.6079510919375126
 50
200.91720190638929
 51
277.19418518754139
  0
LINE
  5
108
  8
0
 10
-7.9999999999999707
 20
-223.7688851631795
 30
0.0
 11
-8.0000000000000284
 21
-231.5621293252546
 31
0.0
  0
LINE
  5
109
  8
0
 10
-8.9999999999999716
 20
-229.80904261380161
 30
0.0
 11
-8.9999999999999716
 21
-232.0157984517264
 31
0.0
  0
ARC
  5
10A
  8
0
 10
-6.6154600685083258
 20
-229.41389792028119
 30
0.0
 40
2.417058132047242
 50
124.94712799183731
 51
189.4090427875108
  0
ARC
  5
10B
  8
0
 10
-2.827530536155876
 20
-209.6566379333745
 30
0.0
 40
6.6079510919375126
 50
200.91720190638929
 51
277.19418518754139
  0
ARC
  5
10C
  8
0
 10
-2.827530536155876
 20
-207.44988209544971
 30
0.0
 40
6.6079510919375126
 50
200.91720190638929
 51
277.19418518754139
  0
LINE
  5
10D
  8
0
 10
-7.9999999999999707
 20
-213.7688851631795
 30
0.0
 11
-7.9999999999999707
 21
-221.56212932525469
 31
0.0
  0
LINE
  5
10E
  8
0
 10
-8.9999999999999716
 20
-209.80904261380161
 30
0.0
 11
-8.9999999999999716
 21
-212.0157984517264
 31
0.0
  0
LINE
  5
10F
  8
0
 10
-8.9999999999999716
 20
-219.80904261380161
 30
0.0
 11
-8.9999999999999716
 21
-222.0157984517264
 31
0.0
  0
ARC
  5
110
  8
0
 10
-6.6154600685083258
 20
-209.41389792028119
 30
0.0
 40
2.417058132047242
 50
124.94712799183731
 51
189.4090427875108
  0
ARC
  5
111
  8
0
 10
-6.6154600685083258
 20
-219.41389792028119
 30
0.0
 40
2.417058132047242
 50
124.94712799183731
 51
189.4090427875108
  0
ARC
  5
112
  8
0
 10
6.6154600685083826
 20
-222.41389792028119
 30
0.0
 40
2.417058132047242
 50
350.59095721248917
 51
55.052872008162652
  0
LINE
  5
113
  8
0
 10
8.9999999999999716
 20
-222.80904261380169
 30
0.0
 11
9.0000000000000284
 21
-225.0157984517264
 31
0.0
  0
LINE
  5
114
  8
0
 10
8.0000000000000284
 20
-216.7688851631795
 30
0.0
 11
8.0000000000000284
 21
-224.56212932525469
 31
0.0
  0
ARC
  5
115
  8
0
 10
2.8275305361559329
 20
-220.44988209544971
 30
0.0
 40
6.6079510919375126
 50
262.80581481245861
 51
339.08279809361062
  0
ARC
  5
116
  8
0
 10
2.8275305361559329
 20
-222.65663793337461
 30
0.0
 40
6.6079510919375126
 50
262.80581481245861
 51
339.08279809361062
  0
ARC
  5
117
  8
0
 10
2.8275305361559329
 20
-230.44988209544971
 30
0.0
 40
6.6079510919375126
 50
262.80581481245861
 51
339.08279809361062
  0
LINE
  5
118
  8
0
 10
8.9999999999999716
 20
-232.80904261380169
 30
0.0
 11
9.0000000000000284
 21
-235.01579845172631
 31
0.0
  0
LINE
  5
119
  8
0
 10
8.0000000000000284
 20
-226.7688851631795
 30
0.0
 11
8.0000000000000853
 21
-234.5621293252546
 31
0.0
  0
ARC
  5
11A
  8
0
 10
6.6154600685083826
 20
-232.41389792028119
 30
0.0
 40
2.417058132047242
 50
350.59095721248917
 51
55.052872008162652
  0
ARC
  5
11B
  8
0
 10
2.8275305361559329
 20
-212.65663793337461
 30
0.0
 40
6.6079510919375126
 50
262.80581481245861
 51
339.08279809361062
  0
ARC
  5
11C
  8
0
 10
2.8275305361559329
 20
-210.44988209544971
 30
0.0
 40
6.6079510919375126
 50
262.80581481245861
 51
339.08279809361062
  0
LINE
  5
11D
  8
0
 10
8.9999999999999716
 20
-212.80904261380169
 30
0.0
 11
9.0000000000000284
 21
-215.0157984517264
 31
0.0
  0
LINE
  5
11E
  8
0
 10
8.0000000000000284
 20
-206.7688851631795
 30
0.0
 11
8.0000000000000284
 21
-214.5621293252546
 31
0.0
  0
ARC
  5
11F
  8
0
 10
6.6154600685083826
 20
-212.41389792028119
 30
0.0
 40
2.417058132047242
 50
350.59095721248917
 51
55.052872008162652
  0
ARC
  5
120
  8
0
 10
-2.827530536155876
 20
-197.44988209544971
 30
0.0
 40
6.6079510919375126
 50
200.91720190638929
 51
277.19418518754139
  0
LINE
  5
121
  8
0
 10
-8.9999999999999716
 20
-199.80904261380161
 30
0.0
 11
-8.9999999999999716
 21
-202.0157984517264
 31
0.0
  0
ARC
  5
122
  8
0
 10
-6.6154600685083258
 20
-199.41389792028119
 30
0.0
 40
2.417058132047242
 50
124.94712799183731
 51
189.4090427875108
  0
LINE
  5
123
  8
0
 10
8.9999999999999716
 20
-202.80904261380169
 30
0.0
 11
9.0000000000000284
 21
-205.0157984517264
 31
0.0
  0
LINE
  5
124
  8
0
 10
8.0000000000000284
 20
-196.7688851631795
 30
0.0
 11
8.0000000000000284
 21
-204.56212932525469
 31
0.0
  0
ARC
  5
125
  8
0
 10
6.6154600685083826
 20
-202.41389792028119
 30
0.0
 40
2.417058132047242
 50
350.59095721248917
 51
55.052872008162652
  0
LINE
  5
126
  8
0
 10
8.0000000000000284
 20
-246.7688851631795
 30
0.0
 11
8.0000000000000853
 21
-254.5621293252546
 31
0.0
  0
LINE
  5
127
  8
0
 10
8.9999999999999716
 20
-252.80904261380169
 30
0.0
 11
9.0000000000000284
 21
-255.0157984517264
 31
0.0
  0
ARC
  5
128
  8
0
 10
2.8275305361559329
 20
-250.44988209544971
 30
0.0
 40
6.6079510919375126
 50
316.48201292912501
 51
339.08279809361062
  0
ARC
  5
129
  8
0
 10
-2.827530536155876
 20
-247.44988209544971
 30
0.0
 40
6.6079510919375126
 50
200.91720190638929
 51
277.19418518754139
  0
ARC
  5
12A
  8
0
 10
-2.827530536155876
 20
-249.65663793337461
 30
0.0
 40
6.6079510919375126
 50
200.91720190638929
 51
233.96191915340441
  0
LINE
  5
12B
  8
0
 10
-8.0000000000000284
 20
-253.7688851631795
 30
0.0
 11
-8.0000000000000853
 21
-255.0
 31
0.0
  0
ARC
  5
12C
  8
0
 10
-2.827530536155876
 20
-239.65663793337461
 30
0.0
 40
6.6079510919375126
 50
200.91720190638929
 51
277.19418518754139
  0
ARC
  5
12D
  8
0
 10
-2.827530536155876
 20
-237.44988209544971
 30
0.0
 40
6.6079510919375126
 50
200.91720190638929
 51
277.19418518754139
  0
ARC
  5
12E
  8
0
 10
-6.6154600685083258
 20
-239.41389792028119
 30
0.0
 40
2.417058132047242
 50
124.94712799183731
 51
189.4090427875108
  0
LINE
  5
12F
  8
0
 10
-8.9999999999999716
 20
-239.80904261380161
 30
0.0
 11
-8.9999999999999716
 21
-242.0157984517264
 31
0.0
  0
ARC
  5
130
  8
0
 10
-6.6154600685083258
 20
-249.41389792028119
 30
0.0
 40
2.417058132047242
 50
124.94712799183731
 51
189.4090427875108
  0
LINE
  5
131
  8
0
 10
-8.9999999999999716
 20
-249.80904261380161
 30
0.0
 11
-8.9999999999999716
 21
-252.0157984517264
 31
0.0
  0
LINE
  5
132
  8
0
 10
-7.9999999999999707
 20
-243.7688851631795
 30
0.0
 11
-8.0000000000000284
 21
-251.5621293252546
 31
0.0
  0
ARC
  5
133
  8
0
 10
2.8275305361559329
 20
-242.6566379333745
 30
0.0
 40
6.6079510919375126
 50
262.80581481245861
 51
339.08279809361062
  0
ARC
  5
134
  8
0
 10
2.8275305361559329
 20
-240.44988209544971
 30
0.0
 40
6.6079510919375126
 50
262.80581481245861
 51
339.08279809361062
  0
ARC
  5
135
  8
0
 10
6.6154600685083826
 20
-252.41389792028119
 30
0.0
 40
2.417058132047242
 50
350.59095721248917
 51
55.052872008162652
  0
LINE
  5
136
  8
0
 10
8.0000000000000284
 20
-236.7688851631795
 30
0.0
 11
8.0000000000000284
 21
-244.56212932525469
 31
0.0
  0
LINE
  5
137
  8
0
 10
8.9999999999999716
 20
-242.80904261380169
 30
0.0
 11
9.0000000000000284
 21
-245.0157984517264
 31
0.0
  0
ARC
  5
138
  8
0
 10
6.6154600685083826
 20
-242.41389792028119
 30
0.0
 40
2.417058132047242
 50
350.59095721248917
 51
55.052872008162652
  0
ENDSEC
  0
EOF
