  0
SECTION
  2
HEADER
  9
$ACADVER
  1
AC1009
  9
$INSBASE
 10
0.0
 20
0.0
 30
0.0
  9
$EXTMIN
 10
-35.000000000000028
 20
-255.18224498041749
 30
0.0
  9
$EXTMAX
 10
35.000000000000092
 20
121.5
 30
0.0
  9
$LIMMIN
 10
0.0
 20
0.0
  9
$LIMMAX
 10
420.0
 20
297.0
  9
$ORTHOMODE
 70
     1
  9
$REGENMODE
 70
     1
  9
$FILLMODE
 70
     1
  9
$QTEXTMODE
 70
     0
  9
$MIRRTEXT
 70
     1
  9
$DRAGMODE
 70
     2
  9
$LTSCALE
 40
1.0
  9
$OSMODE
 70
    47
  9
$ATTMODE
 70
     1
  9
$TEXTSIZE
 40
3.5
  9
$TRACEWID
 40
0.05
  9
$TEXTSTYLE
  7
SST
  9
$CLAYER
  8
0
  9
$CELTYPE
  6
BYLAYER
  9
$CECOLOR
 62
   256
  9
$DIMSCALE
 40
2.0
  9
$DIMASZ
 40
2.0
  9
$DIMEXO
 40
1.0
  9
$DIMDLI
 40
10.0
  9
$DIMRND
 40
0.0
  9
$DIMDLE
 40
0.0
  9
$DIMEXE
 40
1.0
  9
$DIMTP
 40
0.0
  9
$DIMTM
 40
0.0
  9
$DIMTXT
 40
3.5
  9
$DIMCEN
 40
2.5
  9
$DIMTSZ
 40
0.0
  9
$DIMTOL
 70
     0
  9
$DIMLIM
 70
     0
  9
$DIMTIH
 70
     0
  9
$DIMTOH
 70
     0
  9
$DIMSE1
 70
     0
  9
$DIMSE2
 70
     0
  9
$DIMTAD
 70
     1
  9
$DIMZIN
 70
     8
  9
$DIMBLK
  1

  9
$DIMASO
 70
     1
  9
$DIMSHO
 70
     1
  9
$DIMPOST
  1

  9
$DIMAPOST
  1

  9
$DIMALT
 70
     0
  9
$DIMALTD
 70
     2
  9
$DIMALTF
 40
25.399999999999999
  9
$DIMLFAC
 40
1.0
  9
$DIMTOFL
 70
     1
  9
$DIMTVP
 40
0.0
  9
$DIMTIX
 70
     0
  9
$DIMSOXD
 70
     0
  9
$DIMSAH
 70
     0
  9
$DIMBLK1
  1

  9
$DIMBLK2
  1

  9
$DIMSTYLE
  2
STANDARD
  9
$DIMCLRD
 70
     0
  9
$DIMCLRE
 70
     0
  9
$DIMCLRT
 70
     0
  9
$DIMTFAC
 40
1.0
  9
$DIMGAP
 40
1.0
  9
$LUNITS
 70
     2
  9
$LUPREC
 70
     4
  9
$SKETCHINC
 40
0.1
  9
$FILLETRAD
 40
10.0
  9
$AUNITS
 70
     0
  9
$AUPREC
 70
     2
  9
$MENU
  1
acad
  9
$ELEVATION
 40
0.0
  9
$PELEVATION
 40
0.0
  9
$THICKNESS
 40
0.0
  9
$LIMCHECK
 70
     0
  9
$BLIPMODE
 70
     0
  9
$CHAMFERA
 40
0.0
  9
$CHAMFERB
 40
0.0
  9
$SKPOLY
 70
     0
  9
$TDCREATE
 40
2449450.4197234958
  9
$TDUPDATE
 40
2453443.5668388312
  9
$TDINDWG
 40
1.5162990162000001
  9
$TDUSRTIMER
 40
1.5162990162000001
  9
$USRTIMER
 70
     1
  9
$ANGBASE
 50
0.0
  9
$ANGDIR
 70
     0
  9
$PDMODE
 70
     0
  9
$PDSIZE
 40
0.0
  9
$PLINEWID
 40
0.0
  9
$COORDS
 70
     1
  9
$SPLFRAME
 70
     0
  9
$SPLINETYPE
 70
     6
  9
$SPLINESEGS
 70
     8
  9
$ATTDIA
 70
     0
  9
$ATTREQ
 70
     1
  9
$HANDLING
 70
     1
  9
$HANDSEED
  5
B9
  9
$SURFTAB1
 70
     6
  9
$SURFTAB2
 70
     6
  9
$SURFTYPE
 70
     6
  9
$SURFU
 70
     6
  9
$SURFV
 70
     6
  9
$UCSNAME
  2

  9
$UCSORG
 10
0.0
 20
0.0
 30
0.0
  9
$UCSXDIR
 10
1.0
 20
0.0
 30
0.0
  9
$UCSYDIR
 10
0.0
 20
1.0
 30
0.0
  9
$PUCSNAME
  2

  9
$PUCSORG
 10
0.0
 20
0.0
 30
0.0
  9
$PUCSXDIR
 10
1.0
 20
0.0
 30
0.0
  9
$PUCSYDIR
 10
0.0
 20
1.0
 30
0.0
  9
$USERI1
 70
     0
  9
$USERI2
 70
     0
  9
$USERI3
 70
     0
  9
$USERI4
 70
     0
  9
$USERI5
 70
     0
  9
$USERR1
 40
0.0
  9
$USERR2
 40
0.0
  9
$USERR3
 40
0.0
  9
$USERR4
 40
0.0
  9
$USERR5
 40
0.0
  9
$WORLDVIEW
 70
     1
  9
$SHADEDGE
 70
     3
  9
$SHADEDIF
 70
    70
  9
$TILEMODE
 70
     1
  9
$MAXACTVP
 70
    16
  9
$PLIMCHECK
 70
     0
  9
$PEXTMIN
 10
1.0000000000000000E+020
 20
1.0000000000000000E+020
 30
1.0000000000000000E+020
  9
$PEXTMAX
 10
-1.0000000000000000E+020
 20
-1.0000000000000000E+020
 30
-1.0000000000000000E+020
  9
$PLIMMIN
 10
0.0
 20
0.0
  9
$PLIMMAX
 10
420.0
 20
297.0
  9
$UNITMODE
 70
     0
  9
$VISRETAIN
 70
     0
  9
$PLINEGEN
 70
     0
  9
$PSLTSCALE
 70
     1
  0
ENDSEC
  0
SECTION
  2
TABLES
  0
TABLE
  2
VPORT
 70
     2
  0
VPORT
  2
*ACTIVE
 70
     0
 10
0.0
 20
0.0
 11
1.0
 21
1.0
 12
-0.0182179516626206
 22
-66.864325760018886
 13
0.0
 23
0.0
 14
0.1
 24
0.1
 15
10.0
 25
10.0
 16
0.0
 26
0.0
 36
1.0
 17
0.0
 27
0.0
 37
0.0
 40
474.53576193014419
 41
1.4993646759847521
 42
50.0
 43
0.0
 44
0.0
 50
0.0
 51
0.0
 71
     0
 72
   100
 73
     1
 74
     1
 75
     1
 76
     0
 77
     0
 78
     0
  0
ENDTAB
  0
TABLE
  2
LTYPE
 70
     2
  0
LTYPE
  2
CONTINUOUS
 70
     0
  3
Solid line
 72
    65
 73
     0
 40
0.0
  0
LTYPE
  2
HIDDEN
 70
     0
  3
__ __ __ __ __ __ __ __ __ __ __ __ __ __ __ __
 72
    65
 73
     2
 40
0.375
 49
0.25
 49
-0.125
  0
ENDTAB
  0
TABLE
  2
LAYER
 70
     1
  0
LAYER
  2
0
 70
     0
 62
     7
  6
CONTINUOUS
  0
ENDTAB
  0
TABLE
  2
STYLE
 70
     2
  0
STYLE
  2
STANDARD
 70
     0
 40
0.0
 41
1.0
 50
0.0
 71
     0
 42
3.0
  3
txt
  4

  0
STYLE
  2
SST
 70
     0
 40
0.0
 41
1.0
 50
0.0
 71
     0
 42
3.5
  3
romans.shx
  4

  0
ENDTAB
  0
TABLE
  2
VIEW
 70
     0
  0
ENDTAB
  0
TABLE
  2
UCS
 70
     0
  0
ENDTAB
  0
TABLE
  2
APPID
 70
     1
  0
APPID
  2
ACAD
 70
     0
  0
ENDTAB
  0
TABLE
  2
DIMSTYLE
 70
     1
  0
DIMSTYLE
  2
STANDARD
 70
     0
  3

  4

  5

  6

  7

 40
2.0
 41
2.0
 42
1.0
 43
10.0
 44
1.0
 45
0.0
 46
0.0
 47
0.0
 48
0.0
140
3.5
141
2.5
142
0.0
143
25.399999999999999
144
1.0
145
0.0
146
1.0
147
1.0
 71
     0
 72
     0
 73
     0
 74
     0
 75
     0
 76
     0
 77
     1
 78
     8
170
     0
171
     2
172
     1
173
     0
174
     0
175
     0
176
     0
177
     0
178
     0
  0
ENDTAB
  0
ENDSEC
  0
SECTION
  2
BLOCKS
  0
BLOCK
  8
0
  2
$MODEL_SPACE
 70
     0
 10
0.0
 20
0.0
 30
0.0
  3
$MODEL_SPACE
  1

  0
ENDBLK
  5
9
  8
0
  0
BLOCK
 67
     1
  8
0
  2
$PAPER_SPACE
 70
     0
 10
0.0
 20
0.0
 30
0.0
  3
$PAPER_SPACE
  1

  0
ENDBLK
  5
E
 67
     1
  8
0
  0
BLOCK
  8
0
  2
SIMPSON-STRONG-TIE
 70
     0
 10
0.0
 20
0.0
 30
0.0
  3
SIMPSON-STRONG-TIE
  1

  0
TEXT
  5
A2
  8
0
  6
CONTINUOUS
 10
-4.7318727780691416
 20
4.4215860385237811
 30
0.0
 40
2.0
  1
SIMPSON
 50
316.94148639091338
  7
SST
 72
     1
 11
0.0
 21
0.0
 31
0.0
  0
TEXT
  5
A3
  8
0
  6
CONTINUOUS
 10
-7.9648409725863862
 20
3.4769825481547749
 30
0.0
 40
2.0
  1
Strong-Tie
 50
316.94148639091338
  7
SST
 72
     1
 11
-2.0499999999999541
 21
-2.0499999999999541
 31
0.0
  0
ENDBLK
  5
A4
  8
0
  0
ENDSEC
  0
SECTION
  2
ENTITIES
  0
LINE
  5
29
  8
0
 10
-35.000000000000028
 20
-5.000000000000056
 30
0.0
 11
34.999999999999972
 21
-5.000000000000056
 31
0.0
  0
LINE
  5
2A
  8
0
 10
-34.999999999999972
 20
121.5
 30
0.0
 11
-35.000000000000028
 21
-5.000000000000056
 31
0.0
  0
LINE
  5
2B
  8
0
 10
34.999999999999972
 20
-5.000000000000056
 30
0.0
 11
35.000000000000092
 21
121.4999999999999
 31
0.0
  0
LINE
  5
2C
  8
0
 10
35.000000000000092
 20
121.4999999999999
 30
0.0
 11
-34.999999999999972
 21
121.5
 31
0.0
  0
LINE
  5
2D
  8
0
  6
HIDDEN
 62
     8
 10
-34.999999999999972
 20
-0.0000000000000568
 30
0.0
 11
34.999999999999972
 21
0.0000000000000568
 31
0.0
  0
CIRCLE
  5
2F
  8
0
 10
-20.000000000000028
 20
61.5
 30
0.0
 40
2.5
  0
CIRCLE
  5
30
  8
0
 10
-0.0000000000000284
 20
61.5
 30
0.0
 40
2.5
  0
CIRCLE
  5
31
  8
0
 10
20.000000000000082
 20
61.5
 30
0.0
 40
2.5
  0
CIRCLE
  5
32
  8
0
 10
-0.0000000000000284
 20
101.5
 30
0.0
 40
6.75
  0
CIRCLE
  5
33
  8
0
 10
-20.000000000000028
 20
101.5
 30
0.0
 40
2.5
  0
CIRCLE
  5
34
  8
0
 10
20.000000000000082
 20
101.5
 30
0.0
 40
2.5
  0
LINE
  5
35
  8
0
 10
-7.9999999999999138
 20
-29.800009549626399
 30
0.0
 11
-7.9999999999999138
 21
-37.360708495195873
 31
0.0
  0
LINE
  5
36
  8
0
 10
7.999999999999857
 20
-27.251208263912989
 30
0.0
 11
7.999999999999857
 21
-34.811907209482399
 31
0.0
  0
ARC
  5
37
  8
0
 10
41.546971056195247
 20
55.688430657703577
 30
0.0
 40
98.808783769084386
 50
239.231967517085
 51
250.76803248291469
  0
ARC
  5
38
  8
0
 10
-41.54697105619632
 20
-120.3003474168151
 30
0.0
 40
98.808783769087256
 50
59.231967517085351
 51
70.768032482914663
  0
LINE
  5
39
  8
0
 10
-9.0000000000000284
 20
-9.0000000000001137
 30
0.0
 11
-9.0000000000000284
 21
-255.00000000000011
 31
0.0
  0
LINE
  5
3A
  8
0
 10
8.9999999999999716
 20
-9.0000000000000568
 30
0.0
 11
8.9999999999999716
 21
-255.00000000000011
 31
0.0
  0
LINE
  5
3B
  8
0
 10
-7.999999999999801
 20
-159.80000954962651
 30
0.0
 11
-7.999999999999801
 21
-167.36070849519589
 31
0.0
  0
ARC
  5
3C
  8
0
 10
41.546971056195247
 20
-74.311569342296465
 30
0.0
 40
98.808783769084386
 50
239.231967517085
 51
250.76803248291469
  0
ARC
  5
3D
  8
0
 10
-41.54697105619632
 20
-250.3003474168151
 30
0.0
 40
98.808783769087256
 50
59.231967517085351
 51
70.768032482914663
  0
ARC
  5
3E
  8
0
 10
-41.54697105619632
 20
-260.3003474168151
 30
0.0
 40
98.808783769087256
 50
59.231967517085351
 51
70.768032482914663
  0
ARC
  5
3F
  8
0
 10
41.546971056195247
 20
-84.311569342296465
 30
0.0
 40
98.808783769084386
 50
239.231967517085
 51
250.76803248291469
  0
ARC
  5
40
  8
0
 10
-41.54697105619632
 20
-280.3003474168151
 30
0.0
 40
98.808783769087256
 50
59.231967517085351
 51
70.768032482914663
  0
ARC
  5
41
  8
0
 10
41.546971056195247
 20
-104.31156934229649
 30
0.0
 40
98.808783769084386
 50
239.231967517085
 51
250.76803248291469
  0
ARC
  5
42
  8
0
 10
41.546971056195247
 20
-94.311569342296465
 30
0.0
 40
98.808783769084386
 50
239.231967517085
 51
250.76803248291469
  0
ARC
  5
43
  8
0
 10
-41.54697105619632
 20
-270.3003474168151
 30
0.0
 40
98.808783769087256
 50
59.231967517085351
 51
70.768032482914663
  0
LINE
  5
44
  8
0
 10
-7.9999999999996874
 20
-179.80000954962651
 30
0.0
 11
-7.9999999999996874
 21
-187.36070849519601
 31
0.0
  0
LINE
  5
45
  8
0
 10
-7.999999999999801
 20
-169.80000954962651
 30
0.0
 11
-7.9999999999996874
 21
-177.36070849519601
 31
0.0
  0
LINE
  5
46
  8
0
 10
7.9999999999990621
 20
-177.2512082639127
 30
0.0
 11
7.9999999999989484
 21
-184.81190720948189
 31
0.0
  0
LINE
  5
47
  8
0
 10
7.9999999999989484
 20
-187.2512082639127
 30
0.0
 11
7.9999999999989484
 21
-194.81190720948189
 31
0.0
  0
LINE
  5
48
  8
0
 10
7.9999999999990621
 20
-167.2512082639127
 30
0.0
 11
7.9999999999990621
 21
-174.81190720948189
 31
0.0
  0
ARC
  5
49
  8
0
 10
41.546971056195247
 20
45.688430657703577
 30
0.0
 40
98.808783769084386
 50
239.231967517085
 51
250.76803248291469
  0
ARC
  5
4A
  8
0
 10
-41.54697105619632
 20
-130.3003474168151
 30
0.0
 40
98.808783769087256
 50
59.231967517085351
 51
70.768032482914663
  0
ARC
  5
4B
  8
0
 10
41.546971056195247
 20
35.688430657703577
 30
0.0
 40
98.808783769084386
 50
239.231967517085
 51
250.76803248291469
  0
ARC
  5
4C
  8
0
 10
-41.54697105619632
 20
-140.3003474168151
 30
0.0
 40
98.808783769087256
 50
59.231967517085351
 51
70.768032482914663
  0
ARC
  5
4D
  8
0
 10
-41.54697105619632
 20
-150.3003474168151
 30
0.0
 40
98.808783769087256
 50
59.231967517085351
 51
70.768032482914663
  0
ARC
  5
4E
  8
0
 10
41.546971056195247
 20
25.688430657703581
 30
0.0
 40
98.808783769084386
 50
239.231967517085
 51
250.76803248291469
  0
ARC
  5
4F
  8
0
 10
41.546971056195247
 20
15.68843065770352
 30
0.0
 40
98.808783769084386
 50
239.231967517085
 51
250.76803248291469
  0
ARC
  5
50
  8
0
 10
-41.54697105619632
 20
-160.3003474168151
 30
0.0
 40
98.808783769087256
 50
59.231967517085351
 51
70.768032482914663
  0
ARC
  5
51
  8
0
 10
-41.54697105619632
 20
-170.3003474168151
 30
0.0
 40
98.808783769087256
 50
59.231967517085351
 51
70.768032482914663
  0
ARC
  5
52
  8
0
 10
41.546971056195247
 20
5.6884306577035204
 30
0.0
 40
98.808783769084386
 50
239.231967517085
 51
250.76803248291469
  0
ARC
  5
53
  8
0
 10
41.546971056195247
 20
-4.3115693422964787
 30
0.0
 40
98.808783769084386
 50
239.231967517085
 51
250.76803248291469
  0
ARC
  5
54
  8
0
 10
-41.54697105619632
 20
-180.3003474168151
 30
0.0
 40
98.808783769087256
 50
59.231967517085351
 51
70.768032482914663
  0
ARC
  5
55
  8
0
 10
-41.54697105619632
 20
-190.3003474168151
 30
0.0
 40
98.808783769087256
 50
59.231967517085351
 51
70.768032482914663
  0
ARC
  5
56
  8
0
 10
41.546971056195247
 20
-14.31156934229648
 30
0.0
 40
98.808783769084386
 50
239.231967517085
 51
250.76803248291469
  0
ARC
  5
57
  8
0
 10
41.546971056195247
 20
-24.31156934229648
 30
0.0
 40
98.808783769084386
 50
239.231967517085
 51
250.76803248291469
  0
ARC
  5
58
  8
0
 10
-41.54697105619632
 20
-200.3003474168151
 30
0.0
 40
98.808783769087256
 50
59.231967517085351
 51
70.768032482914663
  0
ARC
  5
59
  8
0
 10
-41.54697105619632
 20
-210.3003474168151
 30
0.0
 40
98.808783769087256
 50
59.231967517085351
 51
70.768032482914663
  0
ARC
  5
5A
  8
0
 10
41.546971056195247
 20
-34.31156934229648
 30
0.0
 40
98.808783769084386
 50
239.231967517085
 51
250.76803248291469
  0
ARC
  5
5B
  8
0
 10
41.546971056195247
 20
-44.311569342296472
 30
0.0
 40
98.808783769084386
 50
239.231967517085
 51
250.76803248291469
  0
ARC
  5
5C
  8
0
 10
-41.54697105619632
 20
-220.3003474168151
 30
0.0
 40
98.808783769087256
 50
59.231967517085351
 51
70.768032482914663
  0
ARC
  5
5D
  8
0
 10
41.546971056195247
 20
-54.311569342296472
 30
0.0
 40
98.808783769084386
 50
239.231967517085
 51
250.76803248291469
  0
ARC
  5
5E
  8
0
 10
-41.54697105619632
 20
-230.3003474168151
 30
0.0
 40
98.808783769087256
 50
59.231967517085351
 51
70.768032482914663
  0
ARC
  5
5F
  8
0
 10
-41.54697105619632
 20
-240.3003474168151
 30
0.0
 40
98.808783769087256
 50
59.231967517085351
 51
70.768032482914663
  0
ARC
  5
60
  8
0
 10
41.546971056195247
 20
-64.311569342296465
 30
0.0
 40
98.808783769084386
 50
239.231967517085
 51
250.76803248291469
  0
LINE
  5
61
  8
0
 10
-7.9999999999999138
 20
-129.8000095496264
 30
0.0
 11
-7.9999999999999138
 21
-137.36070849519581
 31
0.0
  0
LINE
  5
62
  8
0
 10
-7.999999999999801
 20
-149.80000954962651
 30
0.0
 11
-7.999999999999801
 21
-157.36070849519589
 31
0.0
  0
LINE
  5
63
  8
0
 10
-7.9999999999999138
 20
-139.80000954962651
 30
0.0
 11
-7.999999999999801
 21
-147.36070849519589
 31
0.0
  0
LINE
  5
64
  8
0
 10
-7.9999999999999138
 20
-109.8000095496264
 30
0.0
 11
-7.9999999999999138
 21
-117.36070849519579
 31
0.0
  0
LINE
  5
65
  8
0
 10
-7.9999999999999138
 20
-119.8000095496264
 30
0.0
 11
-7.9999999999999138
 21
-127.36070849519579
 31
0.0
  0
LINE
  5
66
  8
0
 10
-7.9999999999999138
 20
-99.800009549626466
 30
0.0
 11
-7.9999999999999138
 21
-107.36070849519589
 31
0.0
  0
LINE
  5
67
  8
0
 10
-7.9999999999999138
 20
-59.800009549626402
 30
0.0
 11
-7.9999999999999138
 21
-67.360708495195865
 31
0.0
  0
LINE
  5
68
  8
0
 10
-7.9999999999999138
 20
-79.800009549626452
 30
0.0
 11
-7.9999999999999138
 21
-87.360708495195865
 31
0.0
  0
LINE
  5
69
  8
0
 10
-7.9999999999999138
 20
-89.800009549626466
 30
0.0
 11
-7.9999999999999138
 21
-97.360708495195865
 31
0.0
  0
LINE
  5
6A
  8
0
 10
-7.9999999999999138
 20
-69.800009549626452
 30
0.0
 11
-7.9999999999999138
 21
-77.360708495195865
 31
0.0
  0
LINE
  5
6B
  8
0
 10
-7.9999999999999138
 20
-39.800009549626402
 30
0.0
 11
-7.9999999999999138
 21
-47.360708495195858
 31
0.0
  0
LINE
  5
6C
  8
0
 10
-7.9999999999999138
 20
-49.800009549626402
 30
0.0
 11
-7.9999999999999138
 21
-57.360708495195858
 31
0.0
  0
LINE
  5
6D
  8
0
 10
7.9999999999995159
 20
-97.251208263912886
 30
0.0
 11
7.9999999999995159
 21
-104.8119072094821
 31
0.0
  0
LINE
  5
6E
  8
0
 10
7.9999999999994031
 20
-127.2512082639128
 30
0.0
 11
7.9999999999992886
 21
-134.811907209482
 31
0.0
  0
LINE
  5
6F
  8
0
 10
7.9999999999991749
 20
-147.2512082639127
 30
0.0
 11
7.9999999999991749
 21
-154.811907209482
 31
0.0
  0
LINE
  5
70
  8
0
 10
7.9999999999991749
 20
-157.2512082639127
 30
0.0
 11
7.9999999999990621
 21
-164.81190720948189
 31
0.0
  0
LINE
  5
71
  8
0
 10
7.9999999999992886
 20
-137.25120826391279
 30
0.0
 11
7.9999999999991749
 21
-144.811907209482
 31
0.0
  0
LINE
  5
72
  8
0
 10
7.9999999999994031
 20
-107.2512082639129
 30
0.0
 11
7.9999999999994031
 21
-114.8119072094822
 31
0.0
  0
LINE
  5
73
  8
0
 10
7.9999999999994031
 20
-117.2512082639128
 30
0.0
 11
7.9999999999994031
 21
-124.8119072094821
 31
0.0
  0
LINE
  5
74
  8
0
 10
7.9999999999997442
 20
-57.251208263912929
 30
0.0
 11
7.9999999999996296
 21
-64.811907209482285
 31
0.0
  0
LINE
  5
75
  8
0
 10
7.9999999999996296
 20
-77.251208263912929
 30
0.0
 11
7.9999999999996296
 21
-84.811907209482229
 31
0.0
  0
LINE
  5
76
  8
0
 10
7.9999999999995159
 20
-87.251208263912929
 30
0.0
 11
7.9999999999995159
 21
-94.811907209482186
 31
0.0
  0
LINE
  5
77
  8
0
 10
7.9999999999996296
 20
-67.251208263912929
 30
0.0
 11
7.9999999999996296
 21
-74.811907209482285
 31
0.0
  0
LINE
  5
78
  8
0
 10
7.9999999999997442
 20
-47.251208263912922
 30
0.0
 11
7.9999999999997442
 21
-54.811907209482278
 31
0.0
  0
LINE
  5
79
  8
0
 10
7.999999999999857
 20
-37.251208263912929
 30
0.0
 11
7.9999999999997442
 21
-44.811907209482342
 31
0.0
  0
ARC
  5
7A
  8
0
 10
41.546971056195247
 20
75.688430657703577
 30
0.0
 40
98.808783769084386
 50
240.13656636216459
 51
250.76803248291469
  0
ARC
  5
7B
  8
0
 10
-41.54697105619632
 20
-100.3003474168151
 30
0.0
 40
98.808783769087256
 50
59.231967517085351
 51
66.048563805840871
  0
ARC
  5
7C
  8
0
 10
41.546971056195247
 20
65.688430657703577
 30
0.0
 40
98.808783769084386
 50
239.231967517085
 51
250.76803248291469
  0
ARC
  5
7D
  8
0
 10
-41.54697105619632
 20
-110.3003474168151
 30
0.0
 40
98.808783769087256
 50
59.231967517085351
 51
70.768032482914663
  0
LINE
  5
7E
  8
0
 10
7.9999999999999707
 20
-10.00000000000005
 30
0.0
 11
-8.0000000000000284
 21
-10.00000000000011
 31
0.0
  0
LINE
  5
7F
  8
0
 10
-8.0000000000000284
 20
-10.00000000000005
 30
0.0
 11
-12.999999999999909
 21
-5.000000000000056
 31
0.0
  0
LINE
  5
80
  8
0
 10
-8.0000000000000284
 20
-10.000000000000171
 30
0.0
 11
-7.9999999999999138
 21
-17.360708495195858
 31
0.0
  0
LINE
  5
81
  8
0
 10
-7.9999999999999138
 20
-19.800009549626392
 30
0.0
 11
-7.9999999999999138
 21
-27.360708495195869
 31
0.0
  0
LINE
  5
82
  8
0
 10
7.9999999999999707
 20
-10.00000000000011
 30
0.0
 11
7.9999999999999707
 21
-14.811907209482451
 31
0.0
  0
LINE
  5
83
  8
0
 10
7.9999999999999707
 20
-17.251208263913039
 30
0.0
 11
7.999999999999857
 21
-24.811907209482399
 31
0.0
  0
LINE
  5
84
  8
0
 10
12.99999999999997
 20
-5.000000000000056
 30
0.0
 11
7.9999999999999707
 21
-10.0
 31
0.0
  0
LINE
  5
85
  8
0
 10
-9.0000000000000284
 20
-255.00000000000011
 30
0.0
 11
8.9999999999999716
 21
-255.00000000000011
 31
0.0
  0
ARC
  5
86
  8
0
 10
-41.54697105619632
 20
-300.3003474168151
 30
0.0
 40
98.808783769087256
 50
59.231967517085351
 51
70.768032482914663
  0
ARC
  5
87
  8
0
 10
41.546971056195247
 20
-124.31156934229649
 30
0.0
 40
98.808783769084386
 50
239.231967517085
 51
250.76803248291469
  0
ARC
  5
88
  8
0
 10
41.546971056195247
 20
-134.31156934229651
 30
0.0
 40
98.808783769084386
 50
239.231967517085
 51
250.76803248291469
  0
ARC
  5
89
  8
0
 10
-41.54697105619632
 20
-310.3003474168151
 30
0.0
 40
98.808783769087256
 50
59.231967517085351
 51
70.768032482914663
  0
ARC
  5
8A
  8
0
 10
41.546971056195247
 20
-114.31156934229649
 30
0.0
 40
98.808783769084386
 50
239.231967517085
 51
250.76803248291469
  0
LINE
  5
8B
  8
0
 10
-7.9999999999996874
 20
-209.80000954962659
 30
0.0
 11
-7.9999999999996874
 21
-217.36070849519601
 31
0.0
  0
LINE
  5
8C
  8
0
 10
-7.9999999999999138
 20
-189.8000095496264
 30
0.0
 11
-7.999999999999801
 21
-197.36070849519589
 31
0.0
  0
LINE
  5
8D
  8
0
 10
7.9999999999992886
 20
-197.25120826391279
 30
0.0
 11
7.9999999999991749
 21
-204.811907209482
 31
0.0
  0
LINE
  5
8E
  8
0
 10
7.9999999999989484
 20
-217.2512082639127
 30
0.0
 11
7.9999999999989484
 21
-224.81190720948189
 31
0.0
  0
ARC
  5
8F
  8
0
 10
-41.54697105619632
 20
-290.3003474168151
 30
0.0
 40
98.808783769087256
 50
59.231967517085351
 51
70.768032482914663
  0
ARC
  5
90
  8
0
 10
-41.54697105619632
 20
-320.3003474168151
 30
0.0
 40
98.808783769087256
 50
59.231967517085351
 51
70.768032482914663
  0
ARC
  5
91
  8
0
 10
41.546971056195247
 20
-144.31156934229639
 30
0.0
 40
98.808783769084386
 50
239.231967517085
 51
250.76803248291469
  0
ARC
  5
92
  8
0
 10
-41.54697105619632
 20
-340.3003474168151
 30
0.0
 40
98.808783769087256
 50
59.68768514130663
 51
70.768032482914663
  0
ARC
  5
93
  8
0
 10
41.546971056195247
 20
-164.31156934229651
 30
0.0
 40
98.808783769084386
 50
239.231967517085
 51
246.60907206975639
  0
ARC
  5
94
  8
0
 10
41.546971056195247
 20
-154.31156934229651
 30
0.0
 40
98.808783769084386
 50
239.231967517085
 51
250.76803248291469
  0
ARC
  5
95
  8
0
 10
-41.54697105619632
 20
-330.3003474168151
 30
0.0
 40
98.808783769087256
 50
59.231967517085351
 51
70.768032482914663
  0
LINE
  5
96
  8
0
 10
-7.9999999999996874
 20
-239.80000954962659
 30
0.0
 11
-7.9999999999996874
 21
-247.36070849519601
 31
0.0
  0
LINE
  5
97
  8
0
 10
-8.0000000000000284
 20
-217.36070849519589
 30
0.0
 11
-7.9999999999999138
 21
-227.36070849519581
 31
0.0
  0
LINE
  5
98
  8
0
 10
7.9999999999989484
 20
-247.2512082639127
 30
0.0
 11
7.9999999999989484
 21
-254.81190720948189
 31
0.0
  0
LINE
  5
99
  8
0
 10
7.9999999999992886
 20
-224.81190720948209
 30
0.0
 11
7.9999999999990621
 21
-234.81190720948189
 31
0.0
  0
LINE
  5
9A
  8
0
 10
7.9999999999991749
 20
-207.25120826391279
 30
0.0
 11
7.9999999999989484
 21
-214.81190720948189
 31
0.0
  0
LINE
  5
9B
  8
0
 10
-7.999999999999801
 20
-199.80000954962651
 30
0.0
 11
-7.9999999999996874
 21
-207.36070849519601
 31
0.0
  0
LINE
  5
9C
  8
0
 10
7.9999999999990621
 20
-237.2512082639127
 30
0.0
 11
7.9999999999989484
 21
-244.811907209482
 31
0.0
  0
LINE
  5
9D
  8
0
 10
-7.9999999999999138
 20
-229.80000954962651
 30
0.0
 11
-7.9999999999996874
 21
-237.36070849519601
 31
0.0
  0
LINE
  5
9E
  8
0
 10
-7.9999999999996874
 20
-249.80000954962659
 30
0.0
 11
-7.9999999999996874
 21
-255.00000000000011
 31
0.0
  0
INSERT
  5
9F
  8
0
  2
SIMPSON-STRONG-TIE
 10
6.0999999999998797
 20
29.099999999999909
 30
0.0
  0
ENDSEC
  0
EOF
