  0
SECTION
  2
HEADER
  9
$ACADVER
  1
AC1009
  9
$INSBASE
 10
0.0
 20
0.0
 30
0.0
  9
$EXTMIN
 10
-45.000000000000021
 20
-255.31468280951461
 30
0.0
  9
$EXTMAX
 10
45.000000000000078
 20
121.5
 30
0.0
  9
$LIMMIN
 10
0.0
 20
0.0
  9
$LIMMAX
 10
420.0
 20
297.0
  9
$ORTHOMODE
 70
     1
  9
$REGENMODE
 70
     1
  9
$FILLMODE
 70
     1
  9
$QTEXTMODE
 70
     0
  9
$MIRRTEXT
 70
     1
  9
$DRAGMODE
 70
     2
  9
$LTSCALE
 40
1.0
  9
$OSMODE
 70
    47
  9
$ATTMODE
 70
     1
  9
$TEXTSIZE
 40
3.5
  9
$TRACEWID
 40
0.05
  9
$TEXTSTYLE
  7
SST
  9
$CLAYER
  8
0
  9
$CELTYPE
  6
BYLAYER
  9
$CECOLOR
 62
   256
  9
$DIMSCALE
 40
2.0
  9
$DIMASZ
 40
2.0
  9
$DIMEXO
 40
1.0
  9
$DIMDLI
 40
10.0
  9
$DIMRND
 40
0.0
  9
$DIMDLE
 40
0.0
  9
$DIMEXE
 40
1.0
  9
$DIMTP
 40
0.0
  9
$DIMTM
 40
0.0
  9
$DIMTXT
 40
3.5
  9
$DIMCEN
 40
2.5
  9
$DIMTSZ
 40
0.0
  9
$DIMTOL
 70
     0
  9
$DIMLIM
 70
     0
  9
$DIMTIH
 70
     0
  9
$DIMTOH
 70
     0
  9
$DIMSE1
 70
     0
  9
$DIMSE2
 70
     0
  9
$DIMTAD
 70
     1
  9
$DIMZIN
 70
     8
  9
$DIMBLK
  1

  9
$DIMASO
 70
     1
  9
$DIMSHO
 70
     1
  9
$DIMPOST
  1

  9
$DIMAPOST
  1

  9
$DIMALT
 70
     0
  9
$DIMALTD
 70
     2
  9
$DIMALTF
 40
25.399999999999999
  9
$DIMLFAC
 40
1.0
  9
$DIMTOFL
 70
     1
  9
$DIMTVP
 40
0.0
  9
$DIMTIX
 70
     0
  9
$DIMSOXD
 70
     0
  9
$DIMSAH
 70
     0
  9
$DIMBLK1
  1

  9
$DIMBLK2
  1

  9
$DIMSTYLE
  2
STANDARD
  9
$DIMCLRD
 70
     0
  9
$DIMCLRE
 70
     0
  9
$DIMCLRT
 70
     0
  9
$DIMTFAC
 40
1.0
  9
$DIMGAP
 40
1.0
  9
$LUNITS
 70
     2
  9
$LUPREC
 70
     4
  9
$SKETCHINC
 40
0.1
  9
$FILLETRAD
 40
10.0
  9
$AUNITS
 70
     0
  9
$AUPREC
 70
     2
  9
$MENU
  1
acad
  9
$ELEVATION
 40
0.0
  9
$PELEVATION
 40
0.0
  9
$THICKNESS
 40
0.0
  9
$LIMCHECK
 70
     0
  9
$BLIPMODE
 70
     0
  9
$CHAMFERA
 40
0.0
  9
$CHAMFERB
 40
0.0
  9
$SKPOLY
 70
     0
  9
$TDCREATE
 40
2449450.4197234958
  9
$TDUPDATE
 40
2453443.5669467938
  9
$TDINDWG
 40
1.4585196528
  9
$TDUSRTIMER
 40
1.4585196528
  9
$USRTIMER
 70
     1
  9
$ANGBASE
 50
0.0
  9
$ANGDIR
 70
     0
  9
$PDMODE
 70
     0
  9
$PDSIZE
 40
0.0
  9
$PLINEWID
 40
0.0
  9
$COORDS
 70
     1
  9
$SPLFRAME
 70
     0
  9
$SPLINETYPE
 70
     6
  9
$SPLINESEGS
 70
     8
  9
$ATTDIA
 70
     0
  9
$ATTREQ
 70
     1
  9
$HANDLING
 70
     1
  9
$HANDSEED
  5
AD
  9
$SURFTAB1
 70
     6
  9
$SURFTAB2
 70
     6
  9
$SURFTYPE
 70
     6
  9
$SURFU
 70
     6
  9
$SURFV
 70
     6
  9
$UCSNAME
  2

  9
$UCSORG
 10
0.0
 20
0.0
 30
0.0
  9
$UCSXDIR
 10
1.0
 20
0.0
 30
0.0
  9
$UCSYDIR
 10
0.0
 20
1.0
 30
0.0
  9
$PUCSNAME
  2

  9
$PUCSORG
 10
0.0
 20
0.0
 30
0.0
  9
$PUCSXDIR
 10
1.0
 20
0.0
 30
0.0
  9
$PUCSYDIR
 10
0.0
 20
1.0
 30
0.0
  9
$USERI1
 70
     0
  9
$USERI2
 70
     0
  9
$USERI3
 70
     0
  9
$USERI4
 70
     0
  9
$USERI5
 70
     0
  9
$USERR1
 40
0.0
  9
$USERR2
 40
0.0
  9
$USERR3
 40
0.0
  9
$USERR4
 40
0.0
  9
$USERR5
 40
0.0
  9
$WORLDVIEW
 70
     1
  9
$SHADEDGE
 70
     3
  9
$SHADEDIF
 70
    70
  9
$TILEMODE
 70
     1
  9
$MAXACTVP
 70
    16
  9
$PLIMCHECK
 70
     0
  9
$PEXTMIN
 10
1.0000000000000000E+020
 20
1.0000000000000000E+020
 30
1.0000000000000000E+020
  9
$PEXTMAX
 10
-1.0000000000000000E+020
 20
-1.0000000000000000E+020
 30
-1.0000000000000000E+020
  9
$PLIMMIN
 10
0.0
 20
0.0
  9
$PLIMMAX
 10
420.0
 20
297.0
  9
$UNITMODE
 70
     0
  9
$VISRETAIN
 70
     0
  9
$PLINEGEN
 70
     0
  9
$PSLTSCALE
 70
     1
  0
ENDSEC
  0
SECTION
  2
TABLES
  0
TABLE
  2
VPORT
 70
     2
  0
VPORT
  2
*ACTIVE
 70
     0
 10
0.0
 20
0.0
 11
1.0
 21
1.0
 12
0.0045557910396496
 22
-66.930342910974673
 13
0.0
 23
0.0
 14
0.1
 24
0.1
 15
10.0
 25
10.0
 16
0.0
 26
0.0
 36
1.0
 17
0.0
 27
0.0
 37
0.0
 40
474.70206147918879
 41
1.4993646759847521
 42
50.0
 43
0.0
 44
0.0
 50
0.0
 51
0.0
 71
     0
 72
   100
 73
     1
 74
     1
 75
     1
 76
     0
 77
     0
 78
     0
  0
ENDTAB
  0
TABLE
  2
LTYPE
 70
     2
  0
LTYPE
  2
CONTINUOUS
 70
     0
  3
Solid line
 72
    65
 73
     0
 40
0.0
  0
LTYPE
  2
HIDDEN
 70
     0
  3
__ __ __ __ __ __ __ __ __ __ __ __ __ __ __ __
 72
    65
 73
     2
 40
0.375
 49
0.25
 49
-0.125
  0
ENDTAB
  0
TABLE
  2
LAYER
 70
     1
  0
LAYER
  2
0
 70
     0
 62
     7
  6
CONTINUOUS
  0
ENDTAB
  0
TABLE
  2
STYLE
 70
     2
  0
STYLE
  2
STANDARD
 70
     0
 40
0.0
 41
1.0
 50
0.0
 71
     0
 42
3.0
  3
txt
  4

  0
STYLE
  2
SST
 70
     0
 40
0.0
 41
1.0
 50
0.0
 71
     0
 42
3.5
  3
romans.shx
  4

  0
ENDTAB
  0
TABLE
  2
VIEW
 70
     0
  0
ENDTAB
  0
TABLE
  2
UCS
 70
     0
  0
ENDTAB
  0
TABLE
  2
APPID
 70
     1
  0
APPID
  2
ACAD
 70
     0
  0
ENDTAB
  0
TABLE
  2
DIMSTYLE
 70
     1
  0
DIMSTYLE
  2
STANDARD
 70
     0
  3

  4

  5

  6

  7

 40
2.0
 41
2.0
 42
1.0
 43
10.0
 44
1.0
 45
0.0
 46
0.0
 47
0.0
 48
0.0
140
3.5
141
2.5
142
0.0
143
25.399999999999999
144
1.0
145
0.0
146
1.0
147
1.0
 71
     0
 72
     0
 73
     0
 74
     0
 75
     0
 76
     0
 77
     1
 78
     8
170
     0
171
     2
172
     1
173
     0
174
     0
175
     0
176
     0
177
     0
178
     0
  0
ENDTAB
  0
ENDSEC
  0
SECTION
  2
BLOCKS
  0
BLOCK
  8
0
  2
$MODEL_SPACE
 70
     0
 10
0.0
 20
0.0
 30
0.0
  3
$MODEL_SPACE
  1

  0
ENDBLK
  5
9
  8
0
  0
BLOCK
 67
     1
  8
0
  2
$PAPER_SPACE
 70
     0
 10
0.0
 20
0.0
 30
0.0
  3
$PAPER_SPACE
  1

  0
ENDBLK
  5
E
 67
     1
  8
0
  0
BLOCK
  8
0
  2
SIMPSON-STRONG-TIE
 70
     0
 10
0.0
 20
0.0
 30
0.0
  3
SIMPSON-STRONG-TIE
  1

  0
TEXT
  5
96
  8
0
  6
CONTINUOUS
 10
-4.7318727780691416
 20
4.4215860385237811
 30
0.0
 40
2.0
  1
SIMPSON
 50
316.94148639091338
  7
SST
 72
     1
 11
0.0
 21
0.0
 31
0.0
  0
TEXT
  5
97
  8
0
  6
CONTINUOUS
 10
-7.9648409725863862
 20
3.4769825481547749
 30
0.0
 40
2.0
  1
Strong-Tie
 50
316.94148639091338
  7
SST
 72
     1
 11
-2.0499999999999541
 21
-2.0499999999999541
 31
0.0
  0
ENDBLK
  5
98
  8
0
  0
ENDSEC
  0
SECTION
  2
ENTITIES
  0
LINE
  5
29
  8
0
 10
-45.000000000000021
 20
-5.000000000000056
 30
0.0
 11
44.999999999999972
 21
-5.000000000000056
 31
0.0
  0
LINE
  5
2A
  8
0
 10
-44.999999999999972
 20
121.5
 30
0.0
 11
-45.000000000000021
 21
-5.000000000000056
 31
0.0
  0
LINE
  5
2B
  8
0
 10
44.999999999999972
 20
-5.000000000000056
 30
0.0
 11
45.000000000000078
 21
121.4999999999999
 31
0.0
  0
LINE
  5
2C
  8
0
 10
45.000000000000078
 20
121.4999999999999
 30
0.0
 11
-44.999999999999972
 21
121.5
 31
0.0
  0
LINE
  5
2D
  8
0
  6
HIDDEN
 62
     8
 10
-44.999999999999972
 20
-0.0000000000000568
 30
0.0
 11
44.999999999999972
 21
0.0000000000000568
 31
0.0
  0
LINE
  5
2F
  8
0
 10
-9.9999999999996874
 20
-116.2326784838835
 30
0.0
 11
-9.9999999999996874
 21
-125.9034018633326
 31
0.0
  0
ARC
  5
30
  8
0
 10
49.29389212117232
 20
9.1866482949130273
 30
0.0
 40
138.78678941155931
 50
244.25062808570721
 51
253.9832205600685
  0
LINE
  5
31
  8
0
 10
9.9999999999991758
 20
-123.9214392021962
 30
0.0
 11
9.9999999999991758
 21
-133.418369362692
 31
0.0
  0
LINE
  5
32
  8
0
 10
11.00000000000008
 20
-10.00000000000011
 30
0.0
 11
11.00000000000008
 21
-255.00000000000011
 31
0.0
  0
LINE
  5
33
  8
0
 10
-10.999999999999909
 20
-10.00000000000011
 30
0.0
 11
-10.999999999999909
 21
-255.00000000000011
 31
0.0
  0
LINE
  5
34
  8
0
 10
-9.9999999999996874
 20
-212.2326784838836
 30
0.0
 11
-9.9999999999996874
 21
-221.9034018633327
 31
0.0
  0
LINE
  5
35
  8
0
 10
9.9999999999991758
 20
-208.0314636360761
 30
0.0
 11
9.9999999999991758
 21
-217.52839379657181
 31
0.0
  0
ARC
  5
36
  8
0
 10
-49.293892121173911
 20
-343.01148936044638
 30
0.0
 40
138.7867894115638
 50
64.250628085707305
 51
73.983220560068276
  0
ARC
  5
37
  8
0
 10
49.29389212117232
 20
-86.813351705086973
 30
0.0
 40
138.78678941155931
 50
244.25062808570721
 51
253.9832205600685
  0
ARC
  5
38
  8
0
 10
49.29389212117232
 20
-122.8133517050869
 30
0.0
 40
138.78678941155931
 50
244.25062808570721
 51
252.25906560882689
  0
ARC
  5
39
  8
0
 10
-49.293892121173911
 20
-379.01148936044638
 30
0.0
 40
138.7867894115638
 50
64.250628085707305
 51
73.983220560068276
  0
ARC
  5
3A
  8
0
 10
49.29389212117232
 20
-110.8133517050869
 30
0.0
 40
138.78678941155931
 50
244.25062808570721
 51
253.9832205600685
  0
ARC
  5
3B
  8
0
 10
-49.293892121173911
 20
-367.01148936044638
 30
0.0
 40
138.7867894115638
 50
64.250628085707305
 51
73.983220560068276
  0
ARC
  5
3C
  8
0
 10
49.29389212117232
 20
-98.813351705086987
 30
0.0
 40
138.78678941155931
 50
244.25062808570721
 51
253.9832205600685
  0
ARC
  5
3D
  8
0
 10
-49.293892121173911
 20
-355.01148936044638
 30
0.0
 40
138.7867894115638
 50
64.250628085707305
 51
73.983220560068276
  0
LINE
  5
3E
  8
0
 10
-10.999999999999909
 20
-255.00000000000011
 30
0.0
 11
11.00000000000008
 21
-255.00000000000011
 31
0.0
  0
LINE
  5
3F
  8
0
 10
9.9999999999991758
 20
-232.0314636360761
 30
0.0
 11
9.9999999999991758
 21
-241.52839379657181
 31
0.0
  0
LINE
  5
40
  8
0
 10
9.9999999999991758
 20
-243.9214392021963
 30
0.0
 11
9.9999999999991758
 21
-253.418369362692
 31
0.0
  0
LINE
  5
41
  8
0
 10
9.9999999999989484
 20
-248.31497704898621
 30
0.0
 11
9.999999999998721
 21
-253.52839379657169
 31
0.0
  0
LINE
  5
42
  8
0
 10
9.9999999999991758
 20
-219.9214392021963
 30
0.0
 11
9.9999999999991758
 21
-229.418369362692
 31
0.0
  0
LINE
  5
43
  8
0
 10
-9.9999999999996874
 20
-236.2326784838836
 30
0.0
 11
-9.9999999999996874
 21
-245.9034018633327
 31
0.0
  0
LINE
  5
44
  8
0
 10
-9.9999999999996874
 20
-248.29644726895691
 30
0.0
 11
-9.9999999999996874
 21
-255.00000000000011
 31
0.0
  0
LINE
  5
45
  8
0
 10
-9.9999999999996874
 20
-224.2326784838836
 30
0.0
 11
-9.9999999999996874
 21
-233.9034018633327
 31
0.0
  0
ARC
  5
46
  8
0
 10
-49.293892121173911
 20
-331.01148936044638
 30
0.0
 40
138.7867894115638
 50
64.250628085707305
 51
73.983220560068276
  0
ARC
  5
47
  8
0
 10
49.29389212117232
 20
-74.813351705086973
 30
0.0
 40
138.78678941155931
 50
244.25062808570721
 51
253.9832205600685
  0
ARC
  5
48
  8
0
 10
49.29389212117232
 20
-62.813351705086973
 30
0.0
 40
138.78678941155931
 50
244.25062808570721
 51
253.9832205600685
  0
ARC
  5
49
  8
0
 10
-49.293892121173911
 20
-319.01148936044638
 30
0.0
 40
138.7867894115638
 50
64.250628085707305
 51
73.983220560068276
  0
ARC
  5
4A
  8
0
 10
-49.293892121173911
 20
-295.01148936044638
 30
0.0
 40
138.7867894115638
 50
64.250628085707305
 51
73.983220560068276
  0
ARC
  5
4B
  8
0
 10
49.29389212117232
 20
-38.813351705086973
 30
0.0
 40
138.78678941155931
 50
244.25062808570721
 51
253.9832205600685
  0
ARC
  5
4C
  8
0
 10
49.29389212117232
 20
-50.813351705086973
 30
0.0
 40
138.78678941155931
 50
244.25062808570721
 51
253.9832205600685
  0
ARC
  5
4D
  8
0
 10
-49.293892121173911
 20
-307.01148936044638
 30
0.0
 40
138.7867894115638
 50
64.250628085707305
 51
73.983220560068276
  0
ARC
  5
4E
  8
0
 10
-49.293892121173911
 20
-283.01148936044638
 30
0.0
 40
138.7867894115638
 50
64.250628085707305
 51
73.983220560068276
  0
ARC
  5
4F
  8
0
 10
49.29389212117232
 20
-26.81335170508698
 30
0.0
 40
138.78678941155931
 50
244.25062808570721
 51
253.9832205600685
  0
ARC
  5
50
  8
0
 10
49.29389212117232
 20
-14.813351705086969
 30
0.0
 40
138.78678941155931
 50
244.25062808570721
 51
253.9832205600685
  0
ARC
  5
51
  8
0
 10
-49.293892121173911
 20
-271.01148936044638
 30
0.0
 40
138.7867894115638
 50
64.250628085707305
 51
73.983220560068276
  0
ARC
  5
52
  8
0
 10
49.29389212117232
 20
-2.8133517050869719
 30
0.0
 40
138.78678941155931
 50
244.25062808570721
 51
253.9832205600685
  0
ARC
  5
53
  8
0
 10
-49.293892121173911
 20
-259.01148936044638
 30
0.0
 40
138.7867894115638
 50
64.250628085707305
 51
73.983220560068276
  0
LINE
  5
54
  8
0
 10
9.9999999999991758
 20
-160.0314636360761
 30
0.0
 11
9.9999999999991758
 21
-169.52839379657181
 31
0.0
  0
LINE
  5
55
  8
0
 10
9.9999999999991758
 20
-184.0314636360761
 30
0.0
 11
9.9999999999991758
 21
-193.52839379657181
 31
0.0
  0
LINE
  5
56
  8
0
 10
9.9999999999991758
 20
-195.92143920219621
 30
0.0
 11
9.9999999999991758
 21
-205.418369362692
 31
0.0
  0
LINE
  5
57
  8
0
 10
9.9999999999991758
 20
-171.92143920219621
 30
0.0
 11
9.9999999999991758
 21
-181.418369362692
 31
0.0
  0
LINE
  5
58
  8
0
 10
9.9999999999991758
 20
-147.92143920219621
 30
0.0
 11
9.9999999999991758
 21
-157.418369362692
 31
0.0
  0
LINE
  5
59
  8
0
 10
9.9999999999991758
 20
-136.0314636360761
 30
0.0
 11
9.9999999999991758
 21
-145.52839379657181
 31
0.0
  0
LINE
  5
5A
  8
0
 10
-9.9999999999996874
 20
-164.2326784838836
 30
0.0
 11
-9.9999999999996874
 21
-173.9034018633327
 31
0.0
  0
LINE
  5
5B
  8
0
 10
-9.9999999999996874
 20
-188.2326784838836
 30
0.0
 11
-9.9999999999996874
 21
-197.9034018633327
 31
0.0
  0
LINE
  5
5C
  8
0
 10
-9.9999999999996874
 20
-200.2326784838836
 30
0.0
 11
-9.9999999999996874
 21
-209.9034018633327
 31
0.0
  0
LINE
  5
5D
  8
0
 10
-9.9999999999996874
 20
-176.2326784838836
 30
0.0
 11
-9.9999999999996874
 21
-185.9034018633327
 31
0.0
  0
LINE
  5
5E
  8
0
 10
-9.9999999999996874
 20
-140.2326784838836
 30
0.0
 11
-9.9999999999996874
 21
-149.9034018633327
 31
0.0
  0
LINE
  5
5F
  8
0
 10
-9.9999999999996874
 20
-152.2326784838836
 30
0.0
 11
-9.9999999999996874
 21
-161.9034018633327
 31
0.0
  0
LINE
  5
60
  8
0
 10
-9.9999999999996874
 20
-128.23267848388349
 30
0.0
 11
-9.9999999999996874
 21
-137.9034018633327
 31
0.0
  0
LINE
  5
61
  8
0
 10
9.9999999999991758
 20
-27.921439202196151
 30
0.0
 11
9.9999999999991758
 21
-37.418369362691983
 31
0.0
  0
ARC
  5
62
  8
0
 10
49.29389212117232
 20
93.18664829491297
 30
0.0
 40
138.78678941155931
 50
244.25062808570721
 51
253.9832205600685
  0
ARC
  5
63
  8
0
 10
-49.293892121173911
 20
-163.0114893604464
 30
0.0
 40
138.7867894115638
 50
64.250628085707305
 51
73.983220560068276
  0
LINE
  5
64
  8
0
 10
-9.9999999999996874
 20
-32.232678483883603
 30
0.0
 11
-9.9999999999996874
 21
-41.903401863332697
 31
0.0
  0
ARC
  5
65
  8
0
 10
-49.293892121173911
 20
-247.01148936044629
 30
0.0
 40
138.7867894115638
 50
64.250628085707305
 51
73.983220560068276
  0
ARC
  5
66
  8
0
 10
-49.293892121173911
 20
-235.0114893604464
 30
0.0
 40
138.7867894115638
 50
64.250628085707305
 51
73.983220560068276
  0
ARC
  5
67
  8
0
 10
49.29389212117232
 20
21.186648294913031
 30
0.0
 40
138.78678941155931
 50
244.25062808570721
 51
253.9832205600685
  0
ARC
  5
68
  8
0
 10
49.29389212117232
 20
33.186648294913027
 30
0.0
 40
138.78678941155931
 50
244.25062808570721
 51
253.9832205600685
  0
ARC
  5
69
  8
0
 10
-49.293892121173911
 20
-223.01148936044629
 30
0.0
 40
138.7867894115638
 50
64.250628085707305
 51
73.983220560068276
  0
ARC
  5
6A
  8
0
 10
-49.293892121173911
 20
-199.01148936044629
 30
0.0
 40
138.7867894115638
 50
64.250628085707305
 51
73.983220560068276
  0
ARC
  5
6B
  8
0
 10
49.29389212117232
 20
57.18664829491302
 30
0.0
 40
138.78678941155931
 50
244.25062808570721
 51
253.9832205600685
  0
ARC
  5
6C
  8
0
 10
49.29389212117232
 20
45.18664829491302
 30
0.0
 40
138.78678941155931
 50
244.25062808570721
 51
253.9832205600685
  0
ARC
  5
6D
  8
0
 10
-49.293892121173911
 20
-211.0114893604464
 30
0.0
 40
138.7867894115638
 50
64.250628085707305
 51
73.983220560068276
  0
ARC
  5
6E
  8
0
 10
-49.293892121173911
 20
-187.0114893604464
 30
0.0
 40
138.7867894115638
 50
64.250628085707305
 51
73.983220560068276
  0
ARC
  5
6F
  8
0
 10
49.29389212117232
 20
69.186648294913013
 30
0.0
 40
138.78678941155931
 50
244.25062808570721
 51
253.9832205600685
  0
ARC
  5
70
  8
0
 10
49.29389212117232
 20
81.186648294913027
 30
0.0
 40
138.78678941155931
 50
244.25062808570721
 51
253.9832205600685
  0
ARC
  5
71
  8
0
 10
-49.293892121173911
 20
-175.01148936044629
 30
0.0
 40
138.7867894115638
 50
64.250628085707305
 51
73.983220560068276
  0
LINE
  5
72
  8
0
 10
9.9999999999991758
 20
-75.921439202196154
 30
0.0
 11
9.9999999999991758
 21
-85.418369362691976
 31
0.0
  0
LINE
  5
73
  8
0
 10
9.9999999999991758
 20
-99.921439202196154
 30
0.0
 11
9.9999999999991758
 21
-109.418369362692
 31
0.0
  0
LINE
  5
74
  8
0
 10
9.9999999999991758
 20
-112.0314636360761
 30
0.0
 11
9.9999999999991758
 21
-121.52839379657181
 31
0.0
  0
LINE
  5
75
  8
0
 10
9.9999999999991758
 20
-88.031463636076126
 30
0.0
 11
9.9999999999991758
 21
-97.528393796571734
 31
0.0
  0
LINE
  5
76
  8
0
 10
9.9999999999991758
 20
-51.921439202196147
 30
0.0
 11
9.9999999999991758
 21
-61.418369362691969
 31
0.0
  0
LINE
  5
77
  8
0
 10
9.9999999999991758
 20
-64.031463636076126
 30
0.0
 11
9.9999999999991758
 21
-73.52839379657172
 31
0.0
  0
LINE
  5
78
  8
0
 10
9.9999999999991758
 20
-40.031463636076118
 30
0.0
 11
9.9999999999991758
 21
-49.52839379657172
 31
0.0
  0
LINE
  5
79
  8
0
 10
-9.9999999999996874
 20
-92.232678483883603
 30
0.0
 11
-9.9999999999996874
 21
-101.9034018633327
 31
0.0
  0
LINE
  5
7A
  8
0
 10
-9.9999999999996874
 20
-104.2326784838835
 30
0.0
 11
-9.9999999999996874
 21
-113.9034018633326
 31
0.0
  0
LINE
  5
7B
  8
0
 10
-9.9999999999996874
 20
-80.232678483883603
 30
0.0
 11
-9.9999999999996874
 21
-89.903401863332704
 31
0.0
  0
LINE
  5
7C
  8
0
 10
-9.9999999999996874
 20
-56.232678483883603
 30
0.0
 11
-9.9999999999996874
 21
-65.903401863332704
 31
0.0
  0
LINE
  5
7D
  8
0
 10
-9.9999999999996874
 20
-68.232678483883603
 30
0.0
 11
-9.9999999999996874
 21
-77.903401863332704
 31
0.0
  0
LINE
  5
7E
  8
0
 10
-9.9999999999996874
 20
-44.232678483883603
 30
0.0
 11
-9.9999999999996874
 21
-53.903401863332697
 31
0.0
  0
ARC
  5
7F
  8
0
 10
-49.293892121173911
 20
-139.01148936044629
 30
0.0
 40
138.7867894115638
 50
64.250628085707305
 51
68.367272809969734
  0
ARC
  5
80
  8
0
 10
49.29389212117232
 20
117.1866482949129
 30
0.0
 40
138.78678941155931
 50
246.4078455645232
 51
253.9832205600685
  0
ARC
  5
81
  8
0
 10
-49.293892121173911
 20
-151.01148936044629
 30
0.0
 40
138.7867894115638
 50
64.250628085707305
 51
73.983220560068276
  0
ARC
  5
82
  8
0
 10
49.29389212117232
 20
105.1866482949129
 30
0.0
 40
138.78678941155931
 50
244.25062808570721
 51
253.9832205600685
  0
LINE
  5
83
  8
0
 10
-10.999999999999909
 20
-5.000000000000056
 30
0.0
 11
11.00000000000008
 21
-5.000000000000056
 31
0.0
  0
LINE
  5
84
  8
0
 10
9.9999999999991758
 20
-10.00000000000011
 30
0.0
 11
9.9999999999991758
 21
-13.52839379657183
 31
0.0
  0
LINE
  5
85
  8
0
 10
9.9999999999991758
 20
-15.921439202196151
 30
0.0
 11
9.9999999999991758
 21
-25.52839379657172
 31
0.0
  0
LINE
  5
86
  8
0
 10
-9.9999999999996874
 20
-10.00000000000005
 30
0.0
 11
-9.9999999999996874
 21
-17.90340186333259
 31
0.0
  0
LINE
  5
87
  8
0
 10
-9.9999999999996874
 20
-20.23267848388361
 30
0.0
 11
-9.9999999999996874
 21
-29.9034018633327
 31
0.0
  0
CIRCLE
  5
88
  8
0
 10
-27.499999999999972
 20
101.4999999999999
 30
0.0
 40
6.75
  0
CIRCLE
  5
89
  8
0
 10
27.499999999999972
 20
101.4999999999999
 30
0.0
 40
6.75
  0
CIRCLE
  5
8A
  8
0
 10
-9.9999999999999147
 20
101.4999999999999
 30
0.0
 40
2.5
  0
CIRCLE
  5
8B
  8
0
 10
10.00000000000008
 20
101.4999999999999
 30
0.0
 40
2.5
  0
CIRCLE
  5
8C
  8
0
 10
-29.999999999999972
 20
61.499999999999879
 30
0.0
 40
2.5
  0
CIRCLE
  5
8D
  8
0
 10
29.999999999999972
 20
61.499999999999879
 30
0.0
 40
2.5
  0
CIRCLE
  5
8E
  8
0
 10
-9.9999999999999147
 20
61.499999999999879
 30
0.0
 40
2.5
  0
CIRCLE
  5
8F
  8
0
 10
10.00000000000008
 20
61.499999999999879
 30
0.0
 40
2.5
  0
LINE
  5
90
  8
0
 10
-10.999999999999909
 20
-10.00000000000005
 30
0.0
 11
-15.999999999999909
 21
-5.0000000000001128
 31
0.0
  0
LINE
  5
91
  8
0
 10
11.00000000000008
 20
-10.00000000000005
 30
0.0
 11
16.000000000000082
 21
-5.0000000000001128
 31
0.0
  0
LINE
  5
92
  8
0
 10
-10.999999999999909
 20
-10.00000000000005
 30
0.0
 11
10.99999999999986
 21
-10.00000000000005
 31
0.0
  0
INSERT
  5
93
  8
0
  2
SIMPSON-STRONG-TIE
 10
-2.2999999999999821
 20
81.799999999999898
 30
0.0
  0
ENDSEC
  0
EOF
