  0
SECTION
  2
HEADER
  9
$ACADVER
  1
AC1009
  9
$INSBASE
 10
0.0
 20
0.0
 30
0.0
  9
$EXTMIN
 10
-30.0
 20
-250.2843066802796
 30
0.0
  9
$EXTMAX
 10
30.00000000000006
 20
120.0000000000001
 30
0.0
  9
$LIMMIN
 10
0.0
 20
0.0
  9
$LIMMAX
 10
420.0
 20
297.0
  9
$ORTHOMODE
 70
     0
  9
$REGENMODE
 70
     1
  9
$FILLMODE
 70
     1
  9
$QTEXTMODE
 70
     0
  9
$MIRRTEXT
 70
     1
  9
$DRAGMODE
 70
     2
  9
$LTSCALE
 40
1.0
  9
$OSMODE
 70
    47
  9
$ATTMODE
 70
     1
  9
$TEXTSIZE
 40
3.5
  9
$TRACEWID
 40
0.05
  9
$TEXTSTYLE
  7
SST
  9
$CLAYER
  8
0
  9
$CELTYPE
  6
BYLAYER
  9
$CECOLOR
 62
   256
  9
$DIMSCALE
 40
1.0
  9
$DIMASZ
 40
0.18
  9
$DIMEXO
 40
0.0625
  9
$DIMDLI
 40
0.38
  9
$DIMRND
 40
0.0
  9
$DIMDLE
 40
0.0
  9
$DIMEXE
 40
0.18
  9
$DIMTP
 40
0.0
  9
$DIMTM
 40
0.0
  9
$DIMTXT
 40
0.18
  9
$DIMCEN
 40
0.09
  9
$DIMTSZ
 40
0.0
  9
$DIMTOL
 70
     0
  9
$DIMLIM
 70
     0
  9
$DIMTIH
 70
     1
  9
$DIMTOH
 70
     1
  9
$DIMSE1
 70
     0
  9
$DIMSE2
 70
     0
  9
$DIMTAD
 70
     0
  9
$DIMZIN
 70
     0
  9
$DIMBLK
  1

  9
$DIMASO
 70
     1
  9
$DIMSHO
 70
     1
  9
$DIMPOST
  1

  9
$DIMAPOST
  1

  9
$DIMALT
 70
     0
  9
$DIMALTD
 70
     2
  9
$DIMALTF
 40
25.399999999999999
  9
$DIMLFAC
 40
1.0
  9
$DIMTOFL
 70
     0
  9
$DIMTVP
 40
0.0
  9
$DIMTIX
 70
     0
  9
$DIMSOXD
 70
     0
  9
$DIMSAH
 70
     0
  9
$DIMBLK1
  1

  9
$DIMBLK2
  1

  9
$DIMSTYLE
  2
STANDARD
  9
$DIMCLRD
 70
     0
  9
$DIMCLRE
 70
     0
  9
$DIMCLRT
 70
     0
  9
$DIMTFAC
 40
1.0
  9
$DIMGAP
 40
0.09
  9
$LUNITS
 70
     2
  9
$LUPREC
 70
     4
  9
$SKETCHINC
 40
0.1
  9
$FILLETRAD
 40
10.0
  9
$AUNITS
 70
     0
  9
$AUPREC
 70
     2
  9
$MENU
  1
acad
  9
$ELEVATION
 40
0.0
  9
$PELEVATION
 40
0.0
  9
$THICKNESS
 40
0.0
  9
$LIMCHECK
 70
     0
  9
$BLIPMODE
 70
     0
  9
$CHAMFERA
 40
10.0
  9
$CHAMFERB
 40
10.0
  9
$SKPOLY
 70
     0
  9
$TDCREATE
 40
2449450.4197234958
  9
$TDUPDATE
 40
2453443.566710602
  9
$TDINDWG
 40
1.5552189467999999
  9
$TDUSRTIMER
 40
1.5552189467999999
  9
$USRTIMER
 70
     1
  9
$ANGBASE
 50
0.0
  9
$ANGDIR
 70
     0
  9
$PDMODE
 70
     0
  9
$PDSIZE
 40
0.0
  9
$PLINEWID
 40
0.0
  9
$COORDS
 70
     1
  9
$SPLFRAME
 70
     0
  9
$SPLINETYPE
 70
     6
  9
$SPLINESEGS
 70
     8
  9
$ATTDIA
 70
     0
  9
$ATTREQ
 70
     1
  9
$HANDLING
 70
     1
  9
$HANDSEED
  5
129
  9
$SURFTAB1
 70
     6
  9
$SURFTAB2
 70
     6
  9
$SURFTYPE
 70
     6
  9
$SURFU
 70
     6
  9
$SURFV
 70
     6
  9
$UCSNAME
  2

  9
$UCSORG
 10
0.0
 20
0.0
 30
0.0
  9
$UCSXDIR
 10
1.0
 20
0.0
 30
0.0
  9
$UCSYDIR
 10
0.0
 20
1.0
 30
0.0
  9
$PUCSNAME
  2

  9
$PUCSORG
 10
0.0
 20
0.0
 30
0.0
  9
$PUCSXDIR
 10
1.0
 20
0.0
 30
0.0
  9
$PUCSYDIR
 10
0.0
 20
1.0
 30
0.0
  9
$USERI1
 70
     0
  9
$USERI2
 70
     0
  9
$USERI3
 70
     0
  9
$USERI4
 70
     0
  9
$USERI5
 70
     0
  9
$USERR1
 40
0.0
  9
$USERR2
 40
0.0
  9
$USERR3
 40
0.0
  9
$USERR4
 40
0.0
  9
$USERR5
 40
0.0
  9
$WORLDVIEW
 70
     1
  9
$SHADEDGE
 70
     3
  9
$SHADEDIF
 70
    70
  9
$TILEMODE
 70
     1
  9
$MAXACTVP
 70
    16
  9
$PLIMCHECK
 70
     0
  9
$PEXTMIN
 10
1.0000000000000000E+020
 20
1.0000000000000000E+020
 30
1.0000000000000000E+020
  9
$PEXTMAX
 10
-1.0000000000000000E+020
 20
-1.0000000000000000E+020
 30
-1.0000000000000000E+020
  9
$PLIMMIN
 10
0.0
 20
0.0
  9
$PLIMMAX
 10
420.0
 20
297.0
  9
$UNITMODE
 70
     0
  9
$VISRETAIN
 70
     0
  9
$PLINEGEN
 70
     0
  9
$PSLTSCALE
 70
     1
  0
ENDSEC
  0
SECTION
  2
TABLES
  0
TABLE
  2
VPORT
 70
     2
  0
VPORT
  2
*ACTIVE
 70
     0
 10
0.0
 20
0.0
 11
1.0
 21
1.0
 12
134.12022140144359
 22
-78.129806193825573
 13
0.0
 23
0.0
 14
0.1
 24
0.1
 15
10.0
 25
10.0
 16
0.0
 26
0.0
 36
1.0
 17
0.0
 27
0.0
 37
0.0
 40
828.7544859255371
 41
1.4993646759847521
 42
50.0
 43
0.0
 44
0.0
 50
0.0
 51
0.0
 71
     0
 72
   100
 73
     1
 74
     1
 75
     1
 76
     0
 77
     0
 78
     0
  0
ENDTAB
  0
TABLE
  2
LTYPE
 70
     1
  0
LTYPE
  2
CONTINUOUS
 70
     0
  3
Solid line
 72
    65
 73
     0
 40
0.0
  0
ENDTAB
  0
TABLE
  2
LAYER
 70
     1
  0
LAYER
  2
0
 70
     0
 62
     7
  6
CONTINUOUS
  0
ENDTAB
  0
TABLE
  2
STYLE
 70
     2
  0
STYLE
  2
STANDARD
 70
     0
 40
0.0
 41
1.0
 50
0.0
 71
     0
 42
3.0
  3
txt
  4

  0
STYLE
  2
SST
 70
     0
 40
0.0
 41
1.0
 50
0.0
 71
     0
 42
3.5
  3
romans.shx
  4

  0
ENDTAB
  0
TABLE
  2
VIEW
 70
     0
  0
ENDTAB
  0
TABLE
  2
UCS
 70
     0
  0
ENDTAB
  0
TABLE
  2
APPID
 70
     1
  0
APPID
  2
ACAD
 70
     0
  0
ENDTAB
  0
TABLE
  2
DIMSTYLE
 70
     1
  0
DIMSTYLE
  2
STANDARD
 70
     0
  3

  4

  5

  6

  7

 40
1.0
 41
0.18
 42
0.0625
 43
0.38
 44
0.18
 45
0.0
 46
0.0
 47
0.0
 48
0.0
140
0.18
141
0.09
142
0.0
143
25.399999999999999
144
1.0
145
0.0
146
1.0
147
0.09
 71
     0
 72
     0
 73
     1
 74
     1
 75
     0
 76
     0
 77
     0
 78
     0
170
     0
171
     2
172
     0
173
     0
174
     0
175
     0
176
     0
177
     0
178
     0
  0
ENDTAB
  0
ENDSEC
  0
SECTION
  2
BLOCKS
  0
BLOCK
  8
0
  2
$MODEL_SPACE
 70
     0
 10
0.0
 20
0.0
 30
0.0
  3
$MODEL_SPACE
  1

  0
ENDBLK
  5
9
  8
0
  0
BLOCK
 67
     1
  8
0
  2
$PAPER_SPACE
 70
     0
 10
0.0
 20
0.0
 30
0.0
  3
$PAPER_SPACE
  1

  0
ENDBLK
  5
E
 67
     1
  8
0
  0
ENDSEC
  0
SECTION
  2
ENTITIES
  0
LINE
  5
29
  8
0
 62
     8
 10
4.000000000000056
 20
104.2500000000001
 30
0.0
 11
-0.9999999999999431
 21
104.2500000000001
 31
0.0
  0
LINE
  5
2A
  8
0
 62
     8
 10
-3.9999999999999432
 20
95.750000000000114
 30
0.0
 11
0.0000000000000568
 21
95.750000000000114
 31
0.0
  0
LINE
  5
2B
  8
0
 62
     8
 10
-3.9999999999999432
 20
55.750000000000107
 30
0.0
 11
0.0000000000000568
 21
55.750000000000107
 31
0.0
  0
LINE
  5
2C
  8
0
 62
     8
 10
4.000000000000056
 20
64.250000000000114
 30
0.0
 11
-0.9999999999999431
 21
64.250000000000114
 31
0.0
  0
LINE
  5
2D
  8
0
 10
10.000000000000171
 20
-4.0000000000001128
 30
0.0
 11
-10.00000000000005
 21
-4.0
 31
0.0
  0
LINE
  5
2E
  8
0
 10
-14.000000000000171
 20
0.0
 30
0.0
 11
14.000000000000171
 21
0.0
 31
0.0
  0
LINE
  5
2F
  8
0
 10
-10.00000000000005
 20
-4.0
 30
0.0
 11
-14.00000000000005
 21
0.0
 31
0.0
  0
LINE
  5
30
  8
0
 10
-14.000000000000171
 20
0.0
 30
0.0
 11
-15.00000000000006
 21
0.0
 31
0.0
  0
LINE
  5
31
  8
0
 10
14.99999999999994
 20
0.0
 30
0.0
 11
14.000000000000171
 21
0.0
 31
0.0
  0
LINE
  5
32
  8
0
 10
10.000000000000171
 20
-4.0
 30
0.0
 11
14.000000000000171
 21
0.0
 31
0.0
  0
LINE
  5
33
  8
0
 10
-3.9999999999999432
 20
15.0
 30
0.0
 11
-3.9999999999999432
 21
120.0000000000001
 31
0.0
  0
LINE
  5
34
  8
0
 10
-3.9999999999999432
 20
120.0000000000001
 30
0.0
 11
4.000000000000056
 21
120.0000000000001
 31
0.0
  0
LINE
  5
35
  8
0
 10
4.000000000000056
 20
120.0000000000001
 30
0.0
 11
4.000000000000056
 21
15.0
 31
0.0
  0
LINE
  5
36
  8
0
 10
-30.0
 20
0.0
 30
0.0
 11
-30.0
 21
10.0
 31
0.0
  0
LINE
  5
37
  8
0
 10
-30.0
 20
10.0
 30
0.0
 11
-8.9999999999999432
 21
10.0
 31
0.0
  0
LINE
  5
38
  8
0
 10
30.00000000000006
 20
10.0
 30
0.0
 11
30.00000000000006
 21
0.0
 31
0.0
  0
LINE
  5
39
  8
0
 10
30.00000000000006
 20
0.0
 30
0.0
 11
-30.0
 21
0.0
 31
0.0
  0
LINE
  5
3A
  8
0
 10
-3.9999999999999432
 20
15.0
 30
0.0
 11
4.000000000000056
 21
15.0
 31
0.0
  0
LINE
  5
3B
  8
0
 10
4.000000000000056
 20
15.0
 30
0.0
 11
9.0000000000000568
 21
10.0
 31
0.0
  0
LINE
  5
3C
  8
0
 10
-3.9999999999999432
 20
15.0
 30
0.0
 11
-8.9999999999999432
 21
10.0
 31
0.0
  0
LINE
  5
3D
  8
0
 10
9.0000000000000568
 20
10.0
 30
0.0
 11
30.00000000000006
 21
10.0
 31
0.0
  0
LINE
  5
3E
  8
0
 10
-8.9999999999999432
 20
10.0
 30
0.0
 11
9.0000000000000568
 21
10.0
 31
0.0
  0
LINE
  5
3F
  8
0
 10
-2.0000000000001128
 20
-4.000000000000056
 30
0.0
 11
-2.0000000000002549
 21
-250.0
 31
0.0
  0
LINE
  5
40
  8
0
 10
-10.00000000000025
 20
-250.0
 30
0.0
 11
9.9999999999998561
 21
-250.0
 31
0.0
  0
LINE
  5
41
  8
0
 10
-11.00000000000025
 20
-244.80904261380169
 30
0.0
 11
-11.00000000000025
 21
-247.01579845172631
 31
0.0
  0
ARC
  5
42
  8
0
 10
-8.6154600685086091
 20
-244.4138979202811
 30
0.0
 40
2.417058132047242
 50
124.94712799183731
 51
189.4090427875108
  0
LINE
  5
43
  8
0
 10
-10.00000000000025
 20
-236.2869517762781
 30
0.0
 11
-10.00000000000025
 21
-246.08019593835331
 31
0.0
  0
ARC
  5
44
  8
0
 10
-3.105177962221461
 20
-239.62720772158471
 30
0.0
 40
9.4434965906910957
 50
213.27923982350899
 51
276.72076017648999
  0
ARC
  5
45
  8
0
 10
-4.8275305361560461
 20
-244.6566379333745
 30
0.0
 40
6.6079510919375126
 50
200.91720190638929
 51
233.96191915340441
  0
LINE
  5
46
  8
0
 10
-10.00000000000025
 20
-248.76888516317939
 30
0.0
 11
-10.00000000000025
 21
-250.0
 31
0.0
  0
ARC
  5
47
  8
0
 10
-8.6154600685086091
 20
-232.41389792028119
 30
0.0
 40
2.417058132047242
 50
124.94712799183731
 51
189.4090427875108
  0
ARC
  5
48
  8
0
 10
-3.105177962221461
 20
-227.6272077215848
 30
0.0
 40
9.4434965906910957
 50
213.27923982350899
 51
276.72076017648999
  0
ARC
  5
49
  8
0
 10
-3.105177962221461
 20
-229.8339635595095
 30
0.0
 40
9.4434965906910957
 50
213.27923982350899
 51
276.72076017648999
  0
LINE
  5
4A
  8
0
 10
-11.00000000000025
 20
-232.80904261380161
 30
0.0
 11
-11.00000000000025
 21
-235.01579845172631
 31
0.0
  0
LINE
  5
4B
  8
0
 10
-10.00000000000025
 20
-224.28695177627819
 30
0.0
 11
-10.00000000000025
 21
-234.0801959383532
 31
0.0
  0
LINE
  5
4C
  8
0
 10
1.999999999999744
 20
-4.000000000000056
 30
0.0
 11
1.999999999999744
 21
-250.0
 31
0.0
  0
LINE
  5
4D
  8
0
 10
9.9999999999997442
 20
-224.28695177627819
 30
0.0
 11
9.9999999999998561
 21
-234.0801959383532
 31
0.0
  0
ARC
  5
4E
  8
0
 10
3.1051779622210631
 20
-239.62720772158471
 30
0.0
 40
9.4434965906910957
 50
263.27923982351001
 51
326.72076017649113
  0
ARC
  5
4F
  8
0
 10
3.1051779622210631
 20
-227.6272077215848
 30
0.0
 40
9.4434965906910957
 50
263.27923982351001
 51
326.72076017649113
  0
ARC
  5
50
  8
0
 10
3.1051779622210631
 20
-229.8339635595095
 30
0.0
 40
9.4434965906910957
 50
263.27923982351001
 51
326.72076017649113
  0
ARC
  5
51
  8
0
 10
8.6154600685080993
 20
-244.4138979202811
 30
0.0
 40
2.417058132047242
 50
350.59095721248917
 51
55.052872008162652
  0
LINE
  5
52
  8
0
 10
9.9999999999998561
 20
-236.2869517762781
 30
0.0
 11
9.9999999999998561
 21
-246.08019593835331
 31
0.0
  0
LINE
  5
53
  8
0
 10
10.999999999999741
 20
-244.80904261380201
 30
0.0
 11
10.999999999999741
 21
-247.01579845172631
 31
0.0
  0
LINE
  5
54
  8
0
 10
9.9999999999998561
 20
-248.76888516317939
 30
0.0
 11
9.9999999999998561
 21
-250.0
 31
0.0
  0
ARC
  5
55
  8
0
 10
4.8275305361557619
 20
-244.6566379333745
 30
0.0
 40
6.6079510919375126
 50
306.03808084659562
 51
339.08279809361062
  0
ARC
  5
56
  8
0
 10
8.6154600685080993
 20
-232.41389792028119
 30
0.0
 40
2.417058132047242
 50
350.59095721248917
 51
55.052872008162652
  0
LINE
  5
57
  8
0
 10
10.999999999999741
 20
-232.80904261380169
 30
0.0
 11
10.999999999999741
 21
-235.01579845172631
 31
0.0
  0
LINE
  5
58
  8
0
 10
-10.00000000000025
 20
-212.28695177627819
 30
0.0
 11
-10.00000000000025
 21
-222.08019593835331
 31
0.0
  0
ARC
  5
59
  8
0
 10
-8.6154600685086091
 20
-220.41389792028119
 30
0.0
 40
2.417058132047242
 50
124.94712799183731
 51
189.4090427875108
  0
ARC
  5
5A
  8
0
 10
-3.105177962221461
 20
-215.62720772158471
 30
0.0
 40
9.4434965906910957
 50
213.27923982350899
 51
276.72076017648999
  0
LINE
  5
5B
  8
0
 10
-11.00000000000025
 20
-220.80904261380161
 30
0.0
 11
-11.00000000000025
 21
-223.01579845172631
 31
0.0
  0
LINE
  5
5C
  8
0
 10
9.9999999999997442
 20
-212.28695177627819
 30
0.0
 11
9.9999999999998561
 21
-222.0801959383532
 31
0.0
  0
ARC
  5
5D
  8
0
 10
8.6154600685080993
 20
-220.41389792028119
 30
0.0
 40
2.417058132047242
 50
350.59095721248917
 51
55.052872008162652
  0
ARC
  5
5E
  8
0
 10
3.1051779622210631
 20
-215.62720772158471
 30
0.0
 40
9.4434965906910957
 50
263.27923982351001
 51
326.72076017649113
  0
LINE
  5
5F
  8
0
 10
10.999999999999741
 20
-220.80904261380169
 30
0.0
 11
10.999999999999741
 21
-223.01579845172631
 31
0.0
  0
ARC
  5
60
  8
0
 10
-3.105177962221461
 20
-217.8339635595095
 30
0.0
 40
9.4434965906910957
 50
213.27923982350899
 51
276.72076017648999
  0
ARC
  5
61
  8
0
 10
3.1051779622210631
 20
-217.8339635595095
 30
0.0
 40
9.4434965906910957
 50
263.27923982351001
 51
326.72076017649113
  0
LINE
  5
62
  8
0
 10
-10.00000000000025
 20
-200.2869517762781
 30
0.0
 11
-10.00000000000025
 21
-210.08019593835331
 31
0.0
  0
ARC
  5
63
  8
0
 10
-8.6154600685086091
 20
-208.4138979202811
 30
0.0
 40
2.417058132047242
 50
124.94712799183731
 51
189.4090427875108
  0
ARC
  5
64
  8
0
 10
-3.105177962221461
 20
-205.8339635595095
 30
0.0
 40
9.4434965906910957
 50
213.27923982350899
 51
276.72076017648999
  0
ARC
  5
65
  8
0
 10
-3.105177962221461
 20
-203.62720772158471
 30
0.0
 40
9.4434965906910957
 50
213.27923982350899
 51
276.72076017648999
  0
LINE
  5
66
  8
0
 10
-11.00000000000025
 20
-208.80904261380161
 30
0.0
 11
-11.00000000000025
 21
-211.01579845172631
 31
0.0
  0
ARC
  5
67
  8
0
 10
-3.105177962221461
 20
-193.8339635595095
 30
0.0
 40
9.4434965906910957
 50
213.27923982350899
 51
276.72076017648999
  0
ARC
  5
68
  8
0
 10
-3.105177962221461
 20
-191.62720772158471
 30
0.0
 40
9.4434965906910957
 50
213.27923982350899
 51
276.72076017648999
  0
LINE
  5
69
  8
0
 10
-11.00000000000025
 20
-196.80904261380161
 30
0.0
 11
-11.00000000000025
 21
-199.01579845172631
 31
0.0
  0
ARC
  5
6A
  8
0
 10
-8.6154600685086091
 20
-196.4138979202811
 30
0.0
 40
2.417058132047242
 50
124.94712799183731
 51
189.4090427875108
  0
LINE
  5
6B
  8
0
 10
-10.00000000000025
 20
-188.2869517762781
 30
0.0
 11
-10.00000000000025
 21
-198.08019593835331
 31
0.0
  0
LINE
  5
6C
  8
0
 10
9.9999999999997442
 20
-200.2869517762781
 30
0.0
 11
9.9999999999998561
 21
-210.08019593835331
 31
0.0
  0
ARC
  5
6D
  8
0
 10
8.6154600685080993
 20
-208.4138979202811
 30
0.0
 40
2.417058132047242
 50
350.59095721248917
 51
55.052872008162652
  0
ARC
  5
6E
  8
0
 10
3.1051779622210631
 20
-203.62720772158471
 30
0.0
 40
9.4434965906910957
 50
263.27923982351001
 51
326.72076017649113
  0
ARC
  5
6F
  8
0
 10
3.1051779622210631
 20
-205.8339635595095
 30
0.0
 40
9.4434965906910957
 50
263.27923982351001
 51
326.72076017649113
  0
LINE
  5
70
  8
0
 10
10.999999999999741
 20
-208.80904261380169
 30
0.0
 11
10.999999999999741
 21
-211.01579845172631
 31
0.0
  0
ARC
  5
71
  8
0
 10
3.1051779622210631
 20
-193.8339635595095
 30
0.0
 40
9.4434965906910957
 50
263.27923982351001
 51
326.72076017649113
  0
ARC
  5
72
  8
0
 10
3.1051779622210631
 20
-191.62720772158471
 30
0.0
 40
9.4434965906910957
 50
263.27923982351001
 51
326.72076017649113
  0
LINE
  5
73
  8
0
 10
10.999999999999741
 20
-196.80904261380169
 30
0.0
 11
10.999999999999741
 21
-199.01579845172631
 31
0.0
  0
ARC
  5
74
  8
0
 10
8.6154600685080993
 20
-196.4138979202811
 30
0.0
 40
2.417058132047242
 50
350.59095721248917
 51
55.052872008162652
  0
LINE
  5
75
  8
0
 10
9.9999999999997442
 20
-188.2869517762781
 30
0.0
 11
9.9999999999998561
 21
-198.0801959383532
 31
0.0
  0
LINE
  5
76
  8
0
 10
-11.00000000000025
 20
-184.80904261380161
 30
0.0
 11
-11.00000000000025
 21
-187.01579845172631
 31
0.0
  0
ARC
  5
77
  8
0
 10
-3.105177962221461
 20
-179.62720772158471
 30
0.0
 40
9.4434965906910957
 50
213.27923982350899
 51
276.72076017648999
  0
LINE
  5
78
  8
0
 10
-10.00000000000025
 20
-176.28695177627819
 30
0.0
 11
-10.00000000000025
 21
-186.0801959383532
 31
0.0
  0
ARC
  5
79
  8
0
 10
-3.105177962221461
 20
-181.8339635595095
 30
0.0
 40
9.4434965906910957
 50
213.27923982350899
 51
276.72076017648999
  0
ARC
  5
7A
  8
0
 10
-3.105177962221461
 20
-167.62720772158471
 30
0.0
 40
9.4434965906910957
 50
213.27923982350899
 51
276.72076017648999
  0
ARC
  5
7B
  8
0
 10
-3.105177962221461
 20
-169.83396355950961
 30
0.0
 40
9.4434965906910957
 50
213.27923982350899
 51
276.72076017648999
  0
LINE
  5
7C
  8
0
 10
-10.00000000000025
 20
-164.28695177627819
 30
0.0
 11
-10.00000000000025
 21
-174.08019593835331
 31
0.0
  0
LINE
  5
7D
  8
0
 10
-11.00000000000025
 20
-172.80904261380161
 30
0.0
 11
-11.00000000000025
 21
-175.01579845172631
 31
0.0
  0
ARC
  5
7E
  8
0
 10
-8.6154600685086091
 20
-184.4138979202811
 30
0.0
 40
2.417058132047242
 50
124.94712799183731
 51
189.4090427875108
  0
ARC
  5
7F
  8
0
 10
-8.6154600685086091
 20
-172.41389792028119
 30
0.0
 40
2.417058132047242
 50
124.94712799183731
 51
189.4090427875108
  0
LINE
  5
80
  8
0
 10
10.999999999999741
 20
-184.80904261380169
 30
0.0
 11
10.999999999999741
 21
-187.01579845172631
 31
0.0
  0
ARC
  5
81
  8
0
 10
3.1051779622210631
 20
-179.62720772158471
 30
0.0
 40
9.4434965906910957
 50
263.27923982351001
 51
326.72076017649113
  0
LINE
  5
82
  8
0
 10
9.9999999999997442
 20
-176.28695177627819
 30
0.0
 11
9.9999999999998561
 21
-186.0801959383532
 31
0.0
  0
ARC
  5
83
  8
0
 10
3.1051779622210631
 20
-181.8339635595095
 30
0.0
 40
9.4434965906910957
 50
263.27923982351001
 51
326.72076017649113
  0
ARC
  5
84
  8
0
 10
3.1051779622210631
 20
-167.62720772158471
 30
0.0
 40
9.4434965906910957
 50
263.27923982351001
 51
326.72076017649113
  0
ARC
  5
85
  8
0
 10
3.1051779622210631
 20
-169.83396355950961
 30
0.0
 40
9.4434965906910957
 50
263.27923982351001
 51
326.72076017649113
  0
LINE
  5
86
  8
0
 10
9.9999999999997442
 20
-164.28695177627819
 30
0.0
 11
9.9999999999998561
 21
-174.08019593835331
 31
0.0
  0
LINE
  5
87
  8
0
 10
10.999999999999741
 20
-172.80904261380169
 30
0.0
 11
10.999999999999741
 21
-175.01579845172631
 31
0.0
  0
ARC
  5
88
  8
0
 10
8.6154600685080993
 20
-184.4138979202811
 30
0.0
 40
2.417058132047242
 50
350.59095721248917
 51
55.052872008162652
  0
ARC
  5
89
  8
0
 10
8.6154600685080993
 20
-172.41389792028119
 30
0.0
 40
2.417058132047242
 50
350.59095721248917
 51
55.052872008162652
  0
ARC
  5
8A
  8
0
 10
-3.105177962221461
 20
-155.62720772158471
 30
0.0
 40
9.4434965906910957
 50
213.27923982350899
 51
276.72076017648999
  0
LINE
  5
8B
  8
0
 10
-11.00000000000025
 20
-160.80904261380161
 30
0.0
 11
-11.00000000000025
 21
-163.01579845172631
 31
0.0
  0
ARC
  5
8C
  8
0
 10
-3.105177962221461
 20
-157.83396355950961
 30
0.0
 40
9.4434965906910957
 50
213.27923982350899
 51
276.72076017648999
  0
ARC
  5
8D
  8
0
 10
-3.105177962221461
 20
-145.83396355950961
 30
0.0
 40
9.4434965906910957
 50
213.27923982350899
 51
276.72076017648999
  0
ARC
  5
8E
  8
0
 10
-3.105177962221461
 20
-143.62720772158471
 30
0.0
 40
9.4434965906910957
 50
213.27923982350899
 51
276.72076017648999
  0
ARC
  5
8F
  8
0
 10
-8.6154600685086091
 20
-160.41389792028119
 30
0.0
 40
2.417058132047242
 50
124.94712799183731
 51
189.4090427875108
  0
LINE
  5
90
  8
0
 10
-10.00000000000025
 20
-152.28695177627819
 30
0.0
 11
-10.00000000000025
 21
-162.08019593835331
 31
0.0
  0
ARC
  5
91
  8
0
 10
-8.6154600685086091
 20
-148.41389792028119
 30
0.0
 40
2.417058132047242
 50
124.94712799183731
 51
189.4090427875108
  0
LINE
  5
92
  8
0
 10
-11.00000000000025
 20
-148.80904261380161
 30
0.0
 11
-11.00000000000025
 21
-151.01579845172631
 31
0.0
  0
LINE
  5
93
  8
0
 10
-10.00000000000025
 20
-140.28695177627819
 30
0.0
 11
-10.00000000000025
 21
-150.08019593835331
 31
0.0
  0
ARC
  5
94
  8
0
 10
3.1051779622210631
 20
-155.62720772158471
 30
0.0
 40
9.4434965906910957
 50
263.27923982351001
 51
326.72076017649113
  0
LINE
  5
95
  8
0
 10
10.999999999999741
 20
-160.80904261380169
 30
0.0
 11
10.999999999999741
 21
-163.01579845172631
 31
0.0
  0
ARC
  5
96
  8
0
 10
3.1051779622210631
 20
-157.83396355950961
 30
0.0
 40
9.4434965906910957
 50
263.27923982351001
 51
326.72076017649113
  0
ARC
  5
97
  8
0
 10
3.1051779622210631
 20
-145.83396355950961
 30
0.0
 40
9.4434965906910957
 50
263.27923982351001
 51
326.72076017649113
  0
ARC
  5
98
  8
0
 10
3.1051779622210631
 20
-143.62720772158471
 30
0.0
 40
9.4434965906910957
 50
263.27923982351001
 51
326.72076017649113
  0
ARC
  5
99
  8
0
 10
8.6154600685080993
 20
-160.41389792028119
 30
0.0
 40
2.417058132047242
 50
350.59095721248917
 51
55.052872008162652
  0
LINE
  5
9A
  8
0
 10
9.9999999999997442
 20
-152.28695177627819
 30
0.0
 11
9.9999999999998561
 21
-162.0801959383532
 31
0.0
  0
ARC
  5
9B
  8
0
 10
8.6154600685080993
 20
-148.41389792028119
 30
0.0
 40
2.417058132047242
 50
350.59095721248917
 51
55.052872008162652
  0
LINE
  5
9C
  8
0
 10
10.999999999999741
 20
-148.80904261380169
 30
0.0
 11
10.999999999999741
 21
-151.01579845172631
 31
0.0
  0
LINE
  5
9D
  8
0
 10
9.9999999999997442
 20
-140.28695177627819
 30
0.0
 11
9.9999999999998561
 21
-150.08019593835331
 31
0.0
  0
ARC
  5
9E
  8
0
 10
-3.105177962221461
 20
-133.83396355950961
 30
0.0
 40
9.4434965906910957
 50
213.27923982350899
 51
276.72076017648999
  0
ARC
  5
9F
  8
0
 10
-3.105177962221461
 20
-131.62720772158471
 30
0.0
 40
9.4434965906910957
 50
213.27923982350899
 51
276.72076017648999
  0
LINE
  5
A0
  8
0
 10
-10.00000000000025
 20
-116.2869517762782
 30
0.0
 11
-10.00000000000025
 21
-126.0801959383533
 31
0.0
  0
ARC
  5
A1
  8
0
 10
-3.105177962221461
 20
-119.6272077215847
 30
0.0
 40
9.4434965906910957
 50
213.27923982350899
 51
276.72076017648999
  0
ARC
  5
A2
  8
0
 10
-3.105177962221461
 20
-121.8339635595096
 30
0.0
 40
9.4434965906910957
 50
213.27923982350899
 51
276.72076017648999
  0
LINE
  5
A3
  8
0
 10
-10.00000000000025
 20
-128.28695177627819
 30
0.0
 11
-10.00000000000025
 21
-138.08019593835331
 31
0.0
  0
ARC
  5
A4
  8
0
 10
-8.6154600685086091
 20
-136.41389792028119
 30
0.0
 40
2.417058132047242
 50
124.94712799183731
 51
189.4090427875108
  0
LINE
  5
A5
  8
0
 10
-11.00000000000025
 20
-136.80904261380161
 30
0.0
 11
-11.00000000000025
 21
-139.0157984517264
 31
0.0
  0
ARC
  5
A6
  8
0
 10
-8.6154600685086091
 20
-124.4138979202812
 30
0.0
 40
2.417058132047242
 50
124.94712799183731
 51
189.4090427875108
  0
LINE
  5
A7
  8
0
 10
-11.00000000000025
 20
-124.80904261380159
 30
0.0
 11
-11.00000000000025
 21
-127.0157984517263
 31
0.0
  0
ARC
  5
A8
  8
0
 10
3.1051779622210631
 20
-133.83396355950961
 30
0.0
 40
9.4434965906910957
 50
263.27923982351001
 51
326.72076017649113
  0
ARC
  5
A9
  8
0
 10
3.1051779622210631
 20
-131.62720772158471
 30
0.0
 40
9.4434965906910957
 50
263.27923982351001
 51
326.72076017649113
  0
LINE
  5
AA
  8
0
 10
9.9999999999997442
 20
-116.2869517762782
 30
0.0
 11
9.9999999999998561
 21
-126.0801959383533
 31
0.0
  0
ARC
  5
AB
  8
0
 10
3.1051779622210631
 20
-119.6272077215847
 30
0.0
 40
9.4434965906910957
 50
263.27923982351001
 51
326.72076017649113
  0
ARC
  5
AC
  8
0
 10
3.1051779622210631
 20
-121.8339635595096
 30
0.0
 40
9.4434965906910957
 50
263.27923982351001
 51
326.72076017649113
  0
LINE
  5
AD
  8
0
 10
9.9999999999997442
 20
-128.28695177627819
 30
0.0
 11
9.9999999999998561
 21
-138.0801959383532
 31
0.0
  0
ARC
  5
AE
  8
0
 10
8.6154600685080993
 20
-136.41389792028119
 30
0.0
 40
2.417058132047242
 50
350.59095721248917
 51
55.052872008162652
  0
LINE
  5
AF
  8
0
 10
10.999999999999741
 20
-136.80904261380169
 30
0.0
 11
10.999999999999741
 21
-139.0157984517264
 31
0.0
  0
LINE
  5
B0
  8
0
 10
10.999999999999741
 20
-124.80904261380169
 30
0.0
 11
10.999999999999741
 21
-127.0157984517263
 31
0.0
  0
ARC
  5
B1
  8
0
 10
8.6154600685080993
 20
-124.4138979202812
 30
0.0
 40
2.417058132047242
 50
350.59095721248917
 51
55.052872008162652
  0
LINE
  5
B2
  8
0
 10
-10.00000000000025
 20
-92.286951776278215
 30
0.0
 11
-10.00000000000025
 21
-102.0801959383533
 31
0.0
  0
ARC
  5
B3
  8
0
 10
-3.105177962221461
 20
-107.6272077215847
 30
0.0
 40
9.4434965906910957
 50
213.27923982350899
 51
276.72076017648999
  0
ARC
  5
B4
  8
0
 10
-3.105177962221461
 20
-109.8339635595096
 30
0.0
 40
9.4434965906910957
 50
213.27923982350899
 51
276.72076017648999
  0
ARC
  5
B5
  8
0
 10
-3.105177962221461
 20
-97.833963559509584
 30
0.0
 40
9.4434965906910957
 50
213.27923982350899
 51
276.72076017648999
  0
ARC
  5
B6
  8
0
 10
-3.105177962221461
 20
-95.627207721584739
 30
0.0
 40
9.4434965906910957
 50
213.27923982350899
 51
276.72076017648999
  0
LINE
  5
B7
  8
0
 10
-10.00000000000025
 20
-104.2869517762782
 30
0.0
 11
-10.00000000000025
 21
-114.0801959383533
 31
0.0
  0
ARC
  5
B8
  8
0
 10
-8.6154600685086091
 20
-112.4138979202812
 30
0.0
 40
2.417058132047242
 50
124.94712799183731
 51
189.4090427875108
  0
LINE
  5
B9
  8
0
 10
-11.00000000000025
 20
-112.80904261380159
 30
0.0
 11
-11.00000000000025
 21
-115.0157984517264
 31
0.0
  0
ARC
  5
BA
  8
0
 10
-8.6154600685086091
 20
-100.4138979202812
 30
0.0
 40
2.417058132047242
 50
124.94712799183731
 51
189.4090427875108
  0
LINE
  5
BB
  8
0
 10
-11.00000000000025
 20
-100.80904261380159
 30
0.0
 11
-11.00000000000025
 21
-103.0157984517263
 31
0.0
  0
LINE
  5
BC
  8
0
 10
9.9999999999997442
 20
-92.286951776278215
 30
0.0
 11
9.9999999999998561
 21
-102.0801959383533
 31
0.0
  0
ARC
  5
BD
  8
0
 10
3.1051779622210631
 20
-107.6272077215847
 30
0.0
 40
9.4434965906910957
 50
263.27923982351001
 51
326.72076017649113
  0
ARC
  5
BE
  8
0
 10
3.1051779622210631
 20
-109.8339635595096
 30
0.0
 40
9.4434965906910957
 50
263.27923982351001
 51
326.72076017649113
  0
ARC
  5
BF
  8
0
 10
3.1051779622210631
 20
-97.833963559509584
 30
0.0
 40
9.4434965906910957
 50
263.27923982351001
 51
326.72076017649113
  0
ARC
  5
C0
  8
0
 10
3.1051779622210631
 20
-95.627207721584739
 30
0.0
 40
9.4434965906910957
 50
263.27923982351001
 51
326.72076017649113
  0
LINE
  5
C1
  8
0
 10
9.9999999999997442
 20
-104.2869517762782
 30
0.0
 11
9.9999999999998561
 21
-114.0801959383533
 31
0.0
  0
LINE
  5
C2
  8
0
 10
10.999999999999741
 20
-112.80904261380169
 30
0.0
 11
10.999999999999741
 21
-115.0157984517264
 31
0.0
  0
ARC
  5
C3
  8
0
 10
8.6154600685080993
 20
-112.4138979202812
 30
0.0
 40
2.417058132047242
 50
350.59095721248917
 51
55.052872008162652
  0
ARC
  5
C4
  8
0
 10
8.6154600685080993
 20
-100.4138979202812
 30
0.0
 40
2.417058132047242
 50
350.59095721248917
 51
55.052872008162652
  0
LINE
  5
C5
  8
0
 10
10.999999999999741
 20
-100.80904261380169
 30
0.0
 11
10.999999999999741
 21
-103.0157984517263
 31
0.0
  0
ARC
  5
C6
  8
0
 10
-3.105177962221461
 20
-85.833963559509584
 30
0.0
 40
9.4434965906910957
 50
213.27923982350899
 51
276.72076017648999
  0
LINE
  5
C7
  8
0
 10
-10.00000000000025
 20
-68.286951776278215
 30
0.0
 11
-10.00000000000025
 21
-78.080195938353313
 31
0.0
  0
ARC
  5
C8
  8
0
 10
-3.105177962221461
 20
-71.627207721584739
 30
0.0
 40
9.4434965906910957
 50
213.27923982350899
 51
276.72076017648999
  0
ARC
  5
C9
  8
0
 10
-3.105177962221461
 20
-73.833963559509584
 30
0.0
 40
9.4434965906910957
 50
213.27923982350899
 51
276.72076017648999
  0
ARC
  5
CA
  8
0
 10
-3.105177962221461
 20
-83.627207721584725
 30
0.0
 40
9.4434965906910957
 50
213.27923982350899
 51
276.72076017648999
  0
LINE
  5
CB
  8
0
 10
-10.00000000000025
 20
-80.286951776278215
 30
0.0
 11
-10.00000000000025
 21
-90.080195938353313
 31
0.0
  0
ARC
  5
CC
  8
0
 10
-8.6154600685086091
 20
-88.413897920281215
 30
0.0
 40
2.417058132047242
 50
124.94712799183731
 51
189.4090427875108
  0
LINE
  5
CD
  8
0
 10
-11.00000000000025
 20
-88.809042613801637
 30
0.0
 11
-11.00000000000025
 21
-91.015798451726354
 31
0.0
  0
ARC
  5
CE
  8
0
 10
-8.6154600685086091
 20
-76.413897920281215
 30
0.0
 40
2.417058132047242
 50
124.94712799183731
 51
189.4090427875108
  0
LINE
  5
CF
  8
0
 10
-11.00000000000025
 20
-76.809042613801637
 30
0.0
 11
-11.00000000000025
 21
-79.015798451726369
 31
0.0
  0
ARC
  5
D0
  8
0
 10
3.1051779622210631
 20
-85.833963559509584
 30
0.0
 40
9.4434965906910957
 50
263.27923982351001
 51
326.72076017649113
  0
LINE
  5
D1
  8
0
 10
9.9999999999997442
 20
-68.286951776278215
 30
0.0
 11
9.9999999999998561
 21
-78.080195938353313
 31
0.0
  0
ARC
  5
D2
  8
0
 10
3.1051779622210631
 20
-71.627207721584739
 30
0.0
 40
9.4434965906910957
 50
263.27923982351001
 51
326.72076017649113
  0
ARC
  5
D3
  8
0
 10
3.1051779622210631
 20
-73.833963559509584
 30
0.0
 40
9.4434965906910957
 50
263.27923982351001
 51
326.72076017649113
  0
ARC
  5
D4
  8
0
 10
3.1051779622210631
 20
-83.627207721584725
 30
0.0
 40
9.4434965906910957
 50
263.27923982351001
 51
326.72076017649113
  0
LINE
  5
D5
  8
0
 10
9.9999999999997442
 20
-80.286951776278215
 30
0.0
 11
9.9999999999998561
 21
-90.080195938353313
 31
0.0
  0
ARC
  5
D6
  8
0
 10
8.6154600685080993
 20
-88.413897920281215
 30
0.0
 40
2.417058132047242
 50
350.59095721248917
 51
55.052872008162652
  0
LINE
  5
D7
  8
0
 10
10.999999999999741
 20
-88.809042613801694
 30
0.0
 11
10.999999999999741
 21
-91.015798451726354
 31
0.0
  0
LINE
  5
D8
  8
0
 10
10.999999999999741
 20
-76.809042613801694
 30
0.0
 11
10.999999999999741
 21
-79.015798451726369
 31
0.0
  0
ARC
  5
D9
  8
0
 10
8.6154600685080993
 20
-76.413897920281215
 30
0.0
 40
2.417058132047242
 50
350.59095721248917
 51
55.052872008162652
  0
LINE
  5
DA
  8
0
 10
-10.00000000000025
 20
-44.286951776278222
 30
0.0
 11
-10.00000000000025
 21
-54.080195938353313
 31
0.0
  0
ARC
  5
DB
  8
0
 10
-3.105177962221461
 20
-59.627207721584739
 30
0.0
 40
9.4434965906910957
 50
213.27923982350899
 51
276.72076017648999
  0
ARC
  5
DC
  8
0
 10
-3.105177962221461
 20
-49.833963559509577
 30
0.0
 40
9.4434965906910957
 50
213.27923982350899
 51
276.72076017648999
  0
ARC
  5
DD
  8
0
 10
-3.105177962221461
 20
-47.627207721584732
 30
0.0
 40
9.4434965906910957
 50
213.27923982350899
 51
276.72076017648999
  0
ARC
  5
DE
  8
0
 10
-3.105177962221461
 20
-61.833963559509577
 30
0.0
 40
9.4434965906910957
 50
213.27923982350899
 51
276.72076017648999
  0
LINE
  5
DF
  8
0
 10
-10.00000000000025
 20
-56.286951776278222
 30
0.0
 11
-10.00000000000025
 21
-66.080195938353313
 31
0.0
  0
ARC
  5
E0
  8
0
 10
-8.6154600685086091
 20
-64.413897920281215
 30
0.0
 40
2.417058132047242
 50
124.94712799183731
 51
189.4090427875108
  0
LINE
  5
E1
  8
0
 10
-11.00000000000025
 20
-64.809042613801637
 30
0.0
 11
-11.00000000000025
 21
-67.015798451726369
 31
0.0
  0
ARC
  5
E2
  8
0
 10
-8.6154600685086091
 20
-52.413897920281222
 30
0.0
 40
2.417058132047242
 50
124.94712799183731
 51
189.4090427875108
  0
LINE
  5
E3
  8
0
 10
-11.00000000000025
 20
-52.809042613801637
 30
0.0
 11
-11.00000000000025
 21
-55.015798451726369
 31
0.0
  0
LINE
  5
E4
  8
0
 10
9.9999999999997442
 20
-44.286951776278222
 30
0.0
 11
9.9999999999998561
 21
-54.080195938353313
 31
0.0
  0
ARC
  5
E5
  8
0
 10
3.1051779622210631
 20
-59.627207721584739
 30
0.0
 40
9.4434965906910957
 50
263.27923982351001
 51
326.72076017649113
  0
ARC
  5
E6
  8
0
 10
3.1051779622210631
 20
-49.833963559509577
 30
0.0
 40
9.4434965906910957
 50
263.27923982351001
 51
326.72076017649113
  0
ARC
  5
E7
  8
0
 10
3.1051779622210631
 20
-47.627207721584732
 30
0.0
 40
9.4434965906910957
 50
263.27923982351001
 51
326.72076017649113
  0
ARC
  5
E8
  8
0
 10
3.1051779622210631
 20
-61.833963559509577
 30
0.0
 40
9.4434965906910957
 50
263.27923982351001
 51
326.72076017649113
  0
LINE
  5
E9
  8
0
 10
9.9999999999997442
 20
-56.286951776278222
 30
0.0
 11
9.9999999999998561
 21
-66.080195938353313
 31
0.0
  0
LINE
  5
EA
  8
0
 10
10.999999999999741
 20
-64.809042613801694
 30
0.0
 11
10.999999999999741
 21
-67.015798451726369
 31
0.0
  0
ARC
  5
EB
  8
0
 10
8.6154600685080993
 20
-64.413897920281215
 30
0.0
 40
2.417058132047242
 50
350.59095721248917
 51
55.052872008162652
  0
ARC
  5
EC
  8
0
 10
8.6154600685080993
 20
-52.413897920281222
 30
0.0
 40
2.417058132047242
 50
350.59095721248917
 51
55.052872008162652
  0
LINE
  5
ED
  8
0
 10
10.999999999999741
 20
-52.809042613801687
 30
0.0
 11
10.999999999999741
 21
-55.015798451726369
 31
0.0
  0
ARC
  5
EE
  8
0
 10
-8.6154600685086091
 20
-28.413897920281219
 30
0.0
 40
2.417058132047242
 50
124.94712799183731
 51
189.4090427875108
  0
LINE
  5
EF
  8
0
 10
-10.00000000000025
 20
-20.286951776278219
 30
0.0
 11
-10.00000000000025
 21
-30.08019593835332
 31
0.0
  0
ARC
  5
F0
  8
0
 10
-3.105177962221461
 20
-37.833963559509591
 30
0.0
 40
9.4434965906910957
 50
213.27923982350899
 51
276.72076017648999
  0
ARC
  5
F1
  8
0
 10
-3.105177962221461
 20
-23.627207721584739
 30
0.0
 40
9.4434965906910957
 50
213.27923982350899
 51
276.72076017648999
  0
ARC
  5
F2
  8
0
 10
-3.105177962221461
 20
-25.833963559509581
 30
0.0
 40
9.4434965906910957
 50
213.27923982350899
 51
276.72076017648999
  0
ARC
  5
F3
  8
0
 10
-3.105177962221461
 20
-35.627207721584739
 30
0.0
 40
9.4434965906910957
 50
213.27923982350899
 51
276.72076017648999
  0
ARC
  5
F4
  8
0
 10
-8.6154600685086091
 20
-40.413897920281208
 30
0.0
 40
2.417058132047242
 50
124.94712799183731
 51
189.4090427875108
  0
LINE
  5
F5
  8
0
 10
-10.00000000000025
 20
-32.286951776278222
 30
0.0
 11
-10.00000000000025
 21
-42.080195938353313
 31
0.0
  0
LINE
  5
F6
  8
0
 10
-11.00000000000025
 20
-40.809042613801637
 30
0.0
 11
-11.00000000000025
 21
-43.015798451726369
 31
0.0
  0
LINE
  5
F7
  8
0
 10
-11.00000000000025
 20
-28.80904261380164
 30
0.0
 11
-11.00000000000025
 21
-31.015798451726369
 31
0.0
  0
ARC
  5
F8
  8
0
 10
8.6154600685080993
 20
-28.413897920281219
 30
0.0
 40
2.417058132047242
 50
350.59095721248917
 51
55.052872008162652
  0
LINE
  5
F9
  8
0
 10
9.9999999999997442
 20
-20.286951776278219
 30
0.0
 11
9.9999999999998561
 21
-30.08019593835332
 31
0.0
  0
ARC
  5
FA
  8
0
 10
3.1051779622210631
 20
-37.833963559509591
 30
0.0
 40
9.4434965906910957
 50
263.27923982351001
 51
326.72076017649113
  0
ARC
  5
FB
  8
0
 10
3.1051779622210631
 20
-23.627207721584739
 30
0.0
 40
9.4434965906910957
 50
263.27923982351001
 51
326.72076017649113
  0
ARC
  5
FC
  8
0
 10
3.1051779622210631
 20
-25.833963559509581
 30
0.0
 40
9.4434965906910957
 50
263.27923982351001
 51
326.72076017649113
  0
ARC
  5
FD
  8
0
 10
3.1051779622210631
 20
-35.627207721584739
 30
0.0
 40
9.4434965906910957
 50
263.27923982351001
 51
326.72076017649113
  0
ARC
  5
FE
  8
0
 10
8.6154600685080993
 20
-40.413897920281208
 30
0.0
 40
2.417058132047242
 50
350.59095721248917
 51
55.052872008162652
  0
LINE
  5
FF
  8
0
 10
9.9999999999997442
 20
-32.286951776278222
 30
0.0
 11
9.9999999999998561
 21
-42.080195938353313
 31
0.0
  0
LINE
  5
100
  8
0
 10
10.999999999999741
 20
-40.809042613801687
 30
0.0
 11
10.999999999999741
 21
-43.015798451726369
 31
0.0
  0
LINE
  5
101
  8
0
 10
10.999999999999741
 20
-28.809042613801701
 30
0.0
 11
10.999999999999741
 21
-31.015798451726369
 31
0.0
  0
LINE
  5
102
  8
0
 10
-11.00000000000025
 20
-4.809042613801636
 30
0.0
 11
-11.00000000000025
 21
-7.0157984517263676
 31
0.0
  0
ARC
  5
103
  8
0
 10
-3.105177962221461
 20
0.3727922784152611
 30
0.0
 40
9.4434965906910957
 50
213.27923982350899
 51
276.72076017648999
  0
LINE
  5
104
  8
0
 10
-10.00000000000025
 20
-3.999999999999829
 30
0.0
 11
-10.00000000000025
 21
-6.0801959383533131
 31
0.0
  0
ARC
  5
105
  8
0
 10
-3.105177962221461
 20
-11.627207721584741
 30
0.0
 40
9.4434965906910957
 50
213.27923982350899
 51
276.72076017648999
  0
ARC
  5
106
  8
0
 10
-3.105177962221461
 20
-1.833963559509584
 30
0.0
 40
9.4434965906910957
 50
213.27923982350899
 51
276.72076017648999
  0
ARC
  5
107
  8
0
 10
-3.105177962221461
 20
-13.833963559509581
 30
0.0
 40
9.4434965906910957
 50
213.27923982350899
 51
276.72076017648999
  0
LINE
  5
108
  8
0
 10
-11.00000000000025
 20
-16.80904261380163
 30
0.0
 11
-11.00000000000025
 21
-19.015798451726369
 31
0.0
  0
LINE
  5
109
  8
0
 10
-10.00000000000025
 20
-8.2869517762782152
 30
0.0
 11
-10.00000000000025
 21
-18.08019593835331
 31
0.0
  0
ARC
  5
10A
  8
0
 10
-8.6154600685086091
 20
-16.413897920281212
 30
0.0
 40
2.417058132047242
 50
124.94712799183731
 51
189.4090427875108
  0
ARC
  5
10B
  8
0
 10
-8.6154600685086091
 20
-4.4138979202812152
 30
0.0
 40
2.417058132047242
 50
151.49668592234951
 51
189.4090427875108
  0
LINE
  5
10C
  8
0
 10
10.999999999999741
 20
-4.8090426138016928
 30
0.0
 11
10.999999999999741
 21
-7.0157984517263676
 31
0.0
  0
ARC
  5
10D
  8
0
 10
3.1051779622210631
 20
0.3727922784152611
 30
0.0
 40
9.4434965906910957
 50
263.27923982351001
 51
326.72076017649113
  0
LINE
  5
10E
  8
0
 10
9.999999999999801
 20
-4.0000000000003411
 30
0.0
 11
9.9999999999998561
 21
-6.0801959383533131
 31
0.0
  0
ARC
  5
10F
  8
0
 10
3.1051779622210631
 20
-11.627207721584741
 30
0.0
 40
9.4434965906910957
 50
263.27923982351001
 51
326.72076017649113
  0
ARC
  5
110
  8
0
 10
3.1051779622210631
 20
-1.833963559509584
 30
0.0
 40
9.4434965906910957
 50
263.27923982351001
 51
326.72076017649113
  0
ARC
  5
111
  8
0
 10
3.1051779622210631
 20
-13.833963559509581
 30
0.0
 40
9.4434965906910957
 50
263.27923982351001
 51
326.72076017649113
  0
LINE
  5
112
  8
0
 10
10.999999999999741
 20
-16.80904261380169
 30
0.0
 11
10.999999999999741
 21
-19.015798451726369
 31
0.0
  0
LINE
  5
113
  8
0
 10
9.9999999999997442
 20
-8.2869517762782152
 30
0.0
 11
9.9999999999998561
 21
-18.08019593835331
 31
0.0
  0
ARC
  5
114
  8
0
 10
8.6154600685080993
 20
-16.413897920281212
 30
0.0
 40
2.417058132047242
 50
350.59095721248917
 51
55.052872008162652
  0
ARC
  5
115
  8
0
 10
8.6154600685080993
 20
-4.4138979202812152
 30
0.0
 40
2.417058132047242
 50
350.59095721248917
 51
28.50331407763845
  0
ENDSEC
  0
EOF
