  0
SECTION
  2
HEADER
  9
$ACADVER
  1
AC1009
  9
$INSBASE
 10
0.0
 20
0.0
 30
0.0
  9
$EXTMIN
 10
-80.0
 20
-163.99999999999989
 30
0.0
  9
$EXTMAX
 10
80.0
 20
119.9999999999999
 30
0.0
  9
$LIMMIN
 10
0.0
 20
0.0
  9
$LIMMAX
 10
420.0
 20
297.0
  9
$ORTHOMODE
 70
     0
  9
$REGENMODE
 70
     1
  9
$FILLMODE
 70
     1
  9
$QTEXTMODE
 70
     0
  9
$MIRRTEXT
 70
     1
  9
$DRAGMODE
 70
     2
  9
$LTSCALE
 40
1.0
  9
$OSMODE
 70
    47
  9
$ATTMODE
 70
     1
  9
$TEXTSIZE
 40
3.5
  9
$TRACEWID
 40
0.05
  9
$TEXTSTYLE
  7
SST
  9
$CLAYER
  8
0
  9
$CELTYPE
  6
BYLAYER
  9
$CECOLOR
 62
   256
  9
$DIMSCALE
 40
1.0
  9
$DIMASZ
 40
0.18
  9
$DIMEXO
 40
0.0625
  9
$DIMDLI
 40
0.38
  9
$DIMRND
 40
0.0
  9
$DIMDLE
 40
0.0
  9
$DIMEXE
 40
0.18
  9
$DIMTP
 40
0.0
  9
$DIMTM
 40
0.0
  9
$DIMTXT
 40
0.18
  9
$DIMCEN
 40
0.09
  9
$DIMTSZ
 40
0.0
  9
$DIMTOL
 70
     0
  9
$DIMLIM
 70
     0
  9
$DIMTIH
 70
     1
  9
$DIMTOH
 70
     1
  9
$DIMSE1
 70
     0
  9
$DIMSE2
 70
     0
  9
$DIMTAD
 70
     0
  9
$DIMZIN
 70
     0
  9
$DIMBLK
  1

  9
$DIMASO
 70
     1
  9
$DIMSHO
 70
     1
  9
$DIMPOST
  1

  9
$DIMAPOST
  1

  9
$DIMALT
 70
     0
  9
$DIMALTD
 70
     2
  9
$DIMALTF
 40
25.399999999999999
  9
$DIMLFAC
 40
1.0
  9
$DIMTOFL
 70
     0
  9
$DIMTVP
 40
0.0
  9
$DIMTIX
 70
     0
  9
$DIMSOXD
 70
     0
  9
$DIMSAH
 70
     0
  9
$DIMBLK1
  1

  9
$DIMBLK2
  1

  9
$DIMSTYLE
  2
STANDARD
  9
$DIMCLRD
 70
     0
  9
$DIMCLRE
 70
     0
  9
$DIMCLRT
 70
     0
  9
$DIMTFAC
 40
1.0
  9
$DIMGAP
 40
0.09
  9
$LUNITS
 70
     2
  9
$LUPREC
 70
     4
  9
$SKETCHINC
 40
0.1
  9
$FILLETRAD
 40
10.0
  9
$AUNITS
 70
     0
  9
$AUPREC
 70
     2
  9
$MENU
  1
acad
  9
$ELEVATION
 40
0.0
  9
$PELEVATION
 40
0.0
  9
$THICKNESS
 40
0.0
  9
$LIMCHECK
 70
     0
  9
$BLIPMODE
 70
     0
  9
$CHAMFERA
 40
10.0
  9
$CHAMFERB
 40
10.0
  9
$SKPOLY
 70
     0
  9
$TDCREATE
 40
2449450.4197234958
  9
$TDUPDATE
 40
2453443.568057905
  9
$TDINDWG
 40
1.5049537615999999
  9
$TDUSRTIMER
 40
1.5049537615999999
  9
$USRTIMER
 70
     1
  9
$ANGBASE
 50
0.0
  9
$ANGDIR
 70
     0
  9
$PDMODE
 70
     0
  9
$PDSIZE
 40
0.0
  9
$PLINEWID
 40
0.0
  9
$COORDS
 70
     1
  9
$SPLFRAME
 70
     0
  9
$SPLINETYPE
 70
     6
  9
$SPLINESEGS
 70
     8
  9
$ATTDIA
 70
     0
  9
$ATTREQ
 70
     1
  9
$HANDLING
 70
     1
  9
$HANDSEED
  5
117
  9
$SURFTAB1
 70
     6
  9
$SURFTAB2
 70
     6
  9
$SURFTYPE
 70
     6
  9
$SURFU
 70
     6
  9
$SURFV
 70
     6
  9
$UCSNAME
  2

  9
$UCSORG
 10
0.0
 20
0.0
 30
0.0
  9
$UCSXDIR
 10
1.0
 20
0.0
 30
0.0
  9
$UCSYDIR
 10
0.0
 20
1.0
 30
0.0
  9
$PUCSNAME
  2

  9
$PUCSORG
 10
0.0
 20
0.0
 30
0.0
  9
$PUCSXDIR
 10
1.0
 20
0.0
 30
0.0
  9
$PUCSYDIR
 10
0.0
 20
1.0
 30
0.0
  9
$USERI1
 70
     0
  9
$USERI2
 70
     0
  9
$USERI3
 70
     0
  9
$USERI4
 70
     0
  9
$USERI5
 70
     0
  9
$USERR1
 40
0.0
  9
$USERR2
 40
0.0
  9
$USERR3
 40
0.0
  9
$USERR4
 40
0.0
  9
$USERR5
 40
0.0
  9
$WORLDVIEW
 70
     1
  9
$SHADEDGE
 70
     3
  9
$SHADEDIF
 70
    70
  9
$TILEMODE
 70
     1
  9
$MAXACTVP
 70
    16
  9
$PLIMCHECK
 70
     0
  9
$PEXTMIN
 10
1.0000000000000000E+020
 20
1.0000000000000000E+020
 30
1.0000000000000000E+020
  9
$PEXTMAX
 10
-1.0000000000000000E+020
 20
-1.0000000000000000E+020
 30
-1.0000000000000000E+020
  9
$PLIMMIN
 10
0.0
 20
0.0
  9
$PLIMMAX
 10
420.0
 20
297.0
  9
$UNITMODE
 70
     0
  9
$VISRETAIN
 70
     0
  9
$PLINEGEN
 70
     0
  9
$PSLTSCALE
 70
     1
  0
ENDSEC
  0
SECTION
  2
TABLES
  0
TABLE
  2
VPORT
 70
     2
  0
VPORT
  2
*ACTIVE
 70
     0
 10
0.0
 20
0.0
 11
1.0
 21
1.0
 12
-0.0182179516627912
 22
-159.68444000381791
 13
0.0
 23
0.0
 14
0.1
 24
0.1
 15
10.0
 25
10.0
 16
0.0
 26
0.0
 36
1.0
 17
0.0
 27
0.0
 37
0.0
 40
704.69433780793941
 41
1.4993646759847521
 42
50.0
 43
0.0
 44
0.0
 50
0.0
 51
0.0
 71
     0
 72
   100
 73
     1
 74
     1
 75
     1
 76
     0
 77
     0
 78
     0
  0
ENDTAB
  0
TABLE
  2
LTYPE
 70
     2
  0
LTYPE
  2
CONTINUOUS
 70
     0
  3
Solid line
 72
    65
 73
     0
 40
0.0
  0
LTYPE
  2
HIDDEN
 70
     0
  3
__ __ __ __ __ __ __ __ __ __ __ __ __ __ __ __
 72
    65
 73
     2
 40
0.375
 49
0.25
 49
-0.125
  0
ENDTAB
  0
TABLE
  2
LAYER
 70
     1
  0
LAYER
  2
0
 70
     0
 62
     7
  6
CONTINUOUS
  0
ENDTAB
  0
TABLE
  2
STYLE
 70
     2
  0
STYLE
  2
STANDARD
 70
     0
 40
0.0
 41
1.0
 50
0.0
 71
     0
 42
3.0
  3
txt
  4

  0
STYLE
  2
SST
 70
     0
 40
0.0
 41
1.0
 50
0.0
 71
     0
 42
3.5
  3
romans.shx
  4

  0
ENDTAB
  0
TABLE
  2
VIEW
 70
     0
  0
ENDTAB
  0
TABLE
  2
UCS
 70
     0
  0
ENDTAB
  0
TABLE
  2
APPID
 70
     1
  0
APPID
  2
ACAD
 70
     0
  0
ENDTAB
  0
TABLE
  2
DIMSTYLE
 70
     1
  0
DIMSTYLE
  2
STANDARD
 70
     0
  3

  4

  5

  6

  7

 40
1.0
 41
0.18
 42
0.0625
 43
0.38
 44
0.18
 45
0.0
 46
0.0
 47
0.0
 48
0.0
140
0.18
141
0.09
142
0.0
143
25.399999999999999
144
1.0
145
0.0
146
1.0
147
0.09
 71
     0
 72
     0
 73
     1
 74
     1
 75
     0
 76
     0
 77
     0
 78
     0
170
     0
171
     2
172
     0
173
     0
174
     0
175
     0
176
     0
177
     0
178
     0
  0
ENDTAB
  0
ENDSEC
  0
SECTION
  2
BLOCKS
  0
BLOCK
  8
0
  2
$MODEL_SPACE
 70
     0
 10
0.0
 20
0.0
 30
0.0
  3
$MODEL_SPACE
  1

  0
ENDBLK
  5
9
  8
0
  0
BLOCK
 67
     1
  8
0
  2
$PAPER_SPACE
 70
     0
 10
0.0
 20
0.0
 30
0.0
  3
$PAPER_SPACE
  1

  0
ENDBLK
  5
E
 67
     1
  8
0
  0
ENDSEC
  0
SECTION
  2
ENTITIES
  0
POLYLINE
  5
29
  8
0
 66
     1
 10
0.0
 20
0.0
 30
0.0
 70
     1
  0
VERTEX
  5
98
  8
0
 10
-80.0
 20
-163.99999999999989
 30
0.0
  0
VERTEX
  5
99
  8
0
 10
-80.0
 20
-155.99999999999989
 30
0.0
  0
VERTEX
  5
9A
  8
0
 10
80.0
 20
-155.99999999999989
 30
0.0
  0
VERTEX
  5
9B
  8
0
 10
80.0
 20
-163.99999999999989
 30
0.0
  0
SEQEND
  5
9C
  8
0
  0
LINE
  5
2A
  8
0
 10
-13.49999999999994
 20
-106.1768094470229
 30
0.0
 11
-13.5
 21
-150.99999999999989
 31
0.0
  0
LINE
  5
2B
  8
0
 10
13.5
 20
-106.1768094470229
 30
0.0
 11
13.5
 21
-150.99999999999989
 31
0.0
  0
LINE
  5
2C
  8
0
 10
-10.0
 20
-75.999999999999915
 30
0.0
 11
10.0
 21
-75.999999999999915
 31
0.0
  0
LINE
  5
2D
  8
0
 10
12.96987298250019
 20
-60.03012701749995
 30
0.0
 11
-12.969872982499851
 21
-59.999999999999922
 31
0.0
  0
POLYLINE
  5
2E
  8
0
 66
     1
 10
0.0
 20
0.0
 30
0.0
  0
VERTEX
  5
9D
  8
0
 10
8.6397459650000883
 20
-61.399999999999892
 30
0.0
 42
0.3087600251391162
  0
VERTEX
  5
9E
  8
0
 10
8.3893580722068464
 20
-61.03318158572759
 30
0.0
 42
0.0531135643178668
  0
VERTEX
  5
9F
  8
0
 10
6.109222959580733
 20
-60.410050506338763
 30
0.0
 42
0.0234107934291695
  0
VERTEX
  5
A0
  8
0
 10
3.5690691645430661
 20
-60.119643204598702
 30
0.0
 42
0.0167564154642976
  0
VERTEX
  5
A1
  8
0
 10
0.0000000000001137
 20
-59.999999999999922
 30
0.0
 42
0.0167564154642939
  0
VERTEX
  5
A2
  8
0
 10
-3.5690691645419288
 20
-60.119643204598589
 30
0.0
 42
0.0234107934291787
  0
VERTEX
  5
A3
  8
0
 10
-6.1092229595805057
 20
-60.410050506338763
 30
0.0
 42
0.0531135643178467
  0
VERTEX
  5
A4
  8
0
 10
-8.3893580722066172
 20
-61.033181585727469
 30
0.0
 42
0.3087600251390752
  0
VERTEX
  5
A5
  8
0
 10
-8.6397459649998591
 20
-61.399999999999892
 30
0.0
 42
0.3087600251390838
  0
SEQEND
  5
A6
  8
0
  0
POLYLINE
  5
2F
  8
0
 66
     1
 10
0.0
 20
0.0
 30
0.0
  0
VERTEX
  5
A7
  8
0
 10
8.6397459649999746
 20
-74.599999999999923
 30
0.0
 42
-0.3087600251391162
  0
VERTEX
  5
A8
  8
0
 10
8.3893580722067327
 20
-74.966818414272126
 30
0.0
 42
-0.0531135643178668
  0
VERTEX
  5
A9
  8
0
 10
6.1092229595806202
 20
-75.589949493661067
 30
0.0
 42
-0.0234107934291695
  0
VERTEX
  5
AA
  8
0
 10
3.569069164542952
 20
-75.880356795401127
 30
0.0
 42
-0.0167564154642976
  0
VERTEX
  5
AB
  8
0
 10
0.0
 20
-75.999999999999915
 30
0.0
 42
-0.0167564154642939
  0
VERTEX
  5
AC
  8
0
 10
-3.569069164542042
 20
-75.880356795401127
 30
0.0
 42
-0.0234107934291787
  0
VERTEX
  5
AD
  8
0
 10
-6.1092229595806202
 20
-75.589949493661067
 30
0.0
 42
-0.0531135643178467
  0
VERTEX
  5
AE
  8
0
 10
-8.3893580722067327
 20
-74.96681841427224
 30
0.0
 42
-0.3087600251390752
  0
VERTEX
  5
AF
  8
0
 10
-8.6397459649999746
 20
-74.599999999999923
 30
0.0
 42
-0.3087600251390838
  0
SEQEND
  5
B0
  8
0
  0
POLYLINE
  5
30
  8
0
 66
     1
 10
0.0
 20
0.0
 30
0.0
  0
VERTEX
  5
B1
  8
0
 10
-8.6397459649998041
 20
-61.399999999999892
 30
0.0
  0
VERTEX
  5
B2
  8
0
 10
-8.6397459649999746
 20
-74.799999999999869
 30
0.0
  0
SEQEND
  5
B3
  8
0
  0
LINE
  5
31
  8
0
 10
-17.299999999999951
 20
-74.799999999999983
 30
0.0
 11
-17.29999999999978
 21
-61.19999999999996
 31
0.0
  0
POLYLINE
  5
32
  8
0
 66
     1
 10
0.0
 20
0.0
 30
0.0
  0
VERTEX
  5
B4
  8
0
 10
-8.6397459649998591
 20
-61.199999999999847
 30
0.0
 42
0.250327623522266
  0
VERTEX
  5
B5
  8
0
 10
-8.8285411658958992
 20
-60.84653410756065
 30
0.0
 42
0.0799961714157395
  0
VERTEX
  5
B6
  8
0
 10
-9.9080108050264926
 20
-60.351471862575998
 30
0.0
 42
0.0390332174113539
  0
VERTEX
  5
B7
  8
0
 10
-11.1901225576513
 20
-60.10181467982332
 30
0.0
 42
0.0285802753297458
  0
VERTEX
  5
B8
  8
0
 10
-12.969872982499851
 20
-59.999999999999922
 30
0.0
 42
0.0285802753297599
  0
VERTEX
  5
B9
  8
0
 10
-14.74962340734862
 20
-60.10181467982332
 30
0.0
 42
0.039033217411367
  0
VERTEX
  5
BA
  8
0
 10
-16.031735159973209
 20
-60.351471862575998
 30
0.0
 42
0.0799961714157395
  0
VERTEX
  5
BB
  8
0
 10
-17.111204799103799
 20
-60.84653410756065
 30
0.0
 42
0.2503276235222661
  0
VERTEX
  5
BC
  8
0
 10
-17.299999999999841
 20
-61.199999999999847
 30
0.0
 42
0.2503276235223326
  0
SEQEND
  5
BD
  8
0
  0
LINE
  5
33
  8
0
 10
17.300000000000122
 20
-61.19999999999996
 30
0.0
 11
17.299999999999951
 21
-74.799999999999869
 31
0.0
  0
POLYLINE
  5
34
  8
0
 66
     1
 10
0.0
 20
0.0
 30
0.0
  0
VERTEX
  5
BE
  8
0
 10
8.6397459650001451
 20
-61.399999999999892
 30
0.0
  0
VERTEX
  5
BF
  8
0
 10
8.6397459649999746
 20
-74.799999999999869
 30
0.0
  0
SEQEND
  5
C0
  8
0
  0
POLYLINE
  5
35
  8
0
 66
     1
 10
0.0
 20
0.0
 30
0.0
  0
VERTEX
  5
C1
  8
0
 10
17.299999999999951
 20
-74.799999999999869
 30
0.0
 42
-0.2534364434840665
  0
VERTEX
  5
C2
  8
0
 10
17.114469420469501
 20
-75.142519691111062
 30
0.0
 42
-0.0786828100544145
  0
VERTEX
  5
C3
  8
0
 10
16.031735159973319
 20
-75.627225119052611
 30
0.0
 42
-0.0381250023077343
  0
VERTEX
  5
C4
  8
0
 10
14.75029101257746
 20
-75.870561148777384
 30
0.0
 42
-0.0278683718914965
  0
VERTEX
  5
C5
  8
0
 10
12.969872982499959
 20
-75.969872982499879
 30
0.0
 42
-0.027868371891505
  0
VERTEX
  5
C6
  8
0
 10
11.18945495242337
 20
-75.870561148777384
 30
0.0
 42
-0.0381250023077727
  0
VERTEX
  5
C7
  8
0
 10
9.9080108050268336
 20
-75.627225119052611
 30
0.0
 42
-0.0786828100544049
  0
VERTEX
  5
C8
  8
0
 10
8.8252765445304249
 20
-75.142519691111062
 30
0.0
 42
-0.2534364434840056
  0
VERTEX
  5
C9
  8
0
 10
8.6397459649999746
 20
-74.799999999999869
 30
0.0
 42
-0.2534364434839675
  0
SEQEND
  5
CA
  8
0
  0
POLYLINE
  5
36
  8
0
 66
     1
 10
0.0
 20
0.0
 30
0.0
  0
VERTEX
  5
CB
  8
0
 10
17.300000000000072
 20
-61.19999999999996
 30
0.0
 42
0.2534364434840665
  0
VERTEX
  5
CC
  8
0
 10
17.114469420469611
 20
-60.857480308888761
 30
0.0
 42
0.0786828100544145
  0
VERTEX
  5
CD
  8
0
 10
16.031735159973429
 20
-60.372774880947219
 30
0.0
 42
0.0381250023077343
  0
VERTEX
  5
CE
  8
0
 10
14.750291012577581
 20
-60.129438851222432
 30
0.0
 42
0.0278683718914965
  0
VERTEX
  5
CF
  8
0
 10
12.96987298250008
 20
-60.03012701749995
 30
0.0
 42
0.027868371891505
  0
VERTEX
  5
D0
  8
0
 10
11.189454952423491
 20
-60.129438851222432
 30
0.0
 42
0.0381250023077727
  0
VERTEX
  5
D1
  8
0
 10
9.9080108050269473
 20
-60.372774880947219
 30
0.0
 42
0.0786828100544049
  0
VERTEX
  5
D2
  8
0
 10
8.8252765445305386
 20
-60.857480308888761
 30
0.0
 42
0.2534364434840056
  0
VERTEX
  5
D3
  8
0
 10
8.6397459650000883
 20
-61.19999999999996
 30
0.0
 42
0.2534364434839675
  0
SEQEND
  5
D4
  8
0
  0
LINE
  5
37
  8
0
 10
12.96987298250002
 20
-75.984936491249897
 30
0.0
 11
-12.96987298250002
 21
-76.015063508749932
 31
0.0
  0
POLYLINE
  5
38
  8
0
 66
     1
 10
0.0
 20
0.0
 30
0.0
  0
VERTEX
  5
D5
  8
0
 10
-17.299999999999951
 20
-74.799999999999869
 30
0.0
 42
0.2534364434840665
  0
VERTEX
  5
D6
  8
0
 10
-17.114469420469501
 20
-75.142519691111062
 30
0.0
 42
0.0786828100544145
  0
VERTEX
  5
D7
  8
0
 10
-16.031735159973319
 20
-75.627225119052611
 30
0.0
 42
0.0381250023077343
  0
VERTEX
  5
D8
  8
0
 10
-14.75029101257746
 20
-75.870561148777384
 30
0.0
 42
0.0278683718914965
  0
VERTEX
  5
D9
  8
0
 10
-12.969872982499959
 20
-75.969872982499879
 30
0.0
 42
0.027868371891505
  0
VERTEX
  5
DA
  8
0
 10
-11.18945495242337
 20
-75.870561148777384
 30
0.0
 42
0.0381250023077727
  0
VERTEX
  5
DB
  8
0
 10
-9.9080108050268336
 20
-75.627225119052611
 30
0.0
 42
0.0786828100544049
  0
VERTEX
  5
DC
  8
0
 10
-8.8252765445304249
 20
-75.142519691111062
 30
0.0
 42
0.2534364434840056
  0
VERTEX
  5
DD
  8
0
 10
-8.6397459649999746
 20
-74.799999999999869
 30
0.0
 42
0.2534364434839675
  0
SEQEND
  5
DE
  8
0
  0
LINE
  5
39
  8
0
  6
HIDDEN
 62
     8
 10
-10.00000000000011
 20
-44.594197175843902
 30
0.0
 11
9.9999999999998863
 21
-42.693744687156283
 31
0.0
  0
LINE
  5
3B
  8
0
  6
HIDDEN
 62
     8
 10
-10.00000000000011
 20
-43.087440419397382
 30
0.0
 11
9.9999999999998863
 21
-41.186987930709762
 31
0.0
  0
LINE
  5
3C
  8
0
  6
HIDDEN
 62
     8
 10
-10.00000000000011
 20
-41.580683662950747
 30
0.0
 11
9.9999999999998863
 21
-39.680231174263128
 31
0.0
  0
LINE
  5
3D
  8
0
  6
HIDDEN
 62
     8
 10
-10.00000000000011
 20
-40.073926906504219
 30
0.0
 11
9.9999999999998863
 21
-38.173474417816607
 31
0.0
  0
LINE
  5
3E
  8
0
  6
HIDDEN
 62
     8
 10
-10.00000000000011
 20
-38.567170150057699
 30
0.0
 11
9.9999999999998863
 21
-36.666717661370093
 31
0.0
  0
LINE
  5
3F
  8
0
  6
HIDDEN
 62
     8
 10
-10.00000000000011
 20
-37.060413393611071
 30
0.0
 11
9.9999999999998863
 21
-35.159960904923452
 31
0.0
  0
LINE
  5
40
  8
0
  6
HIDDEN
 62
     8
 10
-10.14189477104571
 20
-35.56713985070283
 30
0.0
 11
9.8581052289542868
 21
-33.666687362015097
 31
0.0
  0
LINE
  5
41
  8
0
  6
HIDDEN
 62
     8
 10
-10.00000000000011
 20
-33.900452488687648
 30
0.0
 11
9.9999999999998863
 21
-31.999999999999918
 31
0.0
  0
LINE
  5
42
  8
0
  6
HIDDEN
 62
     8
 10
-10.00000000000011
 20
-32.393695732241127
 30
0.0
 11
-5.8568211035573077
 21
-31.999999999999918
 31
0.0
  0
LINE
  5
43
  8
0
 10
-8.46650000000011
 20
-60.005230320945799
 30
0.0
 11
-8.46650000000011
 21
-31.999999999999918
 31
0.0
  0
LINE
  5
44
  8
0
  6
HIDDEN
 62
     8
 10
-10.00000000000011
 20
-46.100953932290537
 30
0.0
 11
9.9999999999998863
 21
-44.20050144360291
 31
0.0
  0
LINE
  5
45
  8
0
  6
HIDDEN
 62
     8
 10
-10.00000000000011
 20
-49.114467445183692
 30
0.0
 11
9.9999999999998863
 21
-47.214014956495959
 31
0.0
  0
LINE
  5
46
  8
0
  6
HIDDEN
 62
     8
 10
-10.00000000000011
 20
-47.60771068873705
 30
0.0
 11
9.9999999999998863
 21
-45.707258200049438
 31
0.0
  0
LINE
  5
47
  8
0
  6
HIDDEN
 62
     8
 10
9.9999999999997726
 20
-116.9999999999999
 30
0.0
 11
-10.000000000000339
 21
-116.9999999999999
 31
0.0
  0
LINE
  5
48
  8
0
  6
HIDDEN
 62
     8
 10
6.9999999999997717
 20
-119.9999999999999
 30
0.0
 11
-7.0000000000002274
 21
-119.9999999999999
 31
0.0
  0
LINE
  5
49
  8
0
  6
HIDDEN
 62
     8
 10
-7.0000000000002274
 20
-119.9999999999999
 30
0.0
 11
-10.000000000000229
 21
-116.9999999999999
 31
0.0
  0
LINE
  5
4A
  8
0
  6
HIDDEN
 62
     8
 10
9.9999999999997726
 20
-116.9999999999999
 30
0.0
 11
6.9999999999997717
 21
-119.9999999999999
 31
0.0
  0
LINE
  5
4B
  8
0
  6
HIDDEN
 62
     8
 10
-8.4665000000003374
 20
-116.9999999999998
 30
0.0
 11
-8.4665000000002806
 21
-76.009833187803935
 31
0.0
  0
LINE
  5
4C
  8
0
  6
HIDDEN
 62
     8
 10
-10.000000000000229
 20
-116.9999999999999
 30
0.0
 11
-10.00000000000062
 21
-76.011614229969865
 31
0.0
  0
LINE
  5
4D
  8
0
  6
HIDDEN
 62
     8
 10
8.4664999999997121
 20
-116.9999999999999
 30
0.0
 11
8.4664999999997672
 21
-75.990166812195781
 31
0.0
  0
LINE
  5
4E
  8
0
  6
HIDDEN
 62
     8
 10
9.9999999999997726
 20
-116.9999999999998
 30
0.0
 11
9.9999999999997726
 21
-75.988385770029964
 31
0.0
  0
LINE
  5
4F
  8
0
  6
HIDDEN
 62
     8
 10
-10.00000000000011
 20
-50.621224201630213
 30
0.0
 11
9.9999999999998295
 21
-48.720771712942593
 31
0.0
  0
LINE
  5
50
  8
0
  6
HIDDEN
 62
     8
 10
-10.00000000000011
 20
-52.127980958076741
 30
0.0
 11
9.9999999999998863
 21
-50.227528469389107
 31
0.0
  0
LINE
  5
51
  8
0
  6
HIDDEN
 62
     8
 10
-10.00000000000011
 20
-53.634737714523368
 30
0.0
 11
9.9999999999998863
 21
-51.734285225835627
 31
0.0
  0
LINE
  5
52
  8
0
  6
HIDDEN
 62
     8
 10
-10.00000000000011
 20
-55.141494470969889
 30
0.0
 11
9.9999999999998863
 21
-53.241041982282262
 31
0.0
  0
LINE
  5
53
  8
0
  6
HIDDEN
 62
     8
 10
-10.00000000000011
 20
-56.648251227416409
 30
0.0
 11
9.9999999999998863
 21
-54.74779873872879
 31
0.0
  0
LINE
  5
54
  8
0
  6
HIDDEN
 62
     8
 10
-10.00000000000011
 20
-58.155007983863037
 30
0.0
 11
9.9999999999998863
 21
-56.254555495175431
 31
0.0
  0
LINE
  5
55
  8
0
 10
-10.000000000000171
 20
-60.003449278779868
 30
0.0
 11
-10.00000000000011
 21
-31.999999999999918
 31
0.0
  0
LINE
  5
56
  8
0
 10
8.4664999999999395
 20
-60.024896696554009
 30
0.0
 11
8.4664999999999964
 21
-31.999999999999918
 31
0.0
  0
LINE
  5
57
  8
0
 10
9.9999999999998863
 20
-60.026677738719883
 30
0.0
 11
9.9999999999998863
 21
-31.999999999999918
 31
0.0
  0
LINE
  5
58
  8
0
 10
12.50000000000005
 20
-75.985482212537505
 30
0.0
 11
12.50000000000005
 21
-99.737189318075622
 31
0.0
  0
LINE
  5
59
  8
0
 10
-12.5
 20
-76.014517787462324
 30
0.0
 11
-12.5
 21
-99.737189318075849
 31
0.0
  0
LINE
  5
5A
  8
0
 10
12.806873509190661
 20
-102.19550151004169
 30
0.0
 11
13.19312649080933
 21
-103.7184972550567
 31
0.0
  0
LINE
  5
5B
  8
0
 10
-12.806873509190551
 20
-102.19550151004169
 30
0.0
 11
-13.19312649080927
 21
-103.7184972550567
 31
0.0
  0
ARC
  5
5C
  8
0
 10
3.5
 20
-106.1768094470229
 30
0.0
 40
10.0
 50
0.0
 51
14.23096150996161
  0
ARC
  5
5D
  8
0
 10
-3.4999999999999432
 20
-106.1768094470229
 30
0.0
 40
10.0
 50
165.76903849003841
 51
180.0
  0
ARC
  5
5E
  8
0
 10
-22.5
 20
-99.737189318075849
 30
0.0
 40
10.0
 50
345.7690384900406
 51
0.0
  0
ARC
  5
5F
  8
0
 10
22.50000000000006
 20
-99.737189318075622
 30
0.0
 40
10.0
 50
179.9999999999998
 51
194.23096150996091
  0
LINE
  5
60
  8
0
 10
-13.5
 20
-150.99999999999989
 30
0.0
 11
13.5
 21
-150.99999999999989
 31
0.0
  0
LINE
  5
61
  8
0
 10
13.5
 20
-150.99999999999989
 30
0.0
 11
18.5
 21
-155.99999999999989
 31
0.0
  0
LINE
  5
62
  8
0
 10
-13.5
 20
-150.99999999999989
 30
0.0
 11
-18.5
 21
-155.99999999999989
 31
0.0
  0
LINE
  5
63
  8
0
 10
-18.5
 20
-155.99999999999989
 30
0.0
 11
18.5
 21
-155.99999999999989
 31
0.0
  0
LINE
  5
64
  8
0
  6
HIDDEN
 62
     8
 10
-10.00000000000011
 20
-59.661764740309678
 30
0.0
 11
9.9999999999998863
 21
-57.761312251622059
 31
0.0
  0
LINE
  5
65
  8
0
  6
HIDDEN
 62
     8
 10
1.929569689502955
 20
-60.034942476486862
 30
0.0
 11
9.9999999999998863
 21
-59.2680690080687
 31
0.0
  0
LINE
  5
66
  8
0
 10
-60.0
 20
-0.9999999999999715
 30
0.0
 11
-60.0
 21
119.9999999999999
 31
0.0
  0
LINE
  5
67
  8
0
 10
-65.0
 20
119.9999999999999
 30
0.0
 11
-65.0
 21
-0.9999999999999715
 31
0.0
  0
LINE
  5
68
  8
0
 10
-60.0
 20
119.9999999999999
 30
0.0
 11
-65.0
 21
119.9999999999999
 31
0.0
  0
LINE
  5
69
  8
0
 10
65.0
 20
119.9999999999999
 30
0.0
 11
65.0
 21
-5.9999999999999707
 31
0.0
  0
LINE
  5
6A
  8
0
 10
60.0
 20
-5.9999999999999707
 30
0.0
 11
60.0
 21
119.9999999999999
 31
0.0
  0
LINE
  5
6B
  8
0
 10
60.0
 20
119.9999999999999
 30
0.0
 11
65.0
 21
119.9999999999999
 31
0.0
  0
ARC
  5
6C
  8
0
 10
-55.0
 20
-0.9999999999999715
 30
0.0
 40
5.0
 50
180.0
 51
270.0
  0
ARC
  5
6D
  8
0
 10
-55.0
 20
-0.9999999999999715
 30
0.0
 40
10.0
 50
180.0
 51
270.0
  0
LINE
  5
6E
  8
0
 10
-35.0
 20
-10.99999999999997
 30
0.0
 11
35.0
 21
-10.99999999999997
 31
0.0
  0
LINE
  5
6F
  8
0
 10
55.0
 20
-15.99999999999997
 30
0.0
 11
-35.0
 21
-15.99999999999997
 31
0.0
  0
LINE
  5
70
  8
0
 10
35.0
 20
-5.9999999999999707
 30
0.0
 11
-35.0
 21
-5.9999999999999707
 31
0.0
  0
LINE
  5
71
  8
0
 10
-55.0
 20
-10.99999999999997
 30
0.0
 11
55.0
 21
-10.99999999999997
 31
0.0
  0
LINE
  5
72
  8
0
 10
35.0
 20
-6.0000000000000284
 30
0.0
 11
-55.0
 21
-5.9999999999999707
 31
0.0
  0
LINE
  5
73
  8
0
 10
35.0
 20
-0.0000000000000284
 30
0.0
 11
-35.0
 21
0.0000000000000284
 31
0.0
  0
POLYLINE
  5
74
  8
0
 66
     1
 10
0.0
 20
0.0
 30
0.0
  0
VERTEX
  5
DF
  8
0
 10
17.29999999999967
 20
-17.184936491249999
 30
0.0
 42
0.2534364434840665
  0
VERTEX
  5
E0
  8
0
 10
17.11446942046922
 20
-16.84241680013881
 30
0.0
 42
0.0786828100544145
  0
VERTEX
  5
E1
  8
0
 10
16.031735159973039
 20
-16.357711372197262
 30
0.0
 42
0.0381250023077343
  0
VERTEX
  5
E2
  8
0
 10
14.750291012577179
 20
-16.114375342472471
 30
0.0
 42
0.0278683718914965
  0
VERTEX
  5
E3
  8
0
 10
12.96987298249968
 20
-16.015063508749989
 30
0.0
 42
0.027868371891505
  0
VERTEX
  5
E4
  8
0
 10
11.189454952423089
 20
-16.114375342472471
 30
0.0
 42
0.0381250023077727
  0
VERTEX
  5
E5
  8
0
 10
9.9080108050265494
 20
-16.357711372197262
 30
0.0
 42
0.0786828100544049
  0
VERTEX
  5
E6
  8
0
 10
8.8252765445301407
 20
-16.84241680013881
 30
0.0
 42
0.2534364434840056
  0
VERTEX
  5
E7
  8
0
 10
8.6397459649996904
 20
-17.184936491249999
 30
0.0
 42
0.2534364434839675
  0
SEQEND
  5
E8
  8
0
  0
LINE
  5
75
  8
0
 10
12.96987298249979
 20
-16.015063508749989
 30
0.0
 11
-12.969872982500251
 21
-15.98493649124995
 31
0.0
  0
POLYLINE
  5
76
  8
0
 66
     1
 10
0.0
 20
0.0
 30
0.0
  0
VERTEX
  5
E9
  8
0
 10
-8.6397459650002588
 20
-17.184936491249879
 30
0.0
 42
0.250327623522266
  0
VERTEX
  5
EA
  8
0
 10
-8.8285411658962971
 20
-16.831470598810679
 30
0.0
 42
0.0799961714157395
  0
VERTEX
  5
EB
  8
0
 10
-9.9080108050268905
 20
-16.336408353826041
 30
0.0
 42
0.0390332174113539
  0
VERTEX
  5
EC
  8
0
 10
-11.1901225576517
 20
-16.08675117107336
 30
0.0
 42
0.0285802753297458
  0
VERTEX
  5
ED
  8
0
 10
-12.969872982500251
 20
-15.98493649124995
 30
0.0
 42
0.0285802753297599
  0
VERTEX
  5
EE
  8
0
 10
-14.74962340734902
 20
-16.08675117107336
 30
0.0
 42
0.039033217411367
  0
VERTEX
  5
EF
  8
0
 10
-16.031735159973611
 20
-16.336408353826041
 30
0.0
 42
0.0799961714157395
  0
VERTEX
  5
F0
  8
0
 10
-17.1112047991042
 20
-16.831470598810679
 30
0.0
 42
0.2503276235222661
  0
VERTEX
  5
F1
  8
0
 10
-17.300000000000239
 20
-17.184936491249879
 30
0.0
 42
0.2503276235223326
  0
SEQEND
  5
F2
  8
0
  0
LINE
  5
77
  8
0
 10
-34.99999999999995
 20
-5.9999999999999138
 30
0.0
 11
-35.0
 21
0.0000000000000853
 31
0.0
  0
LINE
  5
78
  8
0
 10
-35.0
 20
-15.99999999999997
 30
0.0
 11
-35.0
 21
-10.99999999999997
 31
0.0
  0
POLYLINE
  5
79
  8
0
 66
     1
 10
0.0
 20
0.0
 30
0.0
  0
VERTEX
  5
F3
  8
0
 10
8.6397459649996904
 20
-17.384936491249931
 30
0.0
 42
0.3087600251391162
  0
VERTEX
  5
F4
  8
0
 10
8.3893580722064485
 20
-17.018118076977629
 30
0.0
 42
0.0531135643178668
  0
VERTEX
  5
F5
  8
0
 10
6.109222959580336
 20
-16.394986997588799
 30
0.0
 42
0.0234107934291695
  0
VERTEX
  5
F6
  8
0
 10
3.5690691645426682
 20
-16.104579695848741
 30
0.0
 42
0.0167564154642976
  0
VERTEX
  5
F7
  8
0
 10
-0.0000000000002842
 20
-15.98493649124995
 30
0.0
 42
0.0167564154642939
  0
VERTEX
  5
F8
  8
0
 10
-3.5690691645423271
 20
-16.104579695848631
 30
0.0
 42
0.0234107934291787
  0
VERTEX
  5
F9
  8
0
 10
-6.1092229595809044
 20
-16.394986997588799
 30
0.0
 42
0.0531135643178467
  0
VERTEX
  5
FA
  8
0
 10
-8.3893580722070151
 20
-17.018118076977508
 30
0.0
 42
0.3087600251390752
  0
VERTEX
  5
FB
  8
0
 10
-8.6397459650002588
 20
-17.384936491249931
 30
0.0
 42
0.3087600251390838
  0
SEQEND
  5
FC
  8
0
  0
ARC
  5
7A
  8
0
 10
55.0
 20
-5.9999999999999707
 30
0.0
 40
10.0
 50
270.0
 51
0.000000000000007
  0
LINE
  5
7B
  8
0
 10
34.99999999999995
 20
-5.9999999999999707
 30
0.0
 11
35.0
 21
-0.0000000000001421
 31
0.0
  0
ARC
  5
7C
  8
0
 10
55.0
 20
-5.9999999999999707
 30
0.0
 40
5.0
 50
270.0
 51
0.000000000000007
  0
LINE
  5
7D
  8
0
 10
35.0
 20
-10.99999999999997
 30
0.0
 11
35.0
 21
-5.9999999999999707
 31
0.0
  0
LINE
  5
7E
  8
0
 10
-17.300000000000349
 20
-30.784936491250029
 30
0.0
 11
-17.300000000000239
 21
-17.184936491249999
 31
0.0
  0
POLYLINE
  5
7F
  8
0
 66
     1
 10
0.0
 20
0.0
 30
0.0
  0
VERTEX
  5
FD
  8
0
 10
-8.6397459650002588
 20
-17.384936491249931
 30
0.0
  0
VERTEX
  5
FE
  8
0
 10
-8.6397459650003725
 20
-30.784936491249908
 30
0.0
  0
SEQEND
  5
FF
  8
0
  0
POLYLINE
  5
80
  8
0
 66
     1
 10
0.0
 20
0.0
 30
0.0
  0
VERTEX
  5
100
  8
0
 10
8.6397459649996904
 20
-17.384936491249931
 30
0.0
  0
VERTEX
  5
101
  8
0
 10
8.6397459649995767
 20
-30.784936491249908
 30
0.0
  0
SEQEND
  5
102
  8
0
  0
LINE
  5
81
  8
0
 10
17.29999999999967
 20
-17.184936491249999
 30
0.0
 11
17.29999999999956
 21
-30.784936491249908
 31
0.0
  0
LINE
  5
82
  8
0
 10
12.96987298249962
 20
-31.96987298249994
 30
0.0
 11
-12.969872982500419
 21
-31.999999999999972
 31
0.0
  0
POLYLINE
  5
83
  8
0
 66
     1
 10
0.0
 20
0.0
 30
0.0
  0
VERTEX
  5
103
  8
0
 10
-17.300000000000349
 20
-30.784936491249908
 30
0.0
 42
0.2534364434840665
  0
VERTEX
  5
104
  8
0
 10
-17.114469420469899
 20
-31.127456182361101
 30
0.0
 42
0.0786828100544145
  0
VERTEX
  5
105
  8
0
 10
-16.031735159973721
 20
-31.61216161030265
 30
0.0
 42
0.0381250023077343
  0
VERTEX
  5
106
  8
0
 10
-14.750291012577859
 20
-31.855497640027441
 30
0.0
 42
0.0278683718914965
  0
VERTEX
  5
107
  8
0
 10
-12.969872982500361
 20
-31.954809473749918
 30
0.0
 42
0.027868371891505
  0
VERTEX
  5
108
  8
0
 10
-11.18945495242377
 20
-31.855497640027441
 30
0.0
 42
0.0381250023077727
  0
VERTEX
  5
109
  8
0
 10
-9.9080108050272315
 20
-31.61216161030265
 30
0.0
 42
0.0786828100544049
  0
VERTEX
  5
10A
  8
0
 10
-8.8252765445308228
 20
-31.127456182361101
 30
0.0
 42
0.2534364434840056
  0
VERTEX
  5
10B
  8
0
 10
-8.6397459650003725
 20
-30.784936491249908
 30
0.0
 42
0.2534364434839675
  0
SEQEND
  5
10C
  8
0
  0
POLYLINE
  5
84
  8
0
 66
     1
 10
0.0
 20
0.0
 30
0.0
  0
VERTEX
  5
10D
  8
0
 10
17.29999999999956
 20
-30.784936491249908
 30
0.0
 42
-0.2534364434840665
  0
VERTEX
  5
10E
  8
0
 10
17.114469420469099
 20
-31.127456182361101
 30
0.0
 42
-0.0786828100544145
  0
VERTEX
  5
10F
  8
0
 10
16.031735159972921
 20
-31.61216161030265
 30
0.0
 42
-0.0381250023077343
  0
VERTEX
  5
110
  8
0
 10
14.75029101257706
 20
-31.855497640027441
 30
0.0
 42
-0.0278683718914965
  0
VERTEX
  5
111
  8
0
 10
12.96987298249957
 20
-31.954809473749918
 30
0.0
 42
-0.027868371891505
  0
VERTEX
  5
112
  8
0
 10
11.18945495242297
 20
-31.855497640027441
 30
0.0
 42
-0.0381250023077727
  0
VERTEX
  5
113
  8
0
 10
9.9080108050264357
 20
-31.61216161030265
 30
0.0
 42
-0.0786828100544049
  0
VERTEX
  5
114
  8
0
 10
8.8252765445300252
 20
-31.127456182361101
 30
0.0
 42
-0.2534364434840056
  0
VERTEX
  5
115
  8
0
 10
8.6397459649995767
 20
-30.784936491249908
 30
0.0
 42
-0.2534364434839675
  0
SEQEND
  5
116
  8
0
  0
ENDSEC
  0
EOF
