  0
SECTION
  2
HEADER
  9
$ACADVER
  1
AC1009
  9
$INSBASE
 10
0.0
 20
0.0
 30
0.0
  9
$EXTMIN
 10
-23.99957180023193
 20
-6.2215030193328849
 30
0.0
  9
$EXTMAX
 10
24.000287055969238
 20
6.2215030193328849
 30
0.0
  9
$LIMMIN
 10
0.0
 20
0.0
  9
$LIMMAX
 10
12.0
 20
9.0
  9
$ORTHOMODE
 70
     1
  9
$REGENMODE
 70
     1
  9
$FILLMODE
 70
     1
  9
$QTEXTMODE
 70
     0
  9
$MIRRTEXT
 70
     0
  9
$DRAGMODE
 70
     2
  9
$LTSCALE
 40
0.0492126010358334
  9
$OSMODE
 70
    47
  9
$ATTMODE
 70
     1
  9
$TEXTSIZE
 40
0.2
  9
$TRACEWID
 40
0.05
  9
$TEXTSTYLE
  7
STANDARD
  9
$CLAYER
  8
0
  9
$CELTYPE
  6
BYLAYER
  9
$CECOLOR
 62
   256
  9
$DIMSCALE
 40
1.0
  9
$DIMASZ
 40
0.0003968749952037
  9
$DIMEXO
 40
0.1249999850988388
  9
$DIMDLI
 40
1.000000357627868
  9
$DIMRND
 40
0.0
  9
$DIMDLE
 40
0.0
  9
$DIMEXE
 40
0.18
  9
$DIMTP
 40
0.0
  9
$DIMTM
 40
0.0
  9
$DIMTXT
 40
0.18
  9
$DIMCEN
 40
0.09
  9
$DIMTSZ
 40
0.0
  9
$DIMTOL
 70
     0
  9
$DIMLIM
 70
     0
  9
$DIMTIH
 70
     0
  9
$DIMTOH
 70
     0
  9
$DIMSE1
 70
     0
  9
$DIMSE2
 70
     0
  9
$DIMTAD
 70
     0
  9
$DIMZIN
 70
     0
  9
$DIMBLK
  1

  9
$DIMASO
 70
     1
  9
$DIMSHO
 70
     1
  9
$DIMPOST
  1

  9
$DIMAPOST
  1

  9
$DIMALT
 70
     0
  9
$DIMALTD
 70
     2
  9
$DIMALTF
 40
25.399999999999999
  9
$DIMLFAC
 40
1.0
  9
$DIMTOFL
 70
     0
  9
$DIMTVP
 40
0.0
  9
$DIMTIX
 70
     0
  9
$DIMSOXD
 70
     0
  9
$DIMSAH
 70
     0
  9
$DIMBLK1
  1

  9
$DIMBLK2
  1

  9
$DIMSTYLE
  2
STANDARD
  9
$DIMCLRD
 70
     0
  9
$DIMCLRE
 70
     0
  9
$DIMCLRT
 70
     0
  9
$DIMTFAC
 40
1.0
  9
$DIMGAP
 40
0.09
  9
$LUNITS
 70
     2
  9
$LUPREC
 70
     0
  9
$SKETCHINC
 40
0.1
  9
$FILLETRAD
 40
0.0
  9
$AUNITS
 70
     0
  9
$AUPREC
 70
     0
  9
$MENU
  1
acad
  9
$ELEVATION
 40
0.0
  9
$PELEVATION
 40
0.0
  9
$THICKNESS
 40
0.0
  9
$LIMCHECK
 70
     0
  9
$BLIPMODE
 70
     0
  9
$CHAMFERA
 40
0.0
  9
$CHAMFERB
 40
0.0
  9
$SKPOLY
 70
     0
  9
$TDCREATE
 40
2449631.7321383101
  9
$TDUPDATE
 40
2453443.5714916089
  9
$TDINDWG
 40
0.0083868866
  9
$TDUSRTIMER
 40
0.0083868866
  9
$USRTIMER
 70
     1
  9
$ANGBASE
 50
0.0
  9
$ANGDIR
 70
     0
  9
$PDMODE
 70
     0
  9
$PDSIZE
 40
0.0
  9
$PLINEWID
 40
0.0
  9
$COORDS
 70
     1
  9
$SPLFRAME
 70
     0
  9
$SPLINETYPE
 70
     6
  9
$SPLINESEGS
 70
     8
  9
$ATTDIA
 70
     0
  9
$ATTREQ
 70
     1
  9
$HANDLING
 70
     1
  9
$HANDSEED
  5
9A
  9
$SURFTAB1
 70
     6
  9
$SURFTAB2
 70
     6
  9
$SURFTYPE
 70
     6
  9
$SURFU
 70
     6
  9
$SURFV
 70
     6
  9
$UCSNAME
  2

  9
$UCSORG
 10
0.0
 20
0.0
 30
0.0
  9
$UCSXDIR
 10
1.0
 20
0.0
 30
0.0
  9
$UCSYDIR
 10
0.0
 20
1.0
 30
0.0
  9
$PUCSNAME
  2

  9
$PUCSORG
 10
0.0
 20
0.0
 30
0.0
  9
$PUCSXDIR
 10
1.0
 20
0.0
 30
0.0
  9
$PUCSYDIR
 10
0.0
 20
1.0
 30
0.0
  9
$USERI1
 70
     0
  9
$USERI2
 70
     0
  9
$USERI3
 70
     0
  9
$USERI4
 70
     0
  9
$USERI5
 70
     0
  9
$USERR1
 40
0.0
  9
$USERR2
 40
0.0
  9
$USERR3
 40
0.0
  9
$USERR4
 40
0.0
  9
$USERR5
 40
0.0
  9
$WORLDVIEW
 70
     1
  9
$SHADEDGE
 70
     3
  9
$SHADEDIF
 70
    70
  9
$TILEMODE
 70
     1
  9
$MAXACTVP
 70
    16
  9
$PLIMCHECK
 70
     0
  9
$PEXTMIN
 10
1.0000000000000000E+020
 20
1.0000000000000000E+020
 30
1.0000000000000000E+020
  9
$PEXTMAX
 10
-1.0000000000000000E+020
 20
-1.0000000000000000E+020
 30
-1.0000000000000000E+020
  9
$PLIMMIN
 10
0.0
 20
0.0
  9
$PLIMMAX
 10
12.0
 20
9.0
  9
$UNITMODE
 70
     0
  9
$VISRETAIN
 70
     0
  9
$PLINEGEN
 70
     0
  9
$PSLTSCALE
 70
     1
  0
ENDSEC
  0
SECTION
  2
TABLES
  0
TABLE
  2
VPORT
 70
     2
  0
VPORT
  2
*ACTIVE
 70
     0
 10
0.0
 20
0.0
 11
1.0
 21
1.0
 12
7.3716126356339942
 22
-10.63924234646151
 13
0.0
 23
0.0
 14
1.0
 24
1.0
 15
0.0
 25
0.0
 16
0.0
 26
0.0
 36
1.0
 17
0.0
 27
0.0
 37
0.0
 40
185.61007224566171
 41
1.4993646759847521
 42
50.0
 43
0.0
 44
0.0
 50
0.0
 51
0.0
 71
     0
 72
   100
 73
     1
 74
     1
 75
     0
 76
     0
 77
     0
 78
     0
  0
ENDTAB
  0
TABLE
  2
LTYPE
 70
     1
  0
LTYPE
  2
CONTINUOUS
 70
     0
  3
Solid line
 72
    65
 73
     0
 40
0.0
  0
ENDTAB
  0
TABLE
  2
LAYER
 70
     1
  0
LAYER
  2
0
 70
     0
 62
     7
  6
CONTINUOUS
  0
ENDTAB
  0
TABLE
  2
STYLE
 70
     1
  0
STYLE
  2
STANDARD
 70
     0
 40
0.0
 41
1.0
 50
0.0
 71
     0
 42
0.2
  3
txt
  4

  0
ENDTAB
  0
TABLE
  2
VIEW
 70
     0
  0
ENDTAB
  0
TABLE
  2
UCS
 70
     0
  0
ENDTAB
  0
TABLE
  2
APPID
 70
     1
  0
APPID
  2
ACAD
 70
     0
  0
ENDTAB
  0
TABLE
  2
DIMSTYLE
 70
     1
  0
DIMSTYLE
  2
STANDARD
 70
     0
  3

  4

  5

  6

  7

 40
1.0
 41
0.18
 42
0.0625
 43
0.38
 44
0.18
 45
0.0
 46
0.0
 47
0.0
 48
0.0
140
0.18
141
0.09
142
0.0
143
25.399999999999999
144
1.0
145
0.0
146
1.0
147
0.09
 71
     0
 72
     0
 73
     1
 74
     1
 75
     0
 76
     0
 77
     0
 78
     0
170
     0
171
     2
172
     0
173
     0
174
     0
175
     0
176
     0
177
     0
178
     0
  0
ENDTAB
  0
ENDSEC
  0
SECTION
  2
BLOCKS
  0
BLOCK
  8
0
  2
$MODEL_SPACE
 70
     0
 10
0.0
 20
0.0
 30
0.0
  3
$MODEL_SPACE
  1

  0
ENDBLK
  5
9
  8
0
  0
BLOCK
 67
     1
  8
0
  2
$PAPER_SPACE
 70
     0
 10
0.0
 20
0.0
 30
0.0
  3
$PAPER_SPACE
  1

  0
ENDBLK
  5
E
 67
     1
  8
0
  0
ENDSEC
  0
SECTION
  2
ENTITIES
  0
LINE
  5
28
  8
0
 62
     8
 10
-23.99957180023193
 20
-0.4996955394744873
 30
0.0
 11
-23.317575454711911
 21
0.4988908767700196
 31
0.0
  0
LINE
  5
29
  8
0
 62
     8
 10
-23.260235786437988
 20
-0.4996955394744873
 30
0.0
 11
-22.578120231628422
 21
0.4988908767700196
 31
0.0
  0
LINE
  5
2A
  8
0
 62
     8
 10
-22.520780563354489
 20
-0.4996955394744873
 30
0.0
 11
-21.838784217834469
 21
0.4988908767700196
 31
0.0
  0
LINE
  5
2B
  8
0
 62
     8
 10
-21.78144454956055
 20
-0.4996955394744873
 30
0.0
 11
-21.09932899475098
 21
0.4988908767700196
 31
0.0
  0
LINE
  5
2C
  8
0
 62
     8
 10
-21.041989326477051
 20
-0.4996955394744873
 30
0.0
 11
-20.35987377166748
 21
0.4988908767700196
 31
0.0
  0
LINE
  5
2D
  8
0
 62
     8
 10
-20.302534103393551
 20
-0.4996955394744873
 30
0.0
 11
-19.620418548583981
 21
0.4988908767700196
 31
0.0
  0
LINE
  5
2E
  8
0
 62
     8
 10
-19.563198089599609
 20
-0.4996955394744873
 30
0.0
 11
-18.881082534790039
 21
0.4988908767700196
 31
0.0
  0
LINE
  5
2F
  8
0
 62
     8
 10
-18.82374286651611
 20
-0.4996955394744873
 30
0.0
 11
-18.141627311706539
 21
0.4988908767700196
 31
0.0
  0
LINE
  5
30
  8
0
 62
     8
 10
-18.08428764343261
 20
-0.4996955394744873
 30
0.0
 11
-17.402291297912591
 21
0.4988908767700196
 31
0.0
  0
LINE
  5
31
  8
0
 62
     8
 10
-17.344951629638668
 20
-0.4996955394744873
 30
0.0
 11
-16.662836074829102
 21
0.4988908767700196
 31
0.0
  0
LINE
  5
32
  8
0
 62
     8
 10
-16.605377197265621
 20
-0.4996955394744873
 30
0.0
 11
-15.9233808517456
 21
0.4988908767700196
 31
0.0
  0
LINE
  5
33
  8
0
 62
     8
 10
-15.86616039276123
 20
-0.4996955394744873
 30
0.0
 11
-15.18404483795166
 21
0.4988908767700196
 31
0.0
  0
LINE
  5
34
  8
0
 62
     8
 10
-15.126705169677731
 20
-0.4996955394744873
 30
0.0
 11
-14.44447040557861
 21
0.4988908767700196
 31
0.0
  0
LINE
  5
35
  8
0
 62
     8
 10
-14.38713073730468
 20
-0.4996955394744873
 30
0.0
 11
-13.705253601074221
 21
0.4988908767700196
 31
0.0
  0
LINE
  5
36
  8
0
 62
     8
 10
-13.647913932800289
 20
-0.4996955394744873
 30
0.0
 11
-12.96567916870117
 21
0.4988908767700196
 31
0.0
  0
LINE
  5
37
  8
0
 62
     8
 10
-12.908339500427241
 20
-0.4996955394744873
 30
0.0
 11
-12.226343154907219
 21
0.4988908767700196
 31
0.0
  0
LINE
  5
38
  8
0
 62
     8
 10
-12.169003486633301
 20
-0.4996955394744873
 30
0.0
 11
-11.48688793182373
 21
0.4988908767700196
 31
0.0
  0
LINE
  5
39
  8
0
 62
     8
 10
-11.429548263549799
 20
-0.4996955394744873
 30
0.0
 11
-10.747432708740231
 21
0.4988908767700196
 31
0.0
  0
LINE
  5
3A
  8
0
 62
     8
 10
-10.69009304046631
 20
-0.4996955394744873
 30
0.0
 11
-10.008096694946291
 21
0.4988908767700196
 31
0.0
  0
LINE
  5
3B
  8
0
 62
     8
 10
-9.9507570266723633
 20
-0.4996955394744873
 30
0.0
 11
-9.2686414718627912
 21
0.4988908767700196
 31
0.0
  0
LINE
  5
3C
  8
0
 62
     8
 10
-9.2113018035888672
 20
-0.4996955394744873
 30
0.0
 11
-8.5291862487792969
 21
0.4988908767700196
 31
0.0
  0
LINE
  5
3D
  8
0
 62
     8
 10
8.500218391418457
 20
-0.2607107162475586
 30
0.0
 11
9.0193748474121094
 21
0.4992187023162842
 31
0.0
  0
LINE
  5
3E
  8
0
 62
     8
 10
9.0767145156860352
 20
-0.4993081092834473
 30
0.0
 11
9.7587108612060547
 21
0.4992187023162842
 31
0.0
  0
LINE
  5
3F
  8
0
 62
     8
 10
9.8160505294799805
 20
-0.4993081092834473
 30
0.0
 11
10.498166084289551
 21
0.4992187023162842
 31
0.0
  0
LINE
  5
40
  8
0
 62
     8
 10
10.555505752563469
 20
-0.4993081092834473
 30
0.0
 11
11.23738288879394
 21
0.4992187023162842
 31
0.0
  0
LINE
  5
41
  8
0
 62
     8
 10
11.29484176635742
 20
-0.4993081092834473
 30
0.0
 11
11.97695732116699
 21
0.4992187023162842
 31
0.0
  0
LINE
  5
42
  8
0
 62
     8
 10
12.03429698944092
 20
-0.4993081092834473
 30
0.0
 11
12.71641254425049
 21
0.4992187023162842
 31
0.0
  0
LINE
  5
43
  8
0
 62
     8
 10
12.77363300323486
 20
-0.4993081092834473
 30
0.0
 11
13.45574855804443
 21
0.4992187023162842
 31
0.0
  0
LINE
  5
44
  8
0
 62
     8
 10
13.513088226318359
 20
-0.4993081092834473
 30
0.0
 11
14.19520378112793
 21
0.4992187023162842
 31
0.0
  0
LINE
  5
45
  8
0
 62
     8
 10
14.25254344940185
 20
-0.4993081092834473
 30
0.0
 11
14.93465900421142
 21
0.4992187023162842
 31
0.0
  0
LINE
  5
46
  8
0
 62
     8
 10
14.991879463195801
 20
-0.4993081092834473
 30
0.0
 11
15.673995018005369
 21
0.4992187023162842
 31
0.0
  0
LINE
  5
47
  8
0
 62
     8
 10
15.73133468627929
 20
-0.4993081092834473
 30
0.0
 11
16.41345024108886
 21
0.4992187023162842
 31
0.0
  0
LINE
  5
48
  8
0
 62
     8
 10
16.470789909362789
 20
-0.4993081092834473
 30
0.0
 11
17.15290546417236
 21
0.4992187023162842
 31
0.0
  0
LINE
  5
49
  8
0
 62
     8
 10
17.210245132446289
 20
-0.4993081092834473
 30
0.0
 11
17.892241477966309
 21
0.4992187023162842
 31
0.0
  0
LINE
  5
4A
  8
0
 62
     8
 10
17.949581146240231
 20
-0.4993081092834473
 30
0.0
 11
18.631815910339348
 21
0.4992187023162842
 31
0.0
  0
LINE
  5
4B
  8
0
 62
     8
 10
18.68903636932373
 20
-0.4993081092834473
 30
0.0
 11
19.37103271484375
 21
0.4992187023162842
 31
0.0
  0
LINE
  5
4C
  8
0
 62
     8
 10
19.428372383117669
 20
-0.4993081092834473
 30
0.0
 11
20.11048793792725
 21
0.4992187023162842
 31
0.0
  0
LINE
  5
4D
  8
0
 62
     8
 10
20.167946815490719
 20
-0.4993081092834473
 30
0.0
 11
20.849943161010739
 21
0.4992187023162842
 31
0.0
  0
LINE
  5
4E
  8
0
 62
     8
 10
20.907402038574219
 20
-0.4993081092834473
 30
0.0
 11
21.589279174804691
 21
0.4992187023162842
 31
0.0
  0
LINE
  5
4F
  8
0
 62
     8
 10
21.646738052368161
 20
-0.4993081092834473
 30
0.0
 11
22.328853607177731
 21
0.4992187023162842
 31
0.0
  0
LINE
  5
50
  8
0
 62
     8
 10
22.38619327545166
 20
-0.4993081092834473
 30
0.0
 11
23.068070411682129
 21
0.4992187023162842
 31
0.0
  0
LINE
  5
51
  8
0
 62
     8
 10
23.125529289245598
 20
-0.4993081092834473
 30
0.0
 11
23.807644844055179
 21
0.4992187023162842
 31
0.0
  0
LINE
  5
52
  8
0
 10
12.268781661987299
 20
-6.2215030193328849
 30
0.0
 11
12.927651405334471
 21
-6.2215030193328849
 31
0.0
  0
LINE
  5
53
  8
0
 10
12.268781661987299
 20
-6.2215030193328849
 30
0.0
 11
13.19813728332519
 21
-0.4993081092834473
 31
0.0
  0
LINE
  5
54
  8
0
 10
11.340498924255369
 20
-0.4993081092834473
 30
0.0
 11
12.268781661987299
 21
-6.2215030193328849
 31
0.0
  0
LINE
  5
55
  8
0
 10
12.927651405334471
 20
-6.2215030193328849
 30
0.0
 11
13.85700702667236
 21
-0.4993081092834473
 31
0.0
  0
LINE
  5
56
  8
0
 10
-8.7122917175292969
 20
-6.2215030193328849
 30
0.0
 11
-8.5357427597045898
 21
-6.2215030193328849
 31
0.0
  0
LINE
  5
57
  8
0
 10
-8.7122917175292969
 20
-6.2215030193328849
 30
0.0
 11
-5.2475929260253897
 21
-0.4992187023162842
 31
0.0
  0
LINE
  5
58
  8
0
 10
-12.176513671875
 20
-0.4993081092834473
 30
0.0
 11
-8.7122917175292969
 21
-6.2215030193328849
 31
0.0
  0
LINE
  5
59
  8
0
 10
-8.5357427597045898
 20
-6.2215030193328849
 30
0.0
 11
-5.0709247589111319
 21
-0.4992187023162842
 31
0.0
  0
LINE
  5
5A
  8
0
 10
-21.46303653717041
 20
-6.2214434146881104
 30
0.0
 11
-20.980715751647949
 21
-6.2214434146881104
 31
0.0
  0
LINE
  5
5B
  8
0
 10
-20.980715751647949
 20
-6.2215030193328849
 30
0.0
 11
-18.444299697875969
 21
-0.4992187023162842
 31
0.0
  0
LINE
  5
5C
  8
0
 10
-23.51737022399902
 20
-0.4993081092834473
 30
0.0
 11
-20.980715751647949
 21
-6.2214434146881104
 31
0.0
  0
LINE
  5
5D
  8
0
 10
-23.99897575378418
 20
-0.5008578300476075
 30
0.0
 11
-21.46303653717041
 21
-6.2214434146881104
 31
0.0
  0
LINE
  5
5E
  8
0
 10
19.196987152099609
 20
-6.2215030193328849
 30
0.0
 11
19.85585689544677
 21
-6.2215030193328849
 31
0.0
  0
LINE
  5
5F
  8
0
 10
18.268585205078121
 20
-0.4992187023162842
 30
0.0
 11
19.196987152099609
 21
-6.2215030193328849
 31
0.0
  0
LINE
  5
60
  8
0
 10
19.85585689544677
 20
-6.2215030193328849
 30
0.0
 11
20.785093307495121
 21
-0.4993081092834473
 31
0.0
  0
LINE
  5
61
  8
0
 10
18.927454948425289
 20
-0.4992187023162842
 30
0.0
 11
19.85585689544677
 21
-6.2215030193328849
 31
0.0
  0
LINE
  5
62
  8
0
 10
2.0532608032226558
 20
-6.2215030193328849
 30
0.0
 11
2.5355815887451172
 21
-6.2215030193328849
 31
0.0
  0
LINE
  5
63
  8
0
 10
2.0532608032226558
 20
-6.2215030193328849
 30
0.0
 11
4.5895576477050781
 21
-0.4993081092834473
 31
0.0
  0
LINE
  5
64
  8
0
 10
-0.4818439483642579
 20
-0.4993081092834473
 30
0.0
 11
2.0532608032226558
 21
-6.2215030193328849
 31
0.0
  0
LINE
  5
65
  8
0
 10
2.5355815887451172
 20
-6.2215030193328849
 30
0.0
 11
5.0718784332275391
 21
-0.4993081092834473
 31
0.0
  0
LINE
  5
66
  8
0
 10
-17.319917678833001
 20
-6.2215030193328849
 30
0.0
 11
-17.143368721008301
 21
-6.2215030193328849
 31
0.0
  0
LINE
  5
67
  8
0
 10
-17.143368721008301
 20
-6.2215030193328849
 30
0.0
 11
-13.678431510925289
 21
-0.4992187023162842
 31
0.0
  0
LINE
  5
68
  8
0
 10
-19.35935020446777
 20
-2.561241388320922
 30
0.0
 11
-17.143368721008301
 21
-6.2215030193328849
 31
0.0
  0
LINE
  5
69
  8
0
 10
-19.433975219726559
 20
-2.7296543121337891
 30
0.0
 11
-17.319917678833001
 21
-6.2215030193328849
 31
0.0
  0
LINE
  5
6A
  8
0
 10
17.320990562438961
 20
6.2215030193328849
 30
0.0
 11
17.144441604614251
 21
6.2215030193328849
 31
0.0
  0
LINE
  5
6B
  8
0
 10
19.360065460205071
 20
2.5616884231567378
 30
0.0
 11
17.144441604614251
 21
6.2215030193328849
 31
0.0
  0
LINE
  5
6C
  8
0
 10
17.144441604614251
 20
6.2215030193328849
 30
0.0
 11
13.67950439453125
 21
0.4991292953491211
 31
0.0
  0
LINE
  5
6D
  8
0
 10
19.434571266174309
 20
2.7300417423248291
 30
0.0
 11
17.320990562438961
 21
6.2215030193328849
 31
0.0
  0
LINE
  5
6E
  8
0
 10
-2.0532608032226558
 20
6.2215030193328849
 30
0.0
 11
-2.5355815887451172
 21
6.2215030193328849
 31
0.0
  0
LINE
  5
6F
  8
0
 10
0.4826784133911133
 20
0.4993081092834473
 30
0.0
 11
-2.0532608032226558
 21
6.2215030193328849
 31
0.0
  0
LINE
  5
70
  8
0
 10
-2.0532608032226558
 20
6.2215030193328849
 30
0.0
 11
-4.5895576477050781
 21
0.4993081092834473
 31
0.0
  0
LINE
  5
71
  8
0
 10
-2.5355815887451172
 20
6.2215030193328849
 30
0.0
 11
-5.071997642517089
 21
0.4993081092834473
 31
0.0
  0
LINE
  5
72
  8
0
 10
-19.197344779968262
 20
6.2215030193328849
 30
0.0
 11
-19.85621452331543
 21
6.2215030193328849
 31
0.0
  0
LINE
  5
73
  8
0
 10
-18.26894283294677
 20
0.4991292953491211
 30
0.0
 11
-19.197344779968262
 21
6.2215030193328849
 31
0.0
  0
LINE
  5
74
  8
0
 10
-18.927812576293942
 20
0.4991292953491211
 30
0.0
 11
-19.85621452331543
 21
6.2215030193328849
 31
0.0
  0
LINE
  5
75
  8
0
 10
-19.85621452331543
 20
6.2215030193328849
 30
0.0
 11
-20.78449726104736
 21
0.4992187023162842
 31
0.0
  0
LINE
  5
76
  8
0
 10
21.46458625793457
 20
6.2215030193328849
 30
0.0
 11
20.982146263122559
 21
6.2215030193328849
 31
0.0
  0
LINE
  5
77
  8
0
 10
23.51832389831543
 20
0.4992187023162842
 30
0.0
 11
20.982146263122559
 21
6.2215030193328849
 31
0.0
  0
LINE
  5
78
  8
0
 10
20.982146263122559
 20
6.2215030193328849
 30
0.0
 11
18.44596862792968
 21
0.4991292953491211
 31
0.0
  0
LINE
  5
79
  8
0
 10
23.999810218811032
 20
0.5010664463043213
 30
0.0
 11
21.46458625793457
 21
6.2215030193328849
 31
0.0
  0
LINE
  5
7A
  8
0
 10
8.7127685546875
 20
6.2215030193328849
 30
0.0
 11
8.5362195968627912
 21
6.2215030193328849
 31
0.0
  0
LINE
  5
7B
  8
0
 10
12.1769905090332
 20
0.4992187023162842
 30
0.0
 11
8.7127685546875
 21
6.2215030193328849
 31
0.0
  0
LINE
  5
7C
  8
0
 10
8.7127685546875
 20
6.2215030193328849
 30
0.0
 11
5.2479505538940421
 21
0.4991292953491211
 31
0.0
  0
LINE
  5
7D
  8
0
 10
8.5362195968627912
 20
6.2215030193328849
 30
0.0
 11
5.071401596069335
 21
0.4991292953491211
 31
0.0
  0
LINE
  5
7E
  8
0
 10
-12.269020080566399
 20
6.2215030193328849
 30
0.0
 11
-12.927889823913571
 21
6.2215030193328849
 31
0.0
  0
LINE
  5
7F
  8
0
 10
-11.34085655212402
 20
0.4992187023162842
 30
0.0
 11
-12.269020080566399
 21
6.2215030193328849
 31
0.0
  0
LINE
  5
80
  8
0
 10
-12.269020080566399
 20
6.2215030193328849
 30
0.0
 11
-13.19754123687744
 21
0.4991292953491211
 31
0.0
  0
LINE
  5
81
  8
0
 10
-12.927889823913571
 20
6.2215030193328849
 30
0.0
 11
-13.856410980224609
 21
0.4991292953491211
 31
0.0
  0
LINE
  5
82
  8
0
 10
24.000287055969238
 20
-0.4993081092834473
 30
0.0
 11
24.000287055969238
 21
0.4993081092834473
 31
0.0
  0
LINE
  5
83
  8
0
 10
-23.999214172363281
 20
0.4993081092834473
 30
0.0
 11
-23.999214172363281
 21
-0.4993081092834473
 31
0.0
  0
LINE
  5
84
  8
0
 10
8.500218391418457
 20
-0.4992783069610596
 30
0.0
 11
8.500218391418457
 21
0.4993677139282227
 31
0.0
  0
LINE
  5
85
  8
0
 10
-8.4997415542602521
 20
0.4993677139282227
 30
0.0
 11
-8.4997415542602521
 21
-0.4992783069610596
 31
0.0
  0
LINE
  5
86
  8
0
 10
23.999810218811032
 20
-0.4993081092834473
 30
0.0
 11
-23.999214172363281
 21
-0.4993081092834473
 31
0.0
  0
LINE
  5
87
  8
0
 10
23.999810218811032
 20
0.4993081092834473
 30
0.0
 11
-23.999214172363281
 21
0.4993081092834473
 31
0.0
  0
ENDSEC
  0
EOF
