  0
SECTION
  2
HEADER
  9
$ACADVER
  1
AC1009
  9
$INSBASE
 10
0.0
 20
0.0
 30
0.0
  9
$EXTMIN
 10
-22.9745192527771
 20
-23.801299512386318
 30
0.0
  9
$EXTMAX
 10
25.239439487457279
 20
24.412689030170441
 30
1.1999999405816191
  9
$LIMMIN
 10
0.0
 20
0.0
  9
$LIMMAX
 10
12.0
 20
9.0
  9
$ORTHOMODE
 70
     0
  9
$REGENMODE
 70
     1
  9
$FILLMODE
 70
     1
  9
$QTEXTMODE
 70
     0
  9
$MIRRTEXT
 70
     0
  9
$DRAGMODE
 70
     2
  9
$LTSCALE
 40
0.0492126010358334
  9
$OSMODE
 70
    47
  9
$ATTMODE
 70
     1
  9
$TEXTSIZE
 40
0.2
  9
$TRACEWID
 40
0.05
  9
$TEXTSTYLE
  7
STANDARD
  9
$CLAYER
  8
0
  9
$CELTYPE
  6
BYLAYER
  9
$CECOLOR
 62
   256
  9
$DIMSCALE
 40
1.0
  9
$DIMASZ
 40
0.0003968749952037
  9
$DIMEXO
 40
0.1249999850988388
  9
$DIMDLI
 40
1.000000357627868
  9
$DIMRND
 40
0.0
  9
$DIMDLE
 40
0.0
  9
$DIMEXE
 40
0.18
  9
$DIMTP
 40
0.0
  9
$DIMTM
 40
0.0
  9
$DIMTXT
 40
0.18
  9
$DIMCEN
 40
0.09
  9
$DIMTSZ
 40
0.0
  9
$DIMTOL
 70
     0
  9
$DIMLIM
 70
     0
  9
$DIMTIH
 70
     0
  9
$DIMTOH
 70
     0
  9
$DIMSE1
 70
     0
  9
$DIMSE2
 70
     0
  9
$DIMTAD
 70
     0
  9
$DIMZIN
 70
     0
  9
$DIMBLK
  1

  9
$DIMASO
 70
     1
  9
$DIMSHO
 70
     1
  9
$DIMPOST
  1

  9
$DIMAPOST
  1

  9
$DIMALT
 70
     0
  9
$DIMALTD
 70
     2
  9
$DIMALTF
 40
25.399999999999999
  9
$DIMLFAC
 40
1.0
  9
$DIMTOFL
 70
     0
  9
$DIMTVP
 40
0.0
  9
$DIMTIX
 70
     0
  9
$DIMSOXD
 70
     0
  9
$DIMSAH
 70
     0
  9
$DIMBLK1
  1

  9
$DIMBLK2
  1

  9
$DIMSTYLE
  2
STANDARD
  9
$DIMCLRD
 70
     0
  9
$DIMCLRE
 70
     0
  9
$DIMCLRT
 70
     0
  9
$DIMTFAC
 40
1.0
  9
$DIMGAP
 40
0.09
  9
$LUNITS
 70
     2
  9
$LUPREC
 70
     0
  9
$SKETCHINC
 40
0.1
  9
$FILLETRAD
 40
0.0
  9
$AUNITS
 70
     0
  9
$AUPREC
 70
     0
  9
$MENU
  1
acad
  9
$ELEVATION
 40
0.0
  9
$PELEVATION
 40
0.0
  9
$THICKNESS
 40
0.0
  9
$LIMCHECK
 70
     0
  9
$BLIPMODE
 70
     0
  9
$CHAMFERA
 40
0.0
  9
$CHAMFERB
 40
0.0
  9
$SKPOLY
 70
     0
  9
$TDCREATE
 40
2449631.7321383101
  9
$TDUPDATE
 40
2453443.5714981132
  9
$TDINDWG
 40
0.0069887269
  9
$TDUSRTIMER
 40
0.0069887269
  9
$USRTIMER
 70
     1
  9
$ANGBASE
 50
0.0
  9
$ANGDIR
 70
     0
  9
$PDMODE
 70
     0
  9
$PDSIZE
 40
0.0
  9
$PLINEWID
 40
0.0
  9
$COORDS
 70
     1
  9
$SPLFRAME
 70
     0
  9
$SPLINETYPE
 70
     6
  9
$SPLINESEGS
 70
     8
  9
$ATTDIA
 70
     0
  9
$ATTREQ
 70
     1
  9
$HANDLING
 70
     1
  9
$HANDSEED
  5
B2
  9
$SURFTAB1
 70
     6
  9
$SURFTAB2
 70
     6
  9
$SURFTYPE
 70
     6
  9
$SURFU
 70
     6
  9
$SURFV
 70
     6
  9
$UCSNAME
  2

  9
$UCSORG
 10
0.0
 20
0.0
 30
0.0
  9
$UCSXDIR
 10
1.0
 20
0.0
 30
0.0
  9
$UCSYDIR
 10
0.0
 20
1.0
 30
0.0
  9
$PUCSNAME
  2

  9
$PUCSORG
 10
0.0
 20
0.0
 30
0.0
  9
$PUCSXDIR
 10
1.0
 20
0.0
 30
0.0
  9
$PUCSYDIR
 10
0.0
 20
1.0
 30
0.0
  9
$USERI1
 70
     0
  9
$USERI2
 70
     0
  9
$USERI3
 70
     0
  9
$USERI4
 70
     0
  9
$USERI5
 70
     0
  9
$USERR1
 40
0.0
  9
$USERR2
 40
0.0
  9
$USERR3
 40
0.0
  9
$USERR4
 40
0.0
  9
$USERR5
 40
0.0
  9
$WORLDVIEW
 70
     1
  9
$SHADEDGE
 70
     3
  9
$SHADEDIF
 70
    70
  9
$TILEMODE
 70
     1
  9
$MAXACTVP
 70
    16
  9
$PLIMCHECK
 70
     0
  9
$PEXTMIN
 10
1.0000000000000000E+020
 20
1.0000000000000000E+020
 30
1.0000000000000000E+020
  9
$PEXTMAX
 10
-1.0000000000000000E+020
 20
-1.0000000000000000E+020
 30
-1.0000000000000000E+020
  9
$PLIMMIN
 10
0.0
 20
0.0
  9
$PLIMMAX
 10
12.0
 20
9.0
  9
$UNITMODE
 70
     0
  9
$VISRETAIN
 70
     0
  9
$PLINEGEN
 70
     0
  9
$PSLTSCALE
 70
     1
  0
ENDSEC
  0
SECTION
  2
TABLES
  0
TABLE
  2
VPORT
 70
     2
  0
VPORT
  2
*ACTIVE
 70
     0
 10
0.0
 20
0.0
 11
1.0
 21
1.0
 12
34.465621883905733
 22
1.4025387063554711
 13
0.0
 23
0.0
 14
1.0
 24
1.0
 15
0.0
 25
0.0
 16
0.0
 26
0.0
 36
1.0
 17
0.0
 27
0.0
 37
0.0
 40
185.61007224566171
 41
1.4993646759847521
 42
50.0
 43
0.0
 44
0.0
 50
0.0
 51
0.0
 71
     0
 72
   100
 73
     1
 74
     1
 75
     0
 76
     0
 77
     0
 78
     0
  0
ENDTAB
  0
TABLE
  2
LTYPE
 70
     1
  0
LTYPE
  2
CONTINUOUS
 70
     0
  3
Solid line
 72
    65
 73
     0
 40
0.0
  0
ENDTAB
  0
TABLE
  2
LAYER
 70
     1
  0
LAYER
  2
0
 70
     0
 62
     7
  6
CONTINUOUS
  0
ENDTAB
  0
TABLE
  2
STYLE
 70
     2
  0
STYLE
  2
STANDARD
 70
     0
 40
0.0
 41
1.0
 50
0.0
 71
     0
 42
0.2
  3
txt
  4

  0
STYLE
  2
SST
 70
     0
 40
0.0
 41
1.0
 50
0.0
 71
     0
 42
3.5
  3
romans.shx
  4

  0
ENDTAB
  0
TABLE
  2
VIEW
 70
     0
  0
ENDTAB
  0
TABLE
  2
UCS
 70
     0
  0
ENDTAB
  0
TABLE
  2
APPID
 70
     1
  0
APPID
  2
ACAD
 70
     0
  0
ENDTAB
  0
TABLE
  2
DIMSTYLE
 70
     1
  0
DIMSTYLE
  2
STANDARD
 70
     0
  3

  4

  5

  6

  7

 40
1.0
 41
0.18
 42
0.0625
 43
0.38
 44
0.18
 45
0.0
 46
0.0
 47
0.0
 48
0.0
140
0.18
141
0.09
142
0.0
143
25.399999999999999
144
1.0
145
0.0
146
1.0
147
0.09
 71
     0
 72
     0
 73
     1
 74
     1
 75
     0
 76
     0
 77
     0
 78
     0
170
     0
171
     2
172
     0
173
     0
174
     0
175
     0
176
     0
177
     0
178
     0
  0
ENDTAB
  0
ENDSEC
  0
SECTION
  2
BLOCKS
  0
BLOCK
  8
0
  2
$MODEL_SPACE
 70
     0
 10
0.0
 20
0.0
 30
0.0
  3
$MODEL_SPACE
  1

  0
ENDBLK
  5
9
  8
0
  0
BLOCK
 67
     1
  8
0
  2
$PAPER_SPACE
 70
     0
 10
0.0
 20
0.0
 30
0.0
  3
$PAPER_SPACE
  1

  0
ENDBLK
  5
E
 67
     1
  8
0
  0
BLOCK
  8
0
  2
SIMPSON-STRONG-TIE
 70
     0
 10
0.0
 20
0.0
 30
0.0
  3
SIMPSON-STRONG-TIE
  1

  0
TEXT
  5
9A
  8
0
  6
CONTINUOUS
 10
-4.7318727780691416
 20
4.4215860385237811
 30
0.0
 40
2.0
  1
SIMPSON
 50
316.94148639091338
  7
SST
 72
     1
 11
0.0
 21
0.0
 31
0.0
  0
TEXT
  5
9C
  8
0
  6
CONTINUOUS
 10
-7.9648409725863862
 20
3.4769825481547749
 30
0.0
 40
2.0
  1
Strong-Tie
 50
316.94148639091338
  7
SST
 72
     1
 11
-2.0499999999999541
 21
-2.0499999999999541
 31
0.0
  0
ENDBLK
  5
9D
  8
0
  0
ENDSEC
  0
SECTION
  2
ENTITIES
  0
CIRCLE
  5
28
  8
0
 39
1.1999999405816191
 10
1.132460117340087
 20
0.3056798577308655
 30
0.0
 40
8.5000144317746162
  0
CIRCLE
  5
29
  8
0
 39
1.1999999405816191
 10
15.47226476669311
 20
0.3057394623756409
 30
0.0
 40
2.0000231452286239
  0
CIRCLE
  5
2A
  8
0
 39
1.1999999405816191
 10
-13.207344532012939
 20
0.3057394623756409
 30
0.0
 40
2.0000231452286239
  0
LINE
  5
2B
  8
0
 10
-3.9385838508605948
 20
-18.622162520885471
 30
0.0
 11
-10.867623805999751
 21
-20.47878760099411
 31
0.0
  0
LINE
  5
2C
  8
0
 10
-4.4515414237976074
 20
-19.794973313808441
 30
0.0
 11
-3.9385838508605948
 21
-18.622579753398892
 31
0.0
  0
LINE
  5
2D
  8
0
 10
-7.1445984840393058
 20
-20.516457736492161
 30
0.0
 11
-7.4034018516540518
 21
-19.551071107387539
 31
0.0
  0
LINE
  5
2E
  8
0
 10
-10.8672661781311
 20
-20.479115426540378
 30
0.0
 11
-9.7861571311950684
 21
-21.224262893199921
 31
0.0
  0
LINE
  5
2F
  8
0
 10
-4.4515414237976074
 20
-19.794973313808441
 30
0.0
 11
-9.7861571311950684
 21
-21.224262893199921
 31
0.0
  0
LINE
  5
30
  8
0
 10
-3.9381070137023921
 20
-18.622311532497399
 30
0.0
 11
1.131744861602783
 21
-23.697050988674171
 31
0.0
  0
LINE
  5
31
  8
0
 10
-4.0809197425842276
 20
-19.894393861293789
 30
0.0
 11
-3.938464641571044
 21
-18.622639358043671
 31
0.0
  0
LINE
  5
32
  8
0
 10
1.13138723373413
 20
-23.69714039564133
 30
0.0
 11
-0.1775307655334473
 21
-23.801299512386318
 31
0.0
  0
LINE
  5
33
  8
0
 10
-4.0809197425842276
 20
-19.894393861293789
 30
0.0
 11
-0.1775307655334473
 21
-23.801299512386318
 31
0.0
  0
LINE
  5
34
  8
0
 10
6.2046961784362793
 20
-18.621894299983978
 30
0.0
 11
1.1323409080505371
 21
-23.69424957036972
 31
0.0
  0
LINE
  5
35
  8
0
 10
6.3469128608703613
 20
-19.894006431102749
 30
0.0
 11
6.20493459701538
 21
-18.622222125530239
 31
0.0
  0
LINE
  5
36
  8
0
 10
4.3753104209899902
 20
-21.86540025472641
 30
0.0
 11
3.6685185432434082
 21
-21.158697783946991
 31
0.0
  0
LINE
  5
37
  8
0
 10
1.132698535919189
 20
-23.694338977336891
 30
0.0
 11
2.4416165351867671
 21
-23.799094140529629
 31
0.0
  0
LINE
  5
38
  8
0
 10
6.3469128608703613
 20
-19.894006431102749
 30
0.0
 11
2.4416165351867671
 21
-23.799094140529629
 31
0.0
  0
LINE
  5
39
  8
0
 10
6.2051730155944824
 20
-18.62174528837204
 30
0.0
 11
13.133259296417229
 21
-20.481618821620941
 31
0.0
  0
LINE
  5
3A
  8
0
 10
6.717653751373291
 20
-19.794764697551731
 30
0.0
 11
6.2051730155944824
 21
-18.62213271856308
 31
0.0
  0
LINE
  5
3B
  8
0
 10
13.13290166854858
 20
-20.481916844844822
 30
0.0
 11
12.051434993743889
 21
-21.22655767202378
 31
0.0
  0
LINE
  5
3C
  8
0
 10
6.717653751373291
 20
-19.794764697551731
 30
0.0
 11
12.051434993743889
 21
-21.22655767202378
 31
0.0
  0
LINE
  5
3D
  8
0
 10
14.98887109756469
 20
-13.54998606443405
 30
0.0
 11
13.13230562210083
 21
-20.478936612606049
 31
0.0
  0
LINE
  5
3E
  8
0
 10
15.748115062713619
 20
-14.58058017492294
 30
0.0
 11
14.98922872543335
 21
-13.55013507604599
 31
0.0
  0
LINE
  5
3F
  8
0
 10
15.02642202377319
 20
-17.273637235164639
 30
0.0
 11
14.06106519699096
 21
-17.014982879161831
 31
0.0
  0
LINE
  5
40
  8
0
 10
13.13278245925903
 20
-20.47878760099411
 30
0.0
 11
14.318557262420651
 21
-19.91507667303085
 31
0.0
  0
LINE
  5
41
  8
0
 10
15.748115062713619
 20
-14.58058017492294
 30
0.0
 11
14.318557262420651
 21
-19.91507667303085
 31
0.0
  0
LINE
  5
42
  8
0
 10
14.98922872543335
 20
-13.54959863424301
 30
0.0
 11
21.919103145599369
 21
-11.69625180959701
 31
0.0
  0
LINE
  5
43
  8
0
 10
16.019673824310299
 20
-14.30925983190536
 30
0.0
 11
14.989467144012449
 21
-13.54998606443405
 31
0.0
  0
LINE
  5
44
  8
0
 10
21.918864727020271
 20
-11.696698844432831
 30
0.0
 11
21.35476636886597
 21
-12.88229483366012
 31
0.0
  0
LINE
  5
45
  8
0
 10
16.019673824310299
 20
-14.30925983190536
 30
0.0
 11
21.35476636886597
 21
-12.88229483366012
 31
0.0
  0
LINE
  5
46
  8
0
 10
20.060391902923591
 20
-4.7654237151145926
 30
0.0
 11
21.916957378387451
 21
-11.694433867931361
 31
0.0
  0
LINE
  5
47
  8
0
 10
21.23317289352417
 20
-5.2783514857292166
 30
0.0
 11
20.06074953079224
 21
-4.7653939127922049
 31
0.0
  0
LINE
  5
48
  8
0
 10
21.954508304595951
 20
-7.9714979529380789
 30
0.0
 11
20.989270687103271
 21
-8.2301821112632751
 31
0.0
  0
LINE
  5
49
  8
0
 10
21.917315006256111
 20
-11.694046437740321
 30
0.0
 11
22.662492275238041
 21
-10.612937390804291
 31
0.0
  0
LINE
  5
4A
  8
0
 10
21.23317289352417
 20
-5.2783514857292166
 30
0.0
 11
22.662492275238041
 21
-10.612937390804291
 31
0.0
  0
LINE
  5
4B
  8
0
 10
20.060511112213138
 20
-4.7649468779563904
 30
0.0
 11
25.135131359100338
 21
0.3050242066383362
 31
0.0
  0
LINE
  5
4C
  8
0
 10
21.332593441009521
 20
-4.9076701998710632
 30
0.0
 11
20.06074953079224
 21
-4.7651852965354911
 31
0.0
  0
LINE
  5
4D
  8
0
 10
25.135250568389889
 20
0.3045473694801331
 30
0.0
 11
25.239439487457279
 21
-1.0043408274650569
 31
0.0
  0
LINE
  5
4E
  8
0
 10
21.332593441009521
 20
-4.9076701998710632
 30
0.0
 11
25.239439487457279
 21
-1.0043408274650569
 31
0.0
  0
LINE
  5
4F
  8
0
 10
20.060034275054932
 20
5.377915918827056
 30
0.0
 11
25.132508754730232
 21
0.305530846118927
 31
0.0
  0
LINE
  5
50
  8
0
 10
21.332235813140869
 20
5.5201027989387512
 30
0.0
 11
20.060391902923591
 21
5.3781543374061576
 31
0.0
  0
LINE
  5
51
  8
0
 10
23.303480625152591
 20
3.5485003590583801
 30
0.0
 11
22.596927165985111
 21
2.841768085956573
 31
0.0
  0
LINE
  5
52
  8
0
 10
25.132508754730232
 20
0.3060374855995178
 30
0.0
 11
25.237293720245361
 21
1.6148362755775449
 31
0.0
  0
LINE
  5
53
  8
0
 10
21.332235813140869
 20
5.5201027989387512
 30
0.0
 11
25.237293720245361
 21
1.6148362755775449
 31
0.0
  0
LINE
  5
54
  8
0
 10
20.059915065765381
 20
5.3783629536628723
 30
0.0
 11
21.91981840133667
 21
12.30644923448563
 31
0.0
  0
LINE
  5
55
  8
0
 10
21.232934474945068
 20
5.89084368944168
 30
0.0
 11
20.06027269363404
 21
5.3783331513404837
 31
0.0
  0
LINE
  5
56
  8
0
 10
21.920056819915771
 20
12.30609160661697
 30
0.0
 11
22.664757251739498
 21
11.22468453645706
 31
0.0
  0
LINE
  5
57
  8
0
 10
21.232934474945068
 20
5.89084368944168
 30
0.0
 11
22.664757251739498
 21
11.22468453645706
 31
0.0
  0
LINE
  5
58
  8
0
 10
14.988155841827391
 20
14.16215044260025
 30
0.0
 11
21.917195796966549
 21
12.305525362491609
 31
0.0
  0
LINE
  5
59
  8
0
 10
16.018720149993889
 20
14.92136460542679
 30
0.0
 11
14.98827505111694
 21
14.16253787279129
 31
0.0
  0
LINE
  5
5A
  8
0
 10
18.711777210235589
 20
14.19955235719681
 30
0.0
 11
18.453212261199951
 21
13.234225332736971
 31
0.0
  0
LINE
  5
5B
  8
0
 10
21.916957378387451
 20
12.306002199649811
 30
0.0
 11
21.35321664810181
 21
13.491836607456211
 31
0.0
  0
LINE
  5
5C
  8
0
 10
16.018720149993889
 20
14.92136460542679
 30
0.0
 11
21.35321664810181
 21
13.491836607456211
 31
0.0
  0
LINE
  5
5D
  8
0
 10
14.98779821395874
 20
14.162508070468901
 30
0.0
 11
13.134451389312741
 21
21.092322885990139
 31
0.0
  0
LINE
  5
5E
  8
0
 10
15.747519016265869
 20
15.192804157733921
 30
0.0
 11
14.988155841827391
 21
14.16262727975845
 31
0.0
  0
LINE
  5
5F
  8
0
 10
13.134809017181389
 20
21.09214407205582
 30
0.0
 11
14.32046461105346
 21
20.52795630693436
 31
0.0
  0
LINE
  5
60
  8
0
 10
15.747519016265869
 20
15.192804157733921
 30
0.0
 11
14.32046461105346
 21
20.52795630693436
 31
0.0
  0
LINE
  5
61
  8
0
 10
6.2036232948303223
 20
19.23358184099197
 30
0.0
 11
13.13254404067993
 21
21.090147316455841
 31
0.0
  0
LINE
  5
62
  8
0
 10
6.7164616584777832
 20
20.406392633914951
 30
0.0
 11
6.2036232948303223
 21
19.23396927118301
 31
0.0
  0
LINE
  5
63
  8
0
 10
9.4096379280090332
 20
21.1277876496315
 30
0.0
 11
9.6683220863342285
 21
20.162460625171661
 31
0.0
  0
LINE
  5
64
  8
0
 10
13.132186412811279
 20
21.09050494432449
 30
0.0
 11
12.051077365875241
 21
21.835592806339271
 31
0.0
  0
LINE
  5
65
  8
0
 10
6.7164616584777832
 20
20.406392633914951
 30
0.0
 11
12.051077365875241
 21
21.835592806339271
 31
0.0
  0
LINE
  5
66
  8
0
 10
6.2031464576721191
 20
19.233701050281521
 30
0.0
 11
1.1331753730773919
 21
24.308440506458279
 31
0.0
  0
LINE
  5
67
  8
0
 10
6.3458399772644043
 20
20.505813181400299
 30
0.0
 11
6.2033848762512198
 21
19.23396927118301
 31
0.0
  0
LINE
  5
68
  8
0
 10
1.133533000946044
 20
24.30847030878067
 30
0.0
 11
2.4425702095031729
 21
24.412689030170441
 31
0.0
  0
LINE
  5
69
  8
0
 10
6.3458399772644043
 20
20.505813181400299
 30
0.0
 11
2.4425702095031729
 21
24.412689030170441
 31
0.0
  0
LINE
  5
6A
  8
0
 10
-3.9397759437561031
 20
19.2332838177681
 30
0.0
 11
1.132579326629638
 21
24.305609285831451
 31
0.0
  0
LINE
  5
6B
  8
0
 10
-4.0819926261901847
 20
20.505425751209259
 30
0.0
 11
-3.9400143623352051
 21
19.233611643314362
 31
0.0
  0
LINE
  5
6C
  8
0
 10
-2.1102709770202628
 20
22.476759970188141
 30
0.0
 11
-1.403479099273681
 21
21.770117104053501
 31
0.0
  0
LINE
  5
6D
  8
0
 10
1.1322216987609861
 20
24.305728495120999
 30
0.0
 11
-0.1766963005065918
 21
24.41045385599136
 31
0.0
  0
LINE
  5
6E
  8
0
 10
-4.0819926261901847
 20
20.505425751209259
 30
0.0
 11
-0.1766963005065918
 21
24.41045385599136
 31
0.0
  0
LINE
  5
6F
  8
0
 10
-3.9402527809143062
 20
19.233134806156158
 30
0.0
 11
-10.86821985244751
 21
21.09300833940506
 31
0.0
  0
LINE
  5
70
  8
0
 10
-4.4526143074035636
 20
20.406213819980621
 30
0.0
 11
-3.9402527809143062
 21
19.233492434024811
 31
0.0
  0
LINE
  5
71
  8
0
 10
-10.867981433868399
 20
21.093246757984161
 30
0.0
 11
-9.7865147590637207
 21
21.83797699213028
 31
0.0
  0
LINE
  5
72
  8
0
 10
-4.4526143074035636
 20
20.406213819980621
 30
0.0
 11
-9.7865147590637207
 21
21.83797699213028
 31
0.0
  0
LINE
  5
73
  8
0
 10
-12.72395086288452
 20
14.16137558221817
 30
0.0
 11
-10.867385387420651
 21
21.09029632806778
 31
0.0
  0
LINE
  5
74
  8
0
 10
-13.483194828033451
 20
15.19196969270706
 30
0.0
 11
-12.72430849075317
 21
14.16152459383011
 31
0.0
  0
LINE
  5
75
  8
0
 10
-12.76138257980347
 20
17.88499695062637
 30
0.0
 11
-11.79602575302124
 21
17.626402199268341
 31
0.0
  0
LINE
  5
76
  8
0
 10
-10.86786222457885
 20
21.090177118778229
 30
0.0
 11
-12.05363702774048
 21
20.526436388492591
 31
0.0
  0
LINE
  5
77
  8
0
 10
-13.483194828033451
 20
15.19196969270706
 30
0.0
 11
-12.05363702774048
 21
20.526436388492591
 31
0.0
  0
LINE
  5
78
  8
0
 10
-12.72430849075317
 20
14.16098815202713
 30
0.0
 11
-19.654182910919189
 21
12.30764132738113
 31
0.0
  0
LINE
  5
79
  8
0
 10
-13.754753589630131
 20
14.92067915201187
 30
0.0
 11
-12.72454690933227
 21
14.161315977573389
 31
0.0
  0
LINE
  5
7A
  8
0
 10
-19.653944492340091
 20
12.308028757572171
 30
0.0
 11
-19.08972692489624
 21
13.49371415376663
 31
0.0
  0
LINE
  5
7B
  8
0
 10
-13.754753589630131
 20
14.92067915201187
 30
0.0
 11
-19.08972692489624
 21
13.49371415376663
 31
0.0
  0
LINE
  5
7C
  8
0
 10
-17.795352458953861
 20
5.3768132328987122
 30
0.0
 11
-19.652037143707268
 21
12.305763781070709
 31
0.0
  0
LINE
  5
7D
  8
0
 10
-18.96813344955444
 20
5.8897410035133362
 30
0.0
 11
-17.79571008682251
 21
5.3768132328987122
 31
0.0
  0
LINE
  5
7E
  8
0
 10
-19.689588069915771
 20
8.5828874707221985
 30
0.0
 11
-18.724231243133541
 21
8.8416014313697815
 31
0.0
  0
LINE
  5
7F
  8
0
 10
-19.652275562286381
 20
12.305435955524439
 30
0.0
 11
-20.397572040557861
 21
11.22429710626602
 31
0.0
  0
LINE
  5
80
  8
0
 10
-18.96813344955444
 20
5.8897410035133362
 30
0.0
 11
-20.397572040557861
 21
11.22429710626602
 31
0.0
  0
LINE
  5
81
  8
0
 10
-17.795590877532959
 20
5.3763661980628958
 30
0.0
 11
-22.87021112442017
 21
0.3063653111457825
 31
0.0
  0
LINE
  5
82
  8
0
 10
-19.067673206329339
 20
5.519059717655181
 30
0.0
 11
-17.795829296112061
 21
5.376545011997222
 31
0.0
  0
LINE
  5
83
  8
0
 10
-22.87033033370972
 20
0.3067825436592102
 30
0.0
 11
-22.9745192527771
 21
1.615730345249176
 31
0.0
  0
LINE
  5
84
  8
0
 10
-19.067673206329339
 20
5.519059717655181
 30
0.0
 11
-22.9745192527771
 21
1.615730345249176
 31
0.0
  0
LINE
  5
85
  8
0
 10
-17.795114040374749
 20
-4.7665264010429382
 30
0.0
 11
-22.867469310760502
 21
0.3058288693428039
 31
0.0
  0
LINE
  5
86
  8
0
 10
-19.067196369171139
 20
-4.9087430834770203
 30
0.0
 11
-17.795471668243412
 21
-4.7667350172996521
 31
0.0
  0
LINE
  5
87
  8
0
 10
-21.038560390472409
 20
-2.937110841274261
 30
0.0
 11
-20.331887722015381
 21
-2.2303785681724539
 31
0.0
  0
LINE
  5
88
  8
0
 10
-22.867469310760502
 20
0.3053818345069885
 30
0.0
 11
-22.972373485565189
 21
-1.003506362438201
 31
0.0
  0
LINE
  5
89
  8
0
 10
-19.067196369171139
 20
-4.9087430834770203
 30
0.0
 11
-22.972373485565189
 21
-1.003506362438201
 31
0.0
  0
LINE
  5
8A
  8
0
 10
-17.794994831085202
 20
-4.7669734358787528
 30
0.0
 11
-19.65477895736694
 21
-11.69508951902389
 31
0.0
  0
LINE
  5
8B
  8
0
 10
-18.968014240264889
 20
-5.2794839739799491
 30
0.0
 11
-17.795352458953861
 21
-4.7669734358787528
 31
0.0
  0
LINE
  5
8C
  8
0
 10
-19.655136585235589
 20
-11.694761693477631
 30
0.0
 11
-20.39983701705933
 21
-10.61326521635055
 31
0.0
  0
LINE
  5
8D
  8
0
 10
-18.968014240264889
 20
-5.2794839739799491
 30
0.0
 11
-20.39983701705933
 21
-10.61326521635055
 31
0.0
  0
LINE
  5
8E
  8
0
 10
-12.72323560714722
 20
-13.55076092481613
 30
0.0
 11
-19.652275562286381
 21
-11.69416564702987
 31
0.0
  0
LINE
  5
8F
  8
0
 10
-13.753799915313721
 20
-14.30997508764267
 30
0.0
 11
-12.723354816436769
 21
-13.55114835500717
 31
0.0
  0
LINE
  5
90
  8
0
 10
-16.446737766265869
 20
-13.588162839412689
 30
0.0
 11
-16.188172817230221
 21
-12.622806012630461
 31
0.0
  0
LINE
  5
91
  8
0
 10
-19.652037143707268
 20
-11.69461268186569
 30
0.0
 11
-19.088296413421631
 21
-12.88050669431686
 31
0.0
  0
LINE
  5
92
  8
0
 10
-13.753799915313721
 20
-14.30997508764267
 30
0.0
 11
-19.088296413421631
 21
-12.88050669431686
 31
0.0
  0
LINE
  5
93
  8
0
 10
-12.72275876998901
 20
-13.551088750362389
 30
0.0
 11
-10.86941194534301
 21
-20.480933368206031
 31
0.0
  0
LINE
  5
94
  8
0
 10
-13.482479572296141
 20
-14.58147424459457
 30
0.0
 11
-12.72323560714722
 21
-13.55129736661911
 31
0.0
  0
LINE
  5
95
  8
0
 10
-10.869888782501221
 20
-20.48081415891648
 30
0.0
 11
-12.055544376373289
 21
-19.91653698682785
 31
0.0
  0
LINE
  5
96
  8
0
 10
-13.482479572296141
 20
-14.58147424459457
 30
0.0
 11
-12.055544376373289
 21
-19.91653698682785
 31
0.0
  0
INSERT
  5
97
  8
0
  2
SIMPSON-STRONG-TIE
 10
9.8671674303338932
 20
9.6445711117337396
 30
0.0
  0
ENDSEC
  0
EOF
