  0
SECTION
  2
HEADER
  9
$ACADVER
  1
AC1009
  9
$INSBASE
 10
0.0
 20
0.0
 30
0.0
  9
$EXTMIN
 10
-29.937402009963989
 20
-31.216181457042701
 30
0.0
  9
$EXTMAX
 10
32.313927412033081
 20
31.035267174243931
 30
1.1999999405816191
  9
$LIMMIN
 10
0.0
 20
0.0
  9
$LIMMAX
 10
12.0
 20
9.0
  9
$ORTHOMODE
 70
     0
  9
$REGENMODE
 70
     1
  9
$FILLMODE
 70
     1
  9
$QTEXTMODE
 70
     0
  9
$MIRRTEXT
 70
     0
  9
$DRAGMODE
 70
     2
  9
$LTSCALE
 40
1.0
  9
$OSMODE
 70
    47
  9
$ATTMODE
 70
     1
  9
$TEXTSIZE
 40
3.5
  9
$TRACEWID
 40
0.05
  9
$TEXTSTYLE
  7
SST
  9
$CLAYER
  8
0
  9
$CELTYPE
  6
BYLAYER
  9
$CECOLOR
 62
   256
  9
$DIMSCALE
 40
1.0
  9
$DIMASZ
 40
0.18
  9
$DIMEXO
 40
0.0625
  9
$DIMDLI
 40
0.38
  9
$DIMRND
 40
0.0
  9
$DIMDLE
 40
0.0
  9
$DIMEXE
 40
0.18
  9
$DIMTP
 40
0.0
  9
$DIMTM
 40
0.0
  9
$DIMTXT
 40
0.18
  9
$DIMCEN
 40
0.09
  9
$DIMTSZ
 40
0.0
  9
$DIMTOL
 70
     0
  9
$DIMLIM
 70
     0
  9
$DIMTIH
 70
     1
  9
$DIMTOH
 70
     1
  9
$DIMSE1
 70
     0
  9
$DIMSE2
 70
     0
  9
$DIMTAD
 70
     0
  9
$DIMZIN
 70
     0
  9
$DIMBLK
  1

  9
$DIMASO
 70
     1
  9
$DIMSHO
 70
     1
  9
$DIMPOST
  1

  9
$DIMAPOST
  1

  9
$DIMALT
 70
     0
  9
$DIMALTD
 70
     2
  9
$DIMALTF
 40
25.399999999999999
  9
$DIMLFAC
 40
1.0
  9
$DIMTOFL
 70
     0
  9
$DIMTVP
 40
0.0
  9
$DIMTIX
 70
     0
  9
$DIMSOXD
 70
     0
  9
$DIMSAH
 70
     0
  9
$DIMBLK1
  1

  9
$DIMBLK2
  1

  9
$DIMSTYLE
  2
STANDARD
  9
$DIMCLRD
 70
     0
  9
$DIMCLRE
 70
     0
  9
$DIMCLRT
 70
     0
  9
$DIMTFAC
 40
1.0
  9
$DIMGAP
 40
0.09
  9
$LUNITS
 70
     2
  9
$LUPREC
 70
     0
  9
$SKETCHINC
 40
0.1
  9
$FILLETRAD
 40
0.0
  9
$AUNITS
 70
     0
  9
$AUPREC
 70
     0
  9
$MENU
  1
acad
  9
$ELEVATION
 40
0.0
  9
$PELEVATION
 40
0.0
  9
$THICKNESS
 40
0.0
  9
$LIMCHECK
 70
     0
  9
$BLIPMODE
 70
     0
  9
$CHAMFERA
 40
0.0
  9
$CHAMFERB
 40
0.0
  9
$SKPOLY
 70
     0
  9
$TDCREATE
 40
2449631.7321383101
  9
$TDUPDATE
 40
2453443.5715113198
  9
$TDINDWG
 40
0.0034648495
  9
$TDUSRTIMER
 40
0.0034648495
  9
$USRTIMER
 70
     1
  9
$ANGBASE
 50
0.0
  9
$ANGDIR
 70
     0
  9
$PDMODE
 70
     0
  9
$PDSIZE
 40
0.0
  9
$PLINEWID
 40
0.0
  9
$COORDS
 70
     1
  9
$SPLFRAME
 70
     0
  9
$SPLINETYPE
 70
     6
  9
$SPLINESEGS
 70
     8
  9
$ATTDIA
 70
     0
  9
$ATTREQ
 70
     1
  9
$HANDLING
 70
     1
  9
$HANDSEED
  5
B3
  9
$SURFTAB1
 70
     6
  9
$SURFTAB2
 70
     6
  9
$SURFTYPE
 70
     6
  9
$SURFU
 70
     6
  9
$SURFV
 70
     6
  9
$UCSNAME
  2

  9
$UCSORG
 10
0.0
 20
0.0
 30
0.0
  9
$UCSXDIR
 10
1.0
 20
0.0
 30
0.0
  9
$UCSYDIR
 10
0.0
 20
1.0
 30
0.0
  9
$PUCSNAME
  2

  9
$PUCSORG
 10
0.0
 20
0.0
 30
0.0
  9
$PUCSXDIR
 10
1.0
 20
0.0
 30
0.0
  9
$PUCSYDIR
 10
0.0
 20
1.0
 30
0.0
  9
$USERI1
 70
     0
  9
$USERI2
 70
     0
  9
$USERI3
 70
     0
  9
$USERI4
 70
     0
  9
$USERI5
 70
     0
  9
$USERR1
 40
0.0
  9
$USERR2
 40
0.0
  9
$USERR3
 40
0.0
  9
$USERR4
 40
0.0
  9
$USERR5
 40
0.0
  9
$WORLDVIEW
 70
     1
  9
$SHADEDGE
 70
     3
  9
$SHADEDIF
 70
    70
  9
$TILEMODE
 70
     1
  9
$MAXACTVP
 70
    16
  9
$PLIMCHECK
 70
     0
  9
$PEXTMIN
 10
1.0000000000000000E+020
 20
1.0000000000000000E+020
 30
1.0000000000000000E+020
  9
$PEXTMAX
 10
-1.0000000000000000E+020
 20
-1.0000000000000000E+020
 30
-1.0000000000000000E+020
  9
$PLIMMIN
 10
0.0
 20
0.0
  9
$PLIMMAX
 10
12.0
 20
9.0
  9
$UNITMODE
 70
     0
  9
$VISRETAIN
 70
     0
  9
$PLINEGEN
 70
     0
  9
$PSLTSCALE
 70
     1
  0
ENDSEC
  0
SECTION
  2
TABLES
  0
TABLE
  2
VPORT
 70
     2
  0
VPORT
  2
*ACTIVE
 70
     0
 10
0.0
 20
0.0
 11
1.0
 21
1.0
 12
44.976183622882267
 22
-11.92863552673759
 13
0.0
 23
0.0
 14
1.0
 24
1.0
 15
0.0
 25
0.0
 16
0.0
 26
0.0
 36
1.0
 17
0.0
 27
0.0
 37
0.0
 40
185.1909879944744
 41
1.4993646759847521
 42
50.0
 43
0.0
 44
0.0
 50
0.0
 51
0.0
 71
     0
 72
   100
 73
     1
 74
     1
 75
     0
 76
     0
 77
     0
 78
     0
  0
ENDTAB
  0
TABLE
  2
LTYPE
 70
     2
  0
LTYPE
  2
CONTINUOUS
 70
     0
  3
Solid line
 72
    65
 73
     0
 40
0.0
  0
LTYPE
  2
DASHED
 70
     0
  3
__ __ __ __ __ __ __ __ __ __ __ __ __ __ __ __
 72
    65
 73
     2
 40
0.75
 49
0.5
 49
-0.25
  0
ENDTAB
  0
TABLE
  2
LAYER
 70
     1
  0
LAYER
  2
0
 70
     0
 62
     7
  6
CONTINUOUS
  0
ENDTAB
  0
TABLE
  2
STYLE
 70
     2
  0
STYLE
  2
STANDARD
 70
     0
 40
0.0
 41
1.0
 50
0.0
 71
     0
 42
0.2
  3
txt
  4

  0
STYLE
  2
SST
 70
     0
 40
0.0
 41
1.0
 50
0.0
 71
     0
 42
3.5
  3
romans.shx
  4

  0
ENDTAB
  0
TABLE
  2
VIEW
 70
     0
  0
ENDTAB
  0
TABLE
  2
UCS
 70
     0
  0
ENDTAB
  0
TABLE
  2
APPID
 70
     1
  0
APPID
  2
ACAD
 70
     0
  0
ENDTAB
  0
TABLE
  2
DIMSTYLE
 70
     1
  0
DIMSTYLE
  2
STANDARD
 70
     0
  3

  4

  5

  6

  7

 40
1.0
 41
0.18
 42
0.0625
 43
0.38
 44
0.18
 45
0.0
 46
0.0
 47
0.0
 48
0.0
140
0.18
141
0.09
142
0.0
143
25.399999999999999
144
1.0
145
0.0
146
1.0
147
0.09
 71
     0
 72
     0
 73
     1
 74
     1
 75
     0
 76
     0
 77
     0
 78
     0
170
     0
171
     2
172
     0
173
     0
174
     0
175
     0
176
     0
177
     0
178
     0
  0
ENDTAB
  0
ENDSEC
  0
SECTION
  2
BLOCKS
  0
BLOCK
  8
0
  2
$MODEL_SPACE
 70
     0
 10
0.0
 20
0.0
 30
0.0
  3
$MODEL_SPACE
  1

  0
ENDBLK
  5
9
  8
0
  0
BLOCK
 67
     1
  8
0
  2
$PAPER_SPACE
 70
     0
 10
0.0
 20
0.0
 30
0.0
  3
$PAPER_SPACE
  1

  0
ENDBLK
  5
E
 67
     1
  8
0
  0
BLOCK
  8
0
  2
SIMPSON-STRONG-TIE
 70
     0
 10
0.0
 20
0.0
 30
0.0
  3
SIMPSON-STRONG-TIE
  1

  0
TEXT
  5
9C
  8
0
  6
CONTINUOUS
 10
-4.7318727780691416
 20
4.4215860385237811
 30
0.0
 40
2.0
  1
SIMPSON
 50
316.94148639091338
  7
SST
 72
     1
 11
0.0
 21
0.0
 31
0.0
  0
TEXT
  5
9D
  8
0
  6
CONTINUOUS
 10
-7.9648409725863862
 20
3.4769825481547749
 30
0.0
 40
2.0
  1
Strong-Tie
 50
316.94148639091338
  7
SST
 72
     1
 11
-2.0499999999999541
 21
-2.0499999999999541
 31
0.0
  0
ENDBLK
  5
9E
  8
0
  0
ENDSEC
  0
SECTION
  2
ENTITIES
  0
CIRCLE
  5
29
  8
0
 39
1.1999999405816191
 10
19.71052527427673
 20
-0.0903379321098328
 30
0.0
 40
2.0000231452286239
  0
CIRCLE
  5
2A
  8
0
 39
1.1999999405816191
 10
-17.333999872207642
 20
-0.0903379321098328
 30
0.0
 40
2.0000231452286239
  0
LINE
  5
2B
  8
0
 10
7.7398860454559317
 20
-24.538613498210911
 30
0.0
 11
1.1880242824554439
 21
-31.090475261211399
 31
0.0
  0
LINE
  5
2C
  8
0
 10
7.9104745388030997
 20
-26.065088450908661
 30
0.0
 11
7.7402436733245841
 21
-24.538971126079559
 31
0.0
  0
LINE
  5
2D
  8
0
 10
5.3121888637542716
 20
-28.663374125957489
 30
0.0
 11
4.464014768600463
 21
-27.815259635448459
 31
0.0
  0
LINE
  5
2E
  8
0
 10
1.188739538192749
 20
-31.090475261211399
 30
0.0
 11
2.7594411373138419
 21
-31.216181457042701
 31
0.0
  0
LINE
  5
2F
  8
0
  6
DASHED
 10
-5.3677713871002188
 20
-24.537481009960182
 30
0.0
 11
1.1831367015838621
 21
-31.09041565656662
 31
0.0
  0
LINE
  5
31
  8
0
  6
DASHED
 10
-5.5385982990264893
 20
-26.06389635801316
 30
0.0
 11
-5.3681290149688721
 21
-24.53783863782883
 31
0.0
  0
LINE
  5
32
  8
0
 10
1.1823022365570059
 20
-31.09041565656662
 30
0.0
 11
-0.3882801532745361
 21
-31.2159430384636
 31
0.0
  0
LINE
  5
33
  8
0
 10
7.9104745388030997
 20
-26.065088450908661
 30
0.0
 11
2.7594411373138419
 21
-31.216181457042701
 31
0.0
  0
LINE
  5
34
  8
0
 10
-5.5385982990264893
 20
-26.06389635801316
 30
0.0
 11
-0.3882801532745361
 21
-31.2159430384636
 31
0.0
  0
LINE
  5
35
  8
0
 10
19.086345434188839
 20
-17.987347781658169
 30
0.0
 11
16.688092947006218
 21
-26.937342822551731
 31
0.0
  0
LINE
  5
36
  8
0
 10
19.997223615646359
 20
-19.224024951457981
 30
0.0
 11
19.086703062057492
 21
-17.98746699094772
 31
0.0
  0
LINE
  5
37
  8
0
 10
19.046171903610229
 20
-22.773302733898159
 30
0.0
 11
17.887576818466179
 21
-22.4629413485527
 31
0.0
  0
LINE
  5
38
  8
0
 10
16.68880820274353
 20
-26.936985194683079
 30
0.0
 11
18.111690282821652
 21
-26.26053208112717
 31
0.0
  0
LINE
  5
39
  8
0
  6
DASHED
 10
7.7340447902679443
 20
-24.54022282361985
 30
0.0
 11
16.68368220329284
 21
-26.939846217632301
 31
0.0
  0
LINE
  5
3A
  8
0
  6
DASHED
 10
8.3494031429290771
 20
-25.94760769605637
 30
0.0
 11
7.7339255809783927
 21
-24.540699660778049
 31
0.0
  0
LINE
  5
3B
  8
0
 10
16.68320536613464
 20
-26.940084636211399
 30
0.0
 11
15.38561224937439
 21
-27.834154307842262
 31
0.0
  0
LINE
  5
3C
  8
0
 10
19.997223615646359
 20
-19.224024951457981
 30
0.0
 11
18.111690282821652
 21
-26.26053208112717
 31
0.0
  0
LINE
  5
3D
  8
0
 10
8.3494031429290771
 20
-25.94760769605637
 30
0.0
 11
15.38561224937439
 21
-27.834154307842262
 31
0.0
  0
LINE
  5
3E
  8
0
 10
25.636895895004269
 20
-6.64064997434616
 30
0.0
 11
28.035029172897339
 21
-15.59064501523971
 31
0.0
  0
LINE
  5
3F
  8
0
 10
27.044042348861691
 20
-7.2561275362968436
 30
0.0
 11
25.637253522872921
 21
-6.6404115557670593
 31
0.0
  0
LINE
  5
40
  8
0
 10
27.995094060897831
 20
-10.80540531873703
 30
0.0
 11
26.836618185043331
 21
-11.11594551801681
 31
0.0
  0
LINE
  5
41
  8
0
 10
28.035386800765991
 20
-15.59004896879196
 30
0.0
 11
28.929456472396851
 21
-14.29263466596603
 31
0.0
  0
LINE
  5
42
  8
0
  6
DASHED
 10
19.082053899765011
 20
-17.991698920726769
 30
0.0
 11
28.032406568527222
 21
-15.59493654966354
 31
0.0
  0
LINE
  5
43
  8
0
  6
DASHED
 10
20.318492650985721
 20
-18.902875125408169
 30
0.0
 11
19.082053899765011
 21
-17.9921161532402
 31
0.0
  0
LINE
  5
44
  8
0
 10
28.032048940658569
 20
-15.595532596111299
 30
0.0
 11
27.355417013168331
 21
-17.018474280834202
 31
0.0
  0
LINE
  5
45
  8
0
 10
27.044042348861691
 20
-7.2561275362968436
 30
0.0
 11
28.929456472396851
 21
-14.29263466596603
 31
0.0
  0
LINE
  5
46
  8
0
 10
20.318492650985721
 20
-18.902875125408169
 30
0.0
 11
27.355417013168331
 21
-17.018474280834202
 31
0.0
  0
LINE
  5
47
  8
0
 10
25.63653826713562
 20
6.4612258076667777
 30
0.0
 11
32.188280820846558
 21
-0.0906359553337097
 31
0.0
  0
LINE
  5
48
  8
0
 10
27.16289401054382
 20
6.6317546963691711
 30
0.0
 11
25.636776685714722
 21
6.4616430401802063
 31
0.0
  0
LINE
  5
49
  8
0
 10
29.761179685592651
 20
4.0335286259651184
 30
0.0
 11
28.913005590438839
 21
3.1853545308113089
 31
0.0
  0
LINE
  5
4A
  8
0
 10
32.188161611557007
 20
-0.0899206995964051
 30
0.0
 11
32.313927412033081
 21
1.4806616902351371
 31
0.0
  0
LINE
  5
4B
  8
0
  6
DASHED
 10
25.635346174240109
 20
-6.6464912295341492
 30
0.0
 11
32.188161611557007
 21
-0.0955831408500672
 31
0.0
  0
LINE
  5
4C
  8
0
  6
DASHED
 10
27.16182112693787
 20
-6.8173181414604178
 30
0.0
 11
25.63558459281921
 21
-6.6468488574028006
 31
0.0
  0
LINE
  5
4D
  8
0
 10
32.188161611557007
 20
-0.0962983965873718
 30
0.0
 11
32.31380820274353
 21
-1.6669999957084649
 31
0.0
  0
LINE
  5
4E
  8
0
 10
27.16289401054382
 20
6.6317546963691711
 30
0.0
 11
32.313927412033081
 21
1.4806616902351371
 31
0.0
  0
LINE
  5
4F
  8
0
 10
27.16182112693787
 20
-6.8173181414604178
 30
0.0
 11
32.31380820274353
 21
-1.6669999957084649
 31
0.0
  0
LINE
  5
50
  8
0
 10
19.085153341293331
 20
17.807565987110141
 30
0.0
 11
28.03514838218689
 21
15.40943270921707
 31
0.0
  0
LINE
  5
51
  8
0
 10
20.32183051109314
 20
18.718503773212429
 30
0.0
 11
19.085272550582879
 21
17.80810242891312
 31
0.0
  0
LINE
  5
52
  8
0
 10
23.87104868888855
 20
17.7674520611763
 30
0.0
 11
23.56074690818787
 21
16.608916580677029
 31
0.0
  0
LINE
  5
53
  8
0
 10
28.034790754318241
 20
15.41002875566482
 30
0.0
 11
27.35827803611755
 21
16.833030045032501
 31
0.0
  0
LINE
  5
54
  8
0
  6
DASHED
 10
25.63808798789978
 20
6.4553845524787903
 30
0.0
 11
28.037651777267449
 21
15.40514117479324
 31
0.0
  0
LINE
  5
55
  8
0
  6
DASHED
 10
27.045353651046749
 20
7.0706236958503723
 30
0.0
 11
25.638445615768429
 21
6.4552057385444641
 31
0.0
  0
LINE
  5
56
  8
0
 10
28.037890195846561
 20
15.404485523700711
 30
0.0
 11
28.931959867477421
 21
14.107011616230009
 31
0.0
  0
LINE
  5
57
  8
0
 10
20.32183051109314
 20
18.718503773212429
 30
0.0
 11
27.35827803611755
 21
16.833030045032501
 31
0.0
  0
LINE
  5
58
  8
0
 10
27.045353651046749
 20
7.0706236958503723
 30
0.0
 11
28.931959867477421
 21
14.107011616230009
 31
0.0
  0
LINE
  5
59
  8
0
 10
7.7384555339813232
 20
24.358176052570339
 30
0.0
 11
16.68833136558532
 21
26.756309330463409
 31
0.0
  0
LINE
  5
5A
  8
0
 10
8.3540523052215576
 20
25.76538211107254
 30
0.0
 11
7.7383363246917716
 21
24.35865288972855
 31
0.0
  0
LINE
  5
5B
  8
0
 10
11.903270483016961
 20
26.716374218463901
 30
0.0
 11
12.2136914730072
 21
25.557898342609409
 31
0.0
  0
LINE
  5
5C
  8
0
 10
16.68785452842712
 20
26.75660735368729
 30
0.0
 11
15.390380620956419
 21
27.6507962346077
 31
0.0
  0
LINE
  5
5D
  8
0
  6
DASHED
 10
19.08944487571716
 20
17.80327445268631
 30
0.0
 11
16.692742109298699
 21
26.753805935382839
 31
0.0
  0
LINE
  5
5E
  8
0
  6
DASHED
 10
20.000680685043331
 20
19.03983241319656
 30
0.0
 11
19.09004092216491
 21
17.803453266620629
 31
0.0
  0
LINE
  5
5F
  8
0
 10
16.693218946456909
 20
26.753388702869419
 30
0.0
 11
18.116339445114129
 21
26.076756775379181
 31
0.0
  0
LINE
  5
60
  8
0
 10
8.3540523052215576
 20
25.76538211107254
 30
0.0
 11
15.390380620956419
 21
27.6507962346077
 31
0.0
  0
LINE
  5
61
  8
0
 10
20.000680685043331
 20
19.03983241319656
 30
0.0
 11
18.116339445114129
 21
26.076756775379181
 31
0.0
  0
LINE
  5
62
  8
0
 10
-5.3633606433868399
 20
24.357758820056919
 30
0.0
 11
1.188381910324096
 21
30.9096205830574
 31
0.0
  0
LINE
  5
63
  8
0
 10
-5.5339491367340079
 20
25.884233772754669
 30
0.0
 11
-5.3637182712554932
 21
24.358116447925571
 31
0.0
  0
LINE
  5
64
  8
0
 10
-2.935782670974731
 20
28.48240023851395
 30
0.0
 11
-2.087608575820922
 21
27.634345352649689
 31
0.0
  0
LINE
  5
65
  8
0
 10
1.1877858638763421
 20
30.909560978412632
 30
0.0
 11
-0.382915735244751
 21
31.035267174243931
 31
0.0
  0
LINE
  5
66
  8
0
  6
DASHED
 10
7.7442967891693106
 20
24.356626331806179
 30
0.0
 11
1.193388700485229
 21
30.9096205830574
 31
0.0
  0
LINE
  5
67
  8
0
  6
DASHED
 10
7.9151237010955811
 20
25.883041679859161
 30
0.0
 11
7.744654417037963
 21
24.35692435503006
 31
0.0
  0
LINE
  5
68
  8
0
 10
1.194103956222534
 20
30.909501373767849
 30
0.0
 11
2.764805555343627
 21
31.035028755664829
 31
0.0
  0
LINE
  5
69
  8
0
 10
-5.5339491367340079
 20
25.884233772754669
 30
0.0
 11
-0.382915735244751
 21
31.035267174243931
 31
0.0
  0
LINE
  5
6A
  8
0
 10
7.9151237010955811
 20
25.883041679859161
 30
0.0
 11
2.764805555343627
 21
31.035028755664829
 31
0.0
  0
LINE
  5
6B
  8
0
 10
-16.709820032119751
 20
17.806493103504181
 30
0.0
 11
-14.311686754226679
 21
26.756488144397739
 31
0.0
  0
LINE
  5
6C
  8
0
 10
-17.620698213577271
 20
19.043170273303978
 30
0.0
 11
-16.710296869277951
 21
17.806612312793732
 31
0.0
  0
LINE
  5
6D
  8
0
 10
-16.669646501541131
 20
22.592448055744171
 30
0.0
 11
-15.511051416397089
 21
22.28202706575394
 31
0.0
  0
LINE
  5
6E
  8
0
 10
-14.31228280067444
 20
26.756070911884311
 30
0.0
 11
-15.73516488075256
 21
26.079677402973179
 31
0.0
  0
LINE
  5
6F
  8
0
  6
DASHED
 10
-5.3575193881988517
 20
24.359368145465851
 30
0.0
 11
-14.3072760105133
 21
26.758991539478298
 31
0.0
  0
LINE
  5
70
  8
0
  6
DASHED
 10
-5.9728777408599854
 20
25.766753017902371
 30
0.0
 11
-5.3574001789093009
 21
24.359785377979279
 31
0.0
  0
LINE
  5
71
  8
0
 10
-14.30667996406555
 20
26.7592299580574
 30
0.0
 11
-13.00920605659485
 21
27.653240025043491
 31
0.0
  0
LINE
  5
72
  8
0
 10
-17.620698213577271
 20
19.043170273303978
 30
0.0
 11
-15.73516488075256
 21
26.079677402973179
 31
0.0
  0
LINE
  5
73
  8
0
 10
-5.9728777408599854
 20
25.766753017902371
 30
0.0
 11
-13.00920605659485
 21
27.653240025043491
 31
0.0
  0
LINE
  5
74
  8
0
 10
-23.260370492935181
 20
6.4597356915473929
 30
0.0
 11
-25.658503770828251
 21
15.40973073244095
 31
0.0
  0
LINE
  5
75
  8
0
 10
-24.66763615608215
 20
7.0752728581428519
 30
0.0
 11
-23.26084733009338
 21
6.459616482257843
 31
0.0
  0
LINE
  5
76
  8
0
 10
-25.618568658828728
 20
10.624491035938259
 30
0.0
 11
-24.46009278297424
 21
10.934971630573269
 31
0.0
  0
LINE
  5
77
  8
0
 10
-25.658861398696899
 20
15.409134685993189
 30
0.0
 11
-26.552931070327759
 21
14.11177998781204
 31
0.0
  0
LINE
  5
78
  8
0
  6
DASHED
 10
-16.705528497695919
 20
17.810784637928009
 30
0.0
 11
-25.65588116645813
 21
15.41402226686478
 31
0.0
  0
LINE
  5
79
  8
0
  6
DASHED
 10
-17.94208645820617
 20
18.722020447254181
 30
0.0
 11
-16.705528497695919
 21
17.811261475086209
 31
0.0
  0
LINE
  5
7A
  8
0
 10
-25.655523538589481
 20
15.414618313312531
 30
0.0
 11
-24.97889161109924
 21
16.837619602680199
 31
0.0
  0
LINE
  5
7B
  8
0
 10
-24.66763615608215
 20
7.0752728581428519
 30
0.0
 11
-26.552931070327759
 21
14.11177998781204
 31
0.0
  0
LINE
  5
7C
  8
0
 10
-17.94208645820617
 20
18.722020447254181
 30
0.0
 11
-24.97889161109924
 21
16.837619602680199
 31
0.0
  0
LINE
  5
7D
  8
0
 10
-23.259893655776981
 20
-6.6420804858207703
 30
0.0
 11
-29.811755418777459
 21
-0.0902783274650574
 31
0.0
  0
LINE
  5
7E
  8
0
 10
-24.786368608474731
 20
-6.8126689791679382
 30
0.0
 11
-23.260370492935181
 21
-6.6424381136894217
 31
0.0
  0
LINE
  5
7F
  8
0
 10
-27.38465428352356
 20
-4.2144429087638846
 30
0.0
 11
-26.536599397659302
 21
-3.366268813610076
 31
0.0
  0
LINE
  5
80
  8
0
 10
-29.811636209487911
 20
-0.0909339785575867
 30
0.0
 11
-29.937402009963989
 21
-1.661516368389129
 31
0.0
  0
LINE
  5
81
  8
0
  6
DASHED
 10
-23.258820772171021
 20
6.4656365513801566
 30
0.0
 11
-29.811755418777459
 21
-0.0852715373039246
 31
0.0
  0
LINE
  5
82
  8
0
  6
DASHED
 10
-24.785295724868771
 20
6.636463463306427
 30
0.0
 11
-23.259059190750119
 21
6.4659941792488089
 31
0.0
  0
LINE
  5
83
  8
0
 10
-29.811636209487911
 20
-0.0845562815666199
 30
0.0
 11
-29.937282800674438
 21
1.486085712909698
 31
0.0
  0
LINE
  5
84
  8
0
 10
-24.786368608474731
 20
-6.8126689791679382
 30
0.0
 11
-29.937402009963989
 21
-1.661516368389129
 31
0.0
  0
LINE
  5
85
  8
0
 10
-24.785295724868771
 20
6.636463463306427
 30
0.0
 11
-29.937282800674438
 21
1.486085712909698
 31
0.0
  0
LINE
  5
86
  8
0
 10
-16.70874714851379
 20
-17.98842066526413
 30
0.0
 11
-25.658622980117801
 21
-15.59028738737106
 31
0.0
  0
LINE
  5
87
  8
0
 10
-17.945305109024041
 20
-18.899358451366421
 30
0.0
 11
-16.70874714851379
 21
-17.988897502422329
 31
0.0
  0
LINE
  5
88
  8
0
 10
-21.494523286819462
 20
-17.948366343975071
 30
0.0
 11
-21.184340715408322
 21
-16.7898308634758
 31
0.0
  0
LINE
  5
89
  8
0
 10
-25.658265352249138
 20
-15.590883433818821
 30
0.0
 11
-24.981752634048458
 21
-17.013884723186489
 31
0.0
  0
LINE
  5
8A
  8
0
  6
DASHED
 10
-23.261562585830688
 20
-6.6362392306327811
 30
0.0
 11
-25.661126375198361
 21
-15.58593624830246
 31
0.0
  0
LINE
  5
8B
  8
0
  6
DASHED
 10
-24.668947458267208
 20
-7.251478374004364
 30
0.0
 11
-23.262039422988892
 21
-6.6360604166984549
 31
0.0
  0
LINE
  5
8C
  8
0
 10
-25.66148400306702
 20
-15.585399806499479
 30
0.0
 11
-26.555434465408322
 21
-14.287806689739231
 31
0.0
  0
LINE
  5
8D
  8
0
 10
-17.945305109024041
 20
-18.899358451366421
 30
0.0
 11
-24.981752634048458
 21
-17.013884723186489
 31
0.0
  0
LINE
  5
8E
  8
0
 10
-24.668947458267208
 20
-7.251478374004364
 30
0.0
 11
-26.555434465408322
 21
-14.287806689739231
 31
0.0
  0
LINE
  5
8F
  8
0
 10
-5.3620493412017822
 20
-24.539030730724338
 30
0.0
 11
-14.31180596351623
 21
-26.937164008617401
 31
0.0
  0
LINE
  5
90
  8
0
 10
-5.9775269031524649
 20
-25.946236789226528
 30
0.0
 11
-5.3618109226226798
 21
-24.539507567882541
 31
0.0
  0
LINE
  5
91
  8
0
 10
-9.5266258716583252
 20
-26.897288501262668
 30
0.0
 11
-9.8371660709381104
 21
-25.738753020763401
 31
0.0
  0
LINE
  5
92
  8
0
 10
-14.31132912635803
 20
-26.937462031841282
 30
0.0
 11
-13.01397442817688
 21
-27.83159130811692
 31
0.0
  0
LINE
  5
93
  8
0
  6
DASHED
 10
-16.713038682937619
 20
-17.98418873548508
 30
0.0
 11
-14.31633591651916
 21
-26.934660613536838
 31
0.0
  0
LINE
  5
94
  8
0
  6
DASHED
 10
-17.62427449226379
 20
-19.220687091350548
 30
0.0
 11
-16.713396310806271
 21
-17.98418873548508
 31
0.0
  0
LINE
  5
95
  8
0
 10
-14.316812753677359
 20
-26.934302985668189
 30
0.0
 11
-15.73981404304504
 21
-26.25761145353318
 31
0.0
  0
LINE
  5
96
  8
0
 10
-5.9775269031524649
 20
-25.946236789226528
 30
0.0
 11
-13.01397442817688
 21
-27.83159130811692
 31
0.0
  0
LINE
  5
97
  8
0
 10
-17.62427449226379
 20
-19.220687091350548
 30
0.0
 11
-15.73981404304504
 21
-26.25761145353318
 31
0.0
  0
CIRCLE
  5
98
  8
0
 39
1.1999999405816191
 10
1.188262701034545
 20
-0.0904571413993836
 30
0.0
 40
10.49998868256807
  0
INSERT
  5
99
  8
0
  2
SIMPSON-STRONG-TIE
 10
11.890169818142111
 20
11.63110497236425
 30
0.0
  0
ENDSEC
  0
EOF
