  0
SECTION
  2
HEADER
  9
$ACADVER
  1
AC1009
  9
$INSBASE
 10
0.0
 20
0.0
 30
0.0
  9
$EXTMIN
 10
-37.499547004699707
 20
-9.565889835357666
 30
0.0
  9
$EXTMAX
 10
37.500262260437012
 20
9.5656514167785645
 30
0.0
  9
$LIMMIN
 10
0.0
 20
0.0
  9
$LIMMAX
 10
12.0
 20
9.0
  9
$ORTHOMODE
 70
     1
  9
$REGENMODE
 70
     1
  9
$FILLMODE
 70
     1
  9
$QTEXTMODE
 70
     0
  9
$MIRRTEXT
 70
     0
  9
$DRAGMODE
 70
     2
  9
$LTSCALE
 40
1.0
  9
$OSMODE
 70
    47
  9
$ATTMODE
 70
     1
  9
$TEXTSIZE
 40
3.5
  9
$TRACEWID
 40
0.05
  9
$TEXTSTYLE
  7
SST
  9
$CLAYER
  8
0
  9
$CELTYPE
  6
BYLAYER
  9
$CECOLOR
 62
   256
  9
$DIMSCALE
 40
1.0
  9
$DIMASZ
 40
0.18
  9
$DIMEXO
 40
0.0625
  9
$DIMDLI
 40
0.38
  9
$DIMRND
 40
0.0
  9
$DIMDLE
 40
0.0
  9
$DIMEXE
 40
0.18
  9
$DIMTP
 40
0.0
  9
$DIMTM
 40
0.0
  9
$DIMTXT
 40
0.18
  9
$DIMCEN
 40
0.09
  9
$DIMTSZ
 40
0.0
  9
$DIMTOL
 70
     0
  9
$DIMLIM
 70
     0
  9
$DIMTIH
 70
     1
  9
$DIMTOH
 70
     1
  9
$DIMSE1
 70
     0
  9
$DIMSE2
 70
     0
  9
$DIMTAD
 70
     0
  9
$DIMZIN
 70
     0
  9
$DIMBLK
  1

  9
$DIMASO
 70
     1
  9
$DIMSHO
 70
     1
  9
$DIMPOST
  1

  9
$DIMAPOST
  1

  9
$DIMALT
 70
     0
  9
$DIMALTD
 70
     2
  9
$DIMALTF
 40
25.399999999999999
  9
$DIMLFAC
 40
1.0
  9
$DIMTOFL
 70
     0
  9
$DIMTVP
 40
0.0
  9
$DIMTIX
 70
     0
  9
$DIMSOXD
 70
     0
  9
$DIMSAH
 70
     0
  9
$DIMBLK1
  1

  9
$DIMBLK2
  1

  9
$DIMSTYLE
  2
STANDARD
  9
$DIMCLRD
 70
     0
  9
$DIMCLRE
 70
     0
  9
$DIMCLRT
 70
     0
  9
$DIMTFAC
 40
1.0
  9
$DIMGAP
 40
0.09
  9
$LUNITS
 70
     2
  9
$LUPREC
 70
     0
  9
$SKETCHINC
 40
0.1
  9
$FILLETRAD
 40
0.0
  9
$AUNITS
 70
     0
  9
$AUPREC
 70
     0
  9
$MENU
  1
acad
  9
$ELEVATION
 40
0.0
  9
$PELEVATION
 40
0.0
  9
$THICKNESS
 40
0.0
  9
$LIMCHECK
 70
     0
  9
$BLIPMODE
 70
     0
  9
$CHAMFERA
 40
0.0
  9
$CHAMFERB
 40
0.0
  9
$SKPOLY
 70
     0
  9
$TDCREATE
 40
2449631.7321383101
  9
$TDUPDATE
 40
2453443.5715178242
  9
$TDINDWG
 40
0.0066247338
  9
$TDUSRTIMER
 40
0.0066247338
  9
$USRTIMER
 70
     1
  9
$ANGBASE
 50
0.0
  9
$ANGDIR
 70
     0
  9
$PDMODE
 70
     0
  9
$PDSIZE
 40
0.0
  9
$PLINEWID
 40
0.0
  9
$COORDS
 70
     1
  9
$SPLFRAME
 70
     0
  9
$SPLINETYPE
 70
     6
  9
$SPLINESEGS
 70
     8
  9
$ATTDIA
 70
     0
  9
$ATTREQ
 70
     1
  9
$HANDLING
 70
     1
  9
$HANDSEED
  5
9C
  9
$SURFTAB1
 70
     6
  9
$SURFTAB2
 70
     6
  9
$SURFTYPE
 70
     6
  9
$SURFU
 70
     6
  9
$SURFV
 70
     6
  9
$UCSNAME
  2

  9
$UCSORG
 10
0.0
 20
0.0
 30
0.0
  9
$UCSXDIR
 10
1.0
 20
0.0
 30
0.0
  9
$UCSYDIR
 10
0.0
 20
1.0
 30
0.0
  9
$PUCSNAME
  2

  9
$PUCSORG
 10
0.0
 20
0.0
 30
0.0
  9
$PUCSXDIR
 10
1.0
 20
0.0
 30
0.0
  9
$PUCSYDIR
 10
0.0
 20
1.0
 30
0.0
  9
$USERI1
 70
     0
  9
$USERI2
 70
     0
  9
$USERI3
 70
     0
  9
$USERI4
 70
     0
  9
$USERI5
 70
     0
  9
$USERR1
 40
0.0
  9
$USERR2
 40
0.0
  9
$USERR3
 40
0.0
  9
$USERR4
 40
0.0
  9
$USERR5
 40
0.0
  9
$WORLDVIEW
 70
     1
  9
$SHADEDGE
 70
     3
  9
$SHADEDIF
 70
    70
  9
$TILEMODE
 70
     1
  9
$MAXACTVP
 70
    16
  9
$PLIMCHECK
 70
     0
  9
$PEXTMIN
 10
1.0000000000000000E+020
 20
1.0000000000000000E+020
 30
1.0000000000000000E+020
  9
$PEXTMAX
 10
-1.0000000000000000E+020
 20
-1.0000000000000000E+020
 30
-1.0000000000000000E+020
  9
$PLIMMIN
 10
0.0
 20
0.0
  9
$PLIMMAX
 10
12.0
 20
9.0
  9
$UNITMODE
 70
     0
  9
$VISRETAIN
 70
     0
  9
$PLINEGEN
 70
     0
  9
$PSLTSCALE
 70
     1
  0
ENDSEC
  0
SECTION
  2
TABLES
  0
TABLE
  2
VPORT
 70
     2
  0
VPORT
  2
*ACTIVE
 70
     0
 10
0.0
 20
0.0
 11
1.0
 21
1.0
 12
-7.7474526790544038
 22
-3.3233933862871932
 13
0.0
 23
0.0
 14
1.0
 24
1.0
 15
0.0
 25
0.0
 16
0.0
 26
0.0
 36
1.0
 17
0.0
 27
0.0
 37
0.0
 40
139.00315469137811
 41
1.4993646759847521
 42
50.0
 43
0.0
 44
0.0
 50
0.0
 51
0.0
 71
     0
 72
   100
 73
     1
 74
     1
 75
     0
 76
     0
 77
     0
 78
     0
  0
ENDTAB
  0
TABLE
  2
LTYPE
 70
     1
  0
LTYPE
  2
CONTINUOUS
 70
     0
  3
Solid line
 72
    65
 73
     0
 40
0.0
  0
ENDTAB
  0
TABLE
  2
LAYER
 70
     1
  0
LAYER
  2
0
 70
     0
 62
     7
  6
CONTINUOUS
  0
ENDTAB
  0
TABLE
  2
STYLE
 70
     2
  0
STYLE
  2
STANDARD
 70
     0
 40
0.0
 41
1.0
 50
0.0
 71
     0
 42
0.2
  3
txt
  4

  0
STYLE
  2
SST
 70
     0
 40
0.0
 41
1.0
 50
0.0
 71
     0
 42
3.5
  3
romans.shx
  4

  0
ENDTAB
  0
TABLE
  2
VIEW
 70
     0
  0
ENDTAB
  0
TABLE
  2
UCS
 70
     0
  0
ENDTAB
  0
TABLE
  2
APPID
 70
     1
  0
APPID
  2
ACAD
 70
     0
  0
ENDTAB
  0
TABLE
  2
DIMSTYLE
 70
     1
  0
DIMSTYLE
  2
STANDARD
 70
     0
  3

  4

  5

  6

  7

 40
1.0
 41
0.18
 42
0.0625
 43
0.38
 44
0.18
 45
0.0
 46
0.0
 47
0.0
 48
0.0
140
0.18
141
0.09
142
0.0
143
25.399999999999999
144
1.0
145
0.0
146
1.0
147
0.09
 71
     0
 72
     0
 73
     1
 74
     1
 75
     0
 76
     0
 77
     0
 78
     0
170
     0
171
     2
172
     0
173
     0
174
     0
175
     0
176
     0
177
     0
178
     0
  0
ENDTAB
  0
ENDSEC
  0
SECTION
  2
BLOCKS
  0
BLOCK
  8
0
  2
$MODEL_SPACE
 70
     0
 10
0.0
 20
0.0
 30
0.0
  3
$MODEL_SPACE
  1

  0
ENDBLK
  5
9
  8
0
  0
BLOCK
 67
     1
  8
0
  2
$PAPER_SPACE
 70
     0
 10
0.0
 20
0.0
 30
0.0
  3
$PAPER_SPACE
  1

  0
ENDBLK
  5
E
 67
     1
  8
0
  0
ENDSEC
  0
SECTION
  2
ENTITIES
  0
LINE
  5
29
  8
0
 62
     8
 10
-37.499547004699707
 20
-0.6255507469177246
 30
0.0
 11
-36.433815956115723
 21
0.6241202354431154
 31
0.0
  0
LINE
  5
2A
  8
0
 62
     8
 10
-36.344289779663093
 20
-0.6255507469177246
 30
0.0
 11
-35.278558731079102
 21
0.6241202354431154
 31
0.0
  0
LINE
  5
2B
  8
0
 62
     8
 10
-35.188794136047363
 20
-0.6255507469177246
 30
0.0
 11
-34.12318229675293
 21
0.6241202354431154
 31
0.0
  0
LINE
  5
2C
  8
0
 62
     8
 10
-34.033656120300293
 20
-0.6255507469177246
 30
0.0
 11
-32.967805862426758
 21
0.6241202354431154
 31
0.0
  0
LINE
  5
2D
  8
0
 62
     8
 10
-32.878279685974121
 20
-0.6255507469177246
 30
0.0
 11
-31.812429428100589
 21
0.6241202354431154
 31
0.0
  0
LINE
  5
2E
  8
0
 62
     8
 10
-31.722903251647949
 20
-0.6255507469177246
 30
0.0
 11
-30.657052993774411
 21
0.6241202354431154
 31
0.0
  0
LINE
  5
2F
  8
0
 62
     8
 10
-30.567526817321781
 20
-0.6255507469177246
 30
0.0
 11
-29.501795768737789
 21
0.6241202354431154
 31
0.0
  0
LINE
  5
30
  8
0
 62
     8
 10
-29.412150382995598
 20
-0.6255507469177246
 30
0.0
 11
-28.346419334411621
 21
0.6241202354431154
 31
0.0
  0
LINE
  5
31
  8
0
 62
     8
 10
-28.256893157958981
 20
-0.6255507469177246
 30
0.0
 11
-27.191162109375
 21
0.6241202354431154
 31
0.0
  0
LINE
  5
32
  8
0
 62
     8
 10
-27.101516723632809
 20
-0.6255507469177246
 30
0.0
 11
-26.035785675048832
 21
0.6241202354431154
 31
0.0
  0
LINE
  5
33
  8
0
 62
     8
 10
-25.946140289306641
 20
-0.6255507469177246
 30
0.0
 11
-24.880528450012211
 21
0.6241202354431154
 31
0.0
  0
LINE
  5
34
  8
0
 62
     8
 10
-24.79088306427002
 20
-0.6255507469177246
 30
0.0
 11
-23.725152015686032
 21
0.6241202354431154
 31
0.0
  0
LINE
  5
35
  8
0
 62
     8
 10
-23.6353874206543
 20
-0.6255507469177246
 30
0.0
 11
-22.56977558135986
 21
0.6241202354431154
 31
0.0
  0
LINE
  5
36
  8
0
 62
     8
 10
-22.480130195617679
 20
-0.6255507469177246
 30
0.0
 11
-21.414399147033691
 21
0.6241202354431154
 31
0.0
  0
LINE
  5
37
  8
0
 62
     8
 10
-21.324872970581051
 20
-0.6255507469177246
 30
0.0
 11
-20.25914192199707
 21
0.6241202354431154
 31
0.0
  0
LINE
  5
38
  8
0
 62
     8
 10
-20.169496536254879
 20
-0.6255507469177246
 30
0.0
 11
-19.103765487670898
 21
0.6241202354431154
 31
0.0
  0
LINE
  5
39
  8
0
 62
     8
 10
-19.014239311218262
 20
-0.6255507469177246
 30
0.0
 11
-17.948389053344719
 21
0.6241202354431154
 31
0.0
  0
LINE
  5
3A
  8
0
 62
     8
 10
-17.85886287689209
 20
-0.6255507469177246
 30
0.0
 11
-16.793131828308098
 21
0.6241202354431154
 31
0.0
  0
LINE
  5
3B
  8
0
 62
     8
 10
-16.703486442565911
 20
-0.6255507469177246
 30
0.0
 11
-15.63775539398193
 21
0.6241202354431154
 31
0.0
  0
LINE
  5
3C
  8
0
 62
     8
 10
-15.548110008239741
 20
-0.6255507469177246
 30
0.0
 11
-14.48237895965576
 21
0.6241202354431154
 31
0.0
  0
LINE
  5
3D
  8
0
 62
     8
 10
-14.392733573913571
 20
-0.6255507469177246
 30
0.0
 11
-13.327121734619141
 21
0.6241202354431154
 31
0.0
  0
LINE
  5
3E
  8
0
 62
     8
 10
13.02671432495117
 20
-0.6249547004699707
 30
0.0
 11
14.092445373535149
 21
0.6247162818908693
 31
0.0
  0
LINE
  5
3F
  8
0
 62
     8
 10
14.18209075927734
 20
-0.6249547004699707
 30
0.0
 11
15.247821807861319
 21
0.6247162818908693
 31
0.0
  0
LINE
  5
40
  8
0
 62
     8
 10
15.33734798431396
 20
-0.6249547004699707
 30
0.0
 11
16.4031982421875
 21
0.6247162818908693
 31
0.0
  0
LINE
  5
41
  8
0
 62
     8
 10
16.49272441864013
 20
-0.6249547004699707
 30
0.0
 11
17.558455467224121
 21
0.6247162818908693
 31
0.0
  0
LINE
  5
42
  8
0
 62
     8
 10
17.648100852966309
 20
-0.6249547004699707
 30
0.0
 11
18.713831901550289
 21
0.6247162818908693
 31
0.0
  0
LINE
  5
43
  8
0
 62
     8
 10
18.80347728729248
 20
-0.6249547004699707
 30
0.0
 11
19.869208335876461
 21
0.6247162818908693
 31
0.0
  0
LINE
  5
44
  8
0
 62
     8
 10
19.958853721618649
 20
-0.6249547004699707
 30
0.0
 11
21.024465560913089
 21
0.6247162818908693
 31
0.0
  0
LINE
  5
45
  8
0
 62
     8
 10
21.11411094665527
 20
-0.6249547004699707
 30
0.0
 11
22.179841995239261
 21
0.6247162818908693
 31
0.0
  0
LINE
  5
46
  8
0
 62
     8
 10
22.269487380981442
 20
-0.6249547004699707
 30
0.0
 11
23.335099220275879
 21
0.6247162818908693
 31
0.0
  0
LINE
  5
47
  8
0
 62
     8
 10
23.42474460601807
 20
-0.6249547004699707
 30
0.0
 11
24.490475654602051
 21
0.6247162818908693
 31
0.0
  0
LINE
  5
48
  8
0
 62
     8
 10
24.580121040344238
 20
-0.6249547004699707
 30
0.0
 11
25.645852088928219
 21
0.6247162818908693
 31
0.0
  0
LINE
  5
49
  8
0
 62
     8
 10
25.73549747467041
 20
-0.6249547004699707
 30
0.0
 11
26.801228523254391
 21
0.6247162818908693
 31
0.0
  0
LINE
  5
4A
  8
0
 62
     8
 10
26.890754699707031
 20
-0.6249547004699707
 30
0.0
 11
27.95660495758057
 21
0.6247162818908693
 31
0.0
  0
LINE
  5
4B
  8
0
 62
     8
 10
28.0461311340332
 20
-0.6249547004699707
 30
0.0
 11
29.111981391906738
 21
0.6247162818908693
 31
0.0
  0
LINE
  5
4C
  8
0
 62
     8
 10
29.201507568359371
 20
-0.6249547004699707
 30
0.0
 11
30.267238616943359
 21
0.6247162818908693
 31
0.0
  0
LINE
  5
4D
  8
0
 62
     8
 10
30.356764793396
 20
-0.6249547004699707
 30
0.0
 11
31.422615051269531
 21
0.6247162818908693
 31
0.0
  0
LINE
  5
4E
  8
0
 62
     8
 10
31.512141227722172
 20
-0.6249547004699707
 30
0.0
 11
32.577872276306152
 21
0.6247162818908693
 31
0.0
  0
LINE
  5
4F
  8
0
 62
     8
 10
32.66751766204834
 20
-0.6249547004699707
 30
0.0
 11
33.733129501342773
 21
0.6247162818908693
 31
0.0
  0
LINE
  5
50
  8
0
 62
     8
 10
33.822894096374512
 20
-0.6249547004699707
 30
0.0
 11
34.888625144958503
 21
0.6247162818908693
 31
0.0
  0
LINE
  5
51
  8
0
 62
     8
 10
34.978270530700676
 20
-0.6249547004699707
 30
0.0
 11
36.043882369995117
 21
0.6247162818908693
 31
0.0
  0
LINE
  5
52
  8
0
 62
     8
 10
36.133646965026848
 20
-0.6249547004699707
 30
0.0
 11
37.199258804321289
 21
0.6247162818908693
 31
0.0
  0
LINE
  5
53
  8
0
 10
19.169807434082031
 20
-9.565889835357666
 30
0.0
 11
20.199298858642582
 21
-9.565889835357666
 31
0.0
  0
LINE
  5
54
  8
0
 10
19.169807434082031
 20
-9.565889835357666
 30
0.0
 11
20.622014999389648
 21
-0.6249547004699707
 31
0.0
  0
LINE
  5
55
  8
0
 10
17.719507217407219
 20
-0.6249547004699707
 30
0.0
 11
19.169807434082031
 21
-9.565889835357666
 31
0.0
  0
LINE
  5
56
  8
0
 10
20.199298858642582
 20
-9.565889835357666
 30
0.0
 11
21.651506423950192
 21
-0.6249547004699707
 31
0.0
  0
LINE
  5
57
  8
0
 10
-13.61322402954101
 20
-9.565889835357666
 30
0.0
 11
-13.33737373352051
 21
-9.565889835357666
 31
0.0
  0
LINE
  5
58
  8
0
 10
-13.61322402954101
 20
-9.565889835357666
 30
0.0
 11
-8.1993341445922852
 21
-0.62483549118042
 31
0.0
  0
LINE
  5
59
  8
0
 10
-19.026041030883789
 20
-0.6249547004699707
 30
0.0
 11
-13.61322402954101
 21
-9.565889835357666
 31
0.0
  0
LINE
  5
5A
  8
0
 10
-13.33737373352051
 20
-9.565889835357666
 30
0.0
 11
-7.9236030578613281
 21
-0.62483549118042
 31
0.0
  0
LINE
  5
5B
  8
0
 10
-33.536195755004883
 20
-9.565889835357666
 30
0.0
 11
-32.782554626464837
 21
-9.565889835357666
 31
0.0
  0
LINE
  5
5C
  8
0
 10
-32.782554626464837
 20
-9.565889835357666
 30
0.0
 11
-28.81932258605957
 21
-0.62483549118042
 31
0.0
  0
LINE
  5
5D
  8
0
 10
-36.746025085449219
 20
-0.6249547004699707
 30
0.0
 11
-32.782554626464837
 21
-9.565889835357666
 31
0.0
  0
LINE
  5
5E
  8
0
 10
-37.498593330383301
 20
-0.6275773048400879
 30
0.0
 11
-33.536195755004883
 21
-9.565889835357666
 31
0.0
  0
LINE
  5
5F
  8
0
 10
29.99520301818848
 20
-9.565889835357666
 30
0.0
 11
31.02469444274902
 21
-9.565889835357666
 31
0.0
  0
LINE
  5
60
  8
0
 10
28.54454517364502
 20
-0.62483549118042
 30
0.0
 11
29.99520301818848
 21
-9.565889835357666
 31
0.0
  0
LINE
  5
61
  8
0
 10
31.02469444274902
 20
-9.565889835357666
 30
0.0
 11
32.476425170898438
 21
-0.6249547004699707
 31
0.0
  0
LINE
  5
62
  8
0
 10
29.573917388916009
 20
-0.62483549118042
 30
0.0
 11
31.02469444274902
 21
-9.565889835357666
 31
0.0
  0
LINE
  5
63
  8
0
 10
3.2080411911010742
 20
-9.565889835357666
 30
0.0
 11
3.9616823196411128
 21
-9.565889835357666
 31
0.0
  0
LINE
  5
64
  8
0
 10
3.2080411911010742
 20
-9.565889835357666
 30
0.0
 11
7.1712732315063468
 21
-0.6249547004699707
 31
0.0
  0
LINE
  5
65
  8
0
 10
-0.7531642913818361
 20
-0.6249547004699707
 30
0.0
 11
3.2080411911010742
 21
-9.565889835357666
 31
0.0
  0
LINE
  5
66
  8
0
 10
3.9616823196411128
 20
-9.565889835357666
 30
0.0
 11
7.924795150756835
 21
-0.6249547004699707
 31
0.0
  0
LINE
  5
67
  8
0
 10
-27.062535285949711
 20
-9.565889835357666
 30
0.0
 11
-26.78680419921875
 21
-9.565889835357666
 31
0.0
  0
LINE
  5
68
  8
0
 10
-26.78680419921875
 20
-9.565889835357666
 30
0.0
 11
-21.372795104980469
 21
-0.62483549118042
 31
0.0
  0
LINE
  5
69
  8
0
 10
-30.249118804931641
 20
-3.8469433784484859
 30
0.0
 11
-26.78680419921875
 21
-9.565889835357666
 31
0.0
  0
LINE
  5
6A
  8
0
 10
-30.36558628082275
 20
-4.1099190711975089
 30
0.0
 11
-27.062535285949711
 21
-9.565889835357666
 31
0.0
  0
LINE
  5
6B
  8
0
 10
27.063846588134769
 20
9.5656514167785645
 30
0.0
 11
26.787996292114261
 21
9.5656514167785645
 31
0.0
  0
LINE
  5
6C
  8
0
 10
30.2499532699585
 20
3.847181797027587
 30
0.0
 11
26.787996292114261
 21
9.5656514167785645
 31
0.0
  0
LINE
  5
6D
  8
0
 10
26.787996292114261
 20
9.5656514167785645
 30
0.0
 11
21.374225616455082
 21
0.6244778633117676
 31
0.0
  0
LINE
  5
6E
  8
0
 10
30.36653995513916
 20
4.1102766990661621
 30
0.0
 11
27.063846588134769
 21
9.5656514167785645
 31
0.0
  0
LINE
  5
6F
  8
0
 10
-3.2083988189697261
 20
9.5656514167785645
 30
0.0
 11
-3.9620399475097652
 21
9.5656514167785645
 31
0.0
  0
LINE
  5
70
  8
0
 10
0.7539987564086914
 20
0.6247162818908693
 30
0.0
 11
-3.2083988189697261
 21
9.5656514167785645
 31
0.0
  0
LINE
  5
71
  8
0
 10
-3.2083988189697261
 20
9.5656514167785645
 30
0.0
 11
-7.1713924407958984
 21
0.6247162818908693
 31
0.0
  0
LINE
  5
72
  8
0
 10
-3.9620399475097652
 20
9.5656514167785645
 30
0.0
 11
-7.9251527786254883
 21
0.6247162818908693
 31
0.0
  0
LINE
  5
73
  8
0
 10
-29.995918273925781
 20
9.5656514167785645
 30
0.0
 11
-31.025528907775879
 21
9.5656514167785645
 31
0.0
  0
LINE
  5
74
  8
0
 10
-28.545379638671871
 20
0.6244778633117676
 30
0.0
 11
-29.995918273925781
 21
9.5656514167785645
 31
0.0
  0
LINE
  5
75
  8
0
 10
-29.574751853942871
 20
0.6244778633117676
 30
0.0
 11
-31.025528907775879
 21
9.5656514167785645
 31
0.0
  0
LINE
  5
76
  8
0
 10
-31.025528907775879
 20
9.5656514167785645
 30
0.0
 11
-32.475829124450676
 21
0.6247162818908693
 31
0.0
  0
LINE
  5
77
  8
0
 10
33.538222312927253
 20
9.5656514167785645
 30
0.0
 11
32.784700393676758
 21
9.5656514167785645
 31
0.0
  0
LINE
  5
78
  8
0
 10
36.747097969055183
 20
0.6247162818908693
 30
0.0
 11
32.784700393676758
 21
9.5656514167785645
 31
0.0
  0
LINE
  5
79
  8
0
 10
32.784700393676758
 20
9.5656514167785645
 30
0.0
 11
28.821468353271481
 21
0.6244778633117676
 31
0.0
  0
LINE
  5
7A
  8
0
 10
37.499547004699707
 20
0.6275773048400879
 30
0.0
 11
33.538222312927253
 21
9.5656514167785645
 31
0.0
  0
LINE
  5
7B
  8
0
 10
13.613700866699221
 20
9.5656514167785645
 30
0.0
 11
13.337850570678709
 21
9.5656514167785645
 31
0.0
  0
LINE
  5
7C
  8
0
 10
19.026517868041989
 20
0.6247162818908693
 30
0.0
 11
13.613700866699221
 21
9.5656514167785645
 31
0.0
  0
LINE
  5
7D
  8
0
 10
13.613700866699221
 20
9.5656514167785645
 30
0.0
 11
8.1998109817504883
 21
0.6244778633117676
 31
0.0
  0
LINE
  5
7E
  8
0
 10
13.337850570678709
 20
9.5656514167785645
 30
0.0
 11
7.9238414764404288
 21
0.6244778633117676
 31
0.0
  0
LINE
  5
7F
  8
0
 10
-19.17064189910888
 20
9.5656514167785645
 30
0.0
 11
-20.200014114379879
 21
9.5656514167785645
 31
0.0
  0
LINE
  5
80
  8
0
 10
-17.720341682434078
 20
0.6247162818908693
 30
0.0
 11
-19.17064189910888
 21
9.5656514167785645
 31
0.0
  0
LINE
  5
81
  8
0
 10
-19.17064189910888
 20
9.5656514167785645
 30
0.0
 11
-20.62129974365234
 21
0.6244778633117676
 31
0.0
  0
LINE
  5
82
  8
0
 10
-20.200014114379879
 20
9.5656514167785645
 30
0.0
 11
-21.65067195892334
 21
0.6244778633117676
 31
0.0
  0
LINE
  5
83
  8
0
 10
37.500262260437012
 20
-0.6249547004699707
 30
0.0
 11
37.500262260437012
 21
0.6247162818908693
 31
0.0
  0
LINE
  5
84
  8
0
 10
-37.498950958251953
 20
0.6247162818908693
 30
0.0
 11
-37.498950958251953
 21
-0.6249547004699707
 31
0.0
  0
LINE
  5
85
  8
0
 10
13.02671432495117
 20
-0.6249547004699707
 30
0.0
 11
13.02671432495117
 21
0.6249547004699707
 31
0.0
  0
LINE
  5
86
  8
0
 10
-13.02576065063476
 20
0.6249547004699707
 30
0.0
 11
-13.02576065063476
 21
-0.6249547004699707
 31
0.0
  0
LINE
  5
87
  8
0
 10
37.499547004699707
 20
-0.6249547004699707
 30
0.0
 11
-37.498950958251953
 21
-0.6249547004699707
 31
0.0
  0
LINE
  5
88
  8
0
 10
37.499547004699707
 20
0.6247162818908693
 30
0.0
 11
-37.498950958251953
 21
0.6247162818908693
 31
0.0
  0
ENDSEC
  0
EOF
