  0
SECTION
  2
HEADER
  9
$ACADVER
  1
AC1009
  9
$INSBASE
 10
0.0
 20
0.0
 30
0.0
  9
$EXTMIN
 10
-37.630915641784668
 20
-37.631034851074219
 30
0.0
  9
$EXTMAX
 10
37.630915641784668
 20
37.630796432495117
 30
1.1999999405816191
  9
$LIMMIN
 10
0.0
 20
0.0
  9
$LIMMAX
 10
12.0
 20
9.0
  9
$ORTHOMODE
 70
     0
  9
$REGENMODE
 70
     1
  9
$FILLMODE
 70
     1
  9
$QTEXTMODE
 70
     0
  9
$MIRRTEXT
 70
     0
  9
$DRAGMODE
 70
     2
  9
$LTSCALE
 40
0.0492126010358334
  9
$OSMODE
 70
    47
  9
$ATTMODE
 70
     1
  9
$TEXTSIZE
 40
0.2
  9
$TRACEWID
 40
0.05
  9
$TEXTSTYLE
  7
STANDARD
  9
$CLAYER
  8
0
  9
$CELTYPE
  6
BYLAYER
  9
$CECOLOR
 62
   256
  9
$DIMSCALE
 40
1.0
  9
$DIMASZ
 40
0.0003968749952037
  9
$DIMEXO
 40
0.1249999850988388
  9
$DIMDLI
 40
1.000000357627868
  9
$DIMRND
 40
0.0
  9
$DIMDLE
 40
0.0
  9
$DIMEXE
 40
0.18
  9
$DIMTP
 40
0.0
  9
$DIMTM
 40
0.0
  9
$DIMTXT
 40
0.18
  9
$DIMCEN
 40
0.09
  9
$DIMTSZ
 40
0.0
  9
$DIMTOL
 70
     0
  9
$DIMLIM
 70
     0
  9
$DIMTIH
 70
     0
  9
$DIMTOH
 70
     0
  9
$DIMSE1
 70
     0
  9
$DIMSE2
 70
     0
  9
$DIMTAD
 70
     0
  9
$DIMZIN
 70
     0
  9
$DIMBLK
  1

  9
$DIMASO
 70
     1
  9
$DIMSHO
 70
     1
  9
$DIMPOST
  1

  9
$DIMAPOST
  1

  9
$DIMALT
 70
     0
  9
$DIMALTD
 70
     2
  9
$DIMALTF
 40
25.399999999999999
  9
$DIMLFAC
 40
1.0
  9
$DIMTOFL
 70
     0
  9
$DIMTVP
 40
0.0
  9
$DIMTIX
 70
     0
  9
$DIMSOXD
 70
     0
  9
$DIMSAH
 70
     0
  9
$DIMBLK1
  1

  9
$DIMBLK2
  1

  9
$DIMSTYLE
  2
STANDARD
  9
$DIMCLRD
 70
     0
  9
$DIMCLRE
 70
     0
  9
$DIMCLRT
 70
     0
  9
$DIMTFAC
 40
1.0
  9
$DIMGAP
 40
0.09
  9
$LUNITS
 70
     2
  9
$LUPREC
 70
     0
  9
$SKETCHINC
 40
0.1
  9
$FILLETRAD
 40
0.0
  9
$AUNITS
 70
     0
  9
$AUPREC
 70
     0
  9
$MENU
  1
acad
  9
$ELEVATION
 40
0.0
  9
$PELEVATION
 40
0.0
  9
$THICKNESS
 40
0.0
  9
$LIMCHECK
 70
     0
  9
$BLIPMODE
 70
     0
  9
$CHAMFERA
 40
0.0
  9
$CHAMFERB
 40
0.0
  9
$SKPOLY
 70
     0
  9
$TDCREATE
 40
2449631.7321383101
  9
$TDUPDATE
 40
2453443.5715243402
  9
$TDINDWG
 40
0.005628669
  9
$TDUSRTIMER
 40
0.005628669
  9
$USRTIMER
 70
     1
  9
$ANGBASE
 50
0.0
  9
$ANGDIR
 70
     0
  9
$PDMODE
 70
     0
  9
$PDSIZE
 40
0.0
  9
$PLINEWID
 40
0.0
  9
$COORDS
 70
     1
  9
$SPLFRAME
 70
     0
  9
$SPLINETYPE
 70
     6
  9
$SPLINESEGS
 70
     8
  9
$ATTDIA
 70
     0
  9
$ATTREQ
 70
     1
  9
$HANDLING
 70
     1
  9
$HANDSEED
  5
B2
  9
$SURFTAB1
 70
     6
  9
$SURFTAB2
 70
     6
  9
$SURFTYPE
 70
     6
  9
$SURFU
 70
     6
  9
$SURFV
 70
     6
  9
$UCSNAME
  2

  9
$UCSORG
 10
0.0
 20
0.0
 30
0.0
  9
$UCSXDIR
 10
1.0
 20
0.0
 30
0.0
  9
$UCSYDIR
 10
0.0
 20
1.0
 30
0.0
  9
$PUCSNAME
  2

  9
$PUCSORG
 10
0.0
 20
0.0
 30
0.0
  9
$PUCSXDIR
 10
1.0
 20
0.0
 30
0.0
  9
$PUCSYDIR
 10
0.0
 20
1.0
 30
0.0
  9
$USERI1
 70
     0
  9
$USERI2
 70
     0
  9
$USERI3
 70
     0
  9
$USERI4
 70
     0
  9
$USERI5
 70
     0
  9
$USERR1
 40
0.0
  9
$USERR2
 40
0.0
  9
$USERR3
 40
0.0
  9
$USERR4
 40
0.0
  9
$USERR5
 40
0.0
  9
$WORLDVIEW
 70
     1
  9
$SHADEDGE
 70
     3
  9
$SHADEDIF
 70
    70
  9
$TILEMODE
 70
     1
  9
$MAXACTVP
 70
    16
  9
$PLIMCHECK
 70
     0
  9
$PEXTMIN
 10
1.0000000000000000E+020
 20
1.0000000000000000E+020
 30
1.0000000000000000E+020
  9
$PEXTMAX
 10
-1.0000000000000000E+020
 20
-1.0000000000000000E+020
 30
-1.0000000000000000E+020
  9
$PLIMMIN
 10
0.0
 20
0.0
  9
$PLIMMAX
 10
12.0
 20
9.0
  9
$UNITMODE
 70
     0
  9
$VISRETAIN
 70
     0
  9
$PLINEGEN
 70
     0
  9
$PSLTSCALE
 70
     1
  0
ENDSEC
  0
SECTION
  2
TABLES
  0
TABLE
  2
VPORT
 70
     2
  0
VPORT
  2
*ACTIVE
 70
     0
 10
0.0
 20
0.0
 11
1.0
 21
1.0
 12
42.689351397153359
 22
1.97003742190202
 13
0.0
 23
0.0
 14
1.0
 24
1.0
 15
0.0
 25
0.0
 16
0.0
 26
0.0
 36
1.0
 17
0.0
 27
0.0
 37
0.0
 40
283.55964334335908
 41
1.4993646759847521
 42
50.0
 43
0.0
 44
0.0
 50
0.0
 51
0.0
 71
     0
 72
   100
 73
     1
 74
     1
 75
     0
 76
     0
 77
     0
 78
     0
  0
ENDTAB
  0
TABLE
  2
LTYPE
 70
     1
  0
LTYPE
  2
CONTINUOUS
 70
     0
  3
Solid line
 72
    65
 73
     0
 40
0.0
  0
ENDTAB
  0
TABLE
  2
LAYER
 70
     1
  0
LAYER
  2
0
 70
     0
 62
     7
  6
CONTINUOUS
  0
ENDTAB
  0
TABLE
  2
STYLE
 70
     2
  0
STYLE
  2
STANDARD
 70
     0
 40
0.0
 41
1.0
 50
0.0
 71
     0
 42
0.2
  3
txt
  4

  0
STYLE
  2
SST
 70
     0
 40
0.0
 41
1.0
 50
0.0
 71
     0
 42
3.5
  3
romans.shx
  4

  0
ENDTAB
  0
TABLE
  2
VIEW
 70
     0
  0
ENDTAB
  0
TABLE
  2
UCS
 70
     0
  0
ENDTAB
  0
TABLE
  2
APPID
 70
     1
  0
APPID
  2
ACAD
 70
     0
  0
ENDTAB
  0
TABLE
  2
DIMSTYLE
 70
     1
  0
DIMSTYLE
  2
STANDARD
 70
     0
  3

  4

  5

  6

  7

 40
1.0
 41
0.18
 42
0.0625
 43
0.38
 44
0.18
 45
0.0
 46
0.0
 47
0.0
 48
0.0
140
0.18
141
0.09
142
0.0
143
25.399999999999999
144
1.0
145
0.0
146
1.0
147
0.09
 71
     0
 72
     0
 73
     1
 74
     1
 75
     0
 76
     0
 77
     0
 78
     0
170
     0
171
     2
172
     0
173
     0
174
     0
175
     0
176
     0
177
     0
178
     0
  0
ENDTAB
  0
ENDSEC
  0
SECTION
  2
BLOCKS
  0
BLOCK
  8
0
  2
$MODEL_SPACE
 70
     0
 10
0.0
 20
0.0
 30
0.0
  3
$MODEL_SPACE
  1

  0
ENDBLK
  5
9
  8
0
  0
BLOCK
 67
     1
  8
0
  2
$PAPER_SPACE
 70
     0
 10
0.0
 20
0.0
 30
0.0
  3
$PAPER_SPACE
  1

  0
ENDBLK
  5
E
 67
     1
  8
0
  0
BLOCK
  8
0
  2
SIMPSON-STRONG-TIE
 70
     0
 10
0.0
 20
0.0
 30
0.0
  3
SIMPSON-STRONG-TIE
  1

  0
TEXT
  5
9A
  8
0
  6
CONTINUOUS
 10
-4.7318727780691416
 20
4.4215860385237811
 30
0.0
 40
2.0
  1
SIMPSON
 50
316.94148639091338
  7
SST
 72
     1
 11
0.0
 21
0.0
 31
0.0
  0
TEXT
  5
9C
  8
0
  6
CONTINUOUS
 10
-7.9648409725863862
 20
3.4769825481547749
 30
0.0
 40
2.0
  1
Strong-Tie
 50
316.94148639091338
  7
SST
 72
     1
 11
-2.0499999999999541
 21
-2.0499999999999541
 31
0.0
  0
ENDBLK
  5
9D
  8
0
  0
ENDSEC
  0
SECTION
  2
ENTITIES
  0
CIRCLE
  5
28
  8
0
 39
1.1999999405816191
 10
-22.406458854675289
 20
0.0
 30
0.0
 40
2.4999927263706918
  0
CIRCLE
  5
29
  8
0
 39
1.1999999405816191
 10
22.405862808227539
 20
0.0
 30
0.0
 40
2.4999927263706918
  0
CIRCLE
  5
2A
  8
0
 39
1.1999999405816191
 10
0.0
 20
0.0
 30
0.0
 40
12.999981641769409
  0
LINE
  5
2B
  8
0
 10
7.925391197204589
 20
-29.57451343536377
 30
0.0
 11
-0.0002384185791016
 21
-37.50002384185791
 31
0.0
  0
LINE
  5
2C
  8
0
 10
8.1031322479248047
 20
-31.164407730102539
 30
0.0
 11
7.9257488250732422
 21
-29.574871063232418
 31
0.0
  0
LINE
  5
2D
  8
0
 10
4.8460960388183594
 20
-34.421563148498528
 30
0.0
 11
3.9626359939575191
 21
-33.538103103637688
 31
0.0
  0
LINE
  5
2E
  8
0
 10
0.0005960464477539
 20
-37.50002384185791
 30
0.0
 11
1.6366243362426749
 21
-37.631034851074219
 31
0.0
  0
LINE
  5
2F
  8
0
 10
7.9183578491210929
 20
-29.576420783996578
 30
0.0
 11
18.74446868896484
 21
-32.479166984558098
 31
0.0
  0
LINE
  5
30
  8
0
 10
8.5591077804565412
 20
-31.042337417602539
 30
0.0
 11
7.9182386398315421
 21
-29.576897621154782
 31
0.0
  0
LINE
  5
31
  8
0
 10
18.743753433227539
 20
-32.479643821716309
 30
0.0
 11
17.392277717590328
 21
-33.410787582397461
 31
0.0
  0
LINE
  5
32
  8
0
 10
8.1031322479248047
 20
-31.164407730102539
 30
0.0
 11
1.6366243362426749
 21
-37.631034851074219
 31
0.0
  0
LINE
  5
33
  8
0
 10
8.5591077804565412
 20
-31.042337417602539
 30
0.0
 11
17.392277717590328
 21
-33.410787582397461
 31
0.0
  0
LINE
  5
34
  8
0
 10
21.650791168212891
 20
-21.649599075317379
 30
0.0
 11
18.749713897705071
 21
-32.476186752319343
 31
0.0
  0
LINE
  5
35
  8
0
 10
22.599697113037109
 20
-22.93753623962402
 30
0.0
 11
21.65126800537109
 21
-21.64971828460693
 31
0.0
  0
LINE
  5
36
  8
0
 10
21.40748500823975
 20
-27.386903762817379
 30
0.0
 11
20.200848579406738
 21
-27.063608169555661
 31
0.0
  0
LINE
  5
37
  8
0
 10
18.75054836273193
 20
-32.475709915161133
 30
0.0
 11
20.232796669006351
 21
-31.771183013916019
 31
0.0
  0
LINE
  5
38
  8
0
 10
21.645665168762211
 20
-21.65472507476807
 30
0.0
 11
32.472729682922363
 21
-18.755435943603509
 31
0.0
  0
LINE
  5
39
  8
0
 10
22.933602333068851
 20
-22.60386943817139
 30
0.0
 11
21.645784378051761
 21
-21.65532112121582
 31
0.0
  0
LINE
  5
3A
  8
0
 10
32.472372055053711
 20
-18.756270408630371
 30
0.0
 11
31.767487525939941
 21
-20.238399505615231
 31
0.0
  0
LINE
  5
3B
  8
0
 10
22.599697113037109
 20
-22.93753623962402
 30
0.0
 11
20.232796669006351
 21
-31.771183013916019
 31
0.0
  0
LINE
  5
3C
  8
0
 10
22.933602333068851
 20
-22.60386943817139
 30
0.0
 11
31.767487525939941
 21
-20.238399505615231
 31
0.0
  0
LINE
  5
3D
  8
0
 10
29.574871063232418
 20
-7.9236030578613281
 30
0.0
 11
32.475829124450676
 21
-18.750309944152828
 31
0.0
  0
LINE
  5
3E
  8
0
 10
31.040787696838379
 20
-8.5647106170654297
 30
0.0
 11
29.575467109680169
 21
-7.9234838485717773
 31
0.0
  0
LINE
  5
3F
  8
0
 10
32.232761383056641
 20
-13.01395893096924
 30
0.0
 11
31.026124954223629
 21
-13.33737373352051
 31
0.0
  0
LINE
  5
40
  8
0
 10
32.476186752319343
 20
-18.74959468841552
 30
0.0
 11
33.407688140869141
 21
-17.39811897277832
 31
0.0
  0
LINE
  5
41
  8
0
 10
29.572963714599609
 20
-7.930755615234375
 30
0.0
 11
37.499904632568359
 21
-0.0064373016357422
 31
0.0
  0
LINE
  5
42
  8
0
 10
31.16297721862793
 20
-8.1088542938232422
 30
0.0
 11
29.573440551757809
 21
-7.9311132431030273
 31
0.0
  0
LINE
  5
43
  8
0
 10
37.499904632568359
 20
-0.0071525573730469
 30
0.0
 11
37.630558013916023
 21
-1.6433000564575191
 31
0.0
  0
LINE
  5
44
  8
0
 10
31.040787696838379
 20
-8.5647106170654297
 30
0.0
 11
33.407688140869141
 21
-17.39811897277832
 31
0.0
  0
LINE
  5
45
  8
0
 10
31.16297721862793
 20
-8.1088542938232422
 30
0.0
 11
37.630558013916023
 21
-1.6433000564575191
 31
0.0
  0
LINE
  5
46
  8
0
 10
29.57451343536377
 20
7.9253911972045907
 30
0.0
 11
37.50002384185791
 21
-0.0003576278686523
 31
0.0
  0
LINE
  5
47
  8
0
 10
31.164407730102539
 20
8.1031322479248065
 30
0.0
 11
29.574871063232418
 21
7.9258680343627939
 31
0.0
  0
LINE
  5
48
  8
0
 10
34.421443939208977
 20
4.8459768295288104
 30
0.0
 11
33.538103103637688
 21
3.9625167846679679
 31
0.0
  0
LINE
  5
49
  8
0
 10
37.50002384185791
 20
0.0005960464477539
 30
0.0
 11
37.630915641784668
 21
1.636505126953125
 31
0.0
  0
LINE
  5
4A
  8
0
 10
29.576301574707031
 20
7.9183578491210946
 30
0.0
 11
32.479166984558098
 21
18.74446868896484
 31
0.0
  0
LINE
  5
4B
  8
0
 10
31.042337417602539
 20
8.5591077804565447
 30
0.0
 11
29.576778411865231
 21
7.9181194305419931
 31
0.0
  0
LINE
  5
4C
  8
0
 10
32.479524612426758
 20
18.743753433227539
 30
0.0
 11
33.41066837310791
 21
17.392158508300781
 31
0.0
  0
LINE
  5
4D
  8
0
 10
31.164407730102539
 20
8.1031322479248065
 30
0.0
 11
37.630915641784668
 21
1.636505126953125
 31
0.0
  0
LINE
  5
4E
  8
0
 10
31.042337417602539
 20
8.5591077804565447
 30
0.0
 11
33.41066837310791
 21
17.392158508300781
 31
0.0
  0
LINE
  5
4F
  8
0
 10
21.649479866027828
 20
21.650791168212891
 30
0.0
 11
32.476067543029778
 21
18.749713897705071
 31
0.0
  0
LINE
  5
50
  8
0
 10
22.93753623962402
 20
22.59981632232666
 30
0.0
 11
21.649599075317379
 21
21.651387214660641
 31
0.0
  0
LINE
  5
51
  8
0
 10
27.386784553527828
 20
21.40748500823975
 30
0.0
 11
27.063608169555661
 21
20.200729370117191
 31
0.0
  0
LINE
  5
52
  8
0
 10
32.475590705871582
 20
18.750429153442379
 30
0.0
 11
31.771063804626461
 21
20.2326774597168
 31
0.0
  0
LINE
  5
53
  8
0
 10
21.654605865478519
 20
21.64554595947266
 30
0.0
 11
18.755435943603509
 21
32.472729682922363
 31
0.0
  0
LINE
  5
54
  8
0
 10
22.60386943817139
 20
22.9334831237793
 30
0.0
 11
21.65520191192627
 21
21.645784378051761
 31
0.0
  0
LINE
  5
55
  8
0
 10
18.75615119934082
 20
32.47225284576416
 30
0.0
 11
20.238399505615231
 21
31.767368316650391
 31
0.0
  0
LINE
  5
56
  8
0
 10
22.93753623962402
 20
22.59981632232666
 30
0.0
 11
31.771063804626461
 21
20.2326774597168
 31
0.0
  0
LINE
  5
57
  8
0
 10
22.60386943817139
 20
22.9334831237793
 30
0.0
 11
20.238399505615231
 21
31.767368316650391
 31
0.0
  0
LINE
  5
58
  8
0
 10
7.9236030578613281
 20
29.574871063232418
 30
0.0
 11
18.750309944152828
 21
32.475709915161133
 31
0.0
  0
LINE
  5
59
  8
0
 10
8.5645914077758771
 20
31.040668487548832
 30
0.0
 11
7.9234838485717773
 21
29.575467109680169
 31
0.0
  0
LINE
  5
5A
  8
0
 10
13.01383972167968
 20
32.232880592346191
 30
0.0
 11
13.33725452423095
 21
31.026005744934078
 31
0.0
  0
LINE
  5
5B
  8
0
 10
18.74959468841552
 20
32.476305961608887
 30
0.0
 11
17.39811897277832
 21
33.407688140869141
 31
0.0
  0
LINE
  5
5C
  8
0
 10
7.9306364059448242
 20
29.572963714599609
 30
0.0
 11
0.0063180923461914
 21
37.499904632568359
 31
0.0
  0
LINE
  5
5D
  8
0
 10
8.1087350845336914
 20
31.162858009338379
 30
0.0
 11
7.9309940338134757
 21
29.573321342468262
 31
0.0
  0
LINE
  5
5E
  8
0
 10
0.0070333480834961
 20
37.499785423278809
 30
0.0
 11
1.6431808471679681
 21
37.630677223205574
 31
0.0
  0
LINE
  5
5F
  8
0
 10
8.5645914077758771
 20
31.040668487548832
 30
0.0
 11
17.39811897277832
 21
33.407688140869141
 31
0.0
  0
LINE
  5
60
  8
0
 10
8.1087350845336914
 20
31.162858009338379
 30
0.0
 11
1.6431808471679681
 21
37.630677223205574
 31
0.0
  0
LINE
  5
61
  8
0
 10
-7.9255104064941397
 20
29.574394226074219
 30
0.0
 11
0.0002384185791016
 21
37.50002384185791
 31
0.0
  0
LINE
  5
62
  8
0
 10
-8.1032514572143555
 20
31.164407730102539
 30
0.0
 11
-7.9258680343627921
 21
29.574751853942871
 31
0.0
  0
LINE
  5
63
  8
0
 10
-4.8460960388183594
 20
34.421443939208977
 30
0.0
 11
-3.9626359939575191
 21
33.538103103637688
 31
0.0
  0
LINE
  5
64
  8
0
 10
-0.0007152557373047
 20
37.50002384185791
 30
0.0
 11
-1.6366243362426749
 21
37.630796432495117
 31
0.0
  0
LINE
  5
65
  8
0
 10
-7.9183578491210929
 20
29.576301574707031
 30
0.0
 11
-18.74446868896484
 21
32.479047775268548
 31
0.0
  0
LINE
  5
66
  8
0
 10
-8.5591077804565412
 20
31.042218208312988
 30
0.0
 11
-7.9182386398315421
 21
29.576897621154782
 31
0.0
  0
LINE
  5
67
  8
0
 10
-18.74387264251709
 20
32.479405403137207
 30
0.0
 11
-17.392277717590328
 21
33.41066837310791
 31
0.0
  0
LINE
  5
68
  8
0
 10
-8.1032514572143555
 20
31.164407730102539
 30
0.0
 11
-1.6366243362426749
 21
37.630796432495117
 31
0.0
  0
LINE
  5
69
  8
0
 10
-8.5591077804565412
 20
31.042218208312988
 30
0.0
 11
-17.392277717590328
 21
33.41066837310791
 31
0.0
  0
LINE
  5
6A
  8
0
 10
-21.650910377502441
 20
21.649479866027828
 30
0.0
 11
-18.749713897705071
 21
32.476067543029778
 31
0.0
  0
LINE
  5
6B
  8
0
 10
-22.599935531616211
 20
22.93753623962402
 30
0.0
 11
-21.651387214660641
 21
21.649479866027828
 31
0.0
  0
LINE
  5
6C
  8
0
 10
-21.4076042175293
 20
27.386784553527828
 30
0.0
 11
-20.200848579406738
 21
27.06348896026611
 31
0.0
  0
LINE
  5
6D
  8
0
 10
-18.75054836273193
 20
32.475590705871582
 30
0.0
 11
-20.232796669006351
 21
31.771063804626461
 31
0.0
  0
LINE
  5
6E
  8
0
 10
-21.645665168762211
 20
21.65472507476807
 30
0.0
 11
-32.472729682922363
 21
18.755435943603509
 31
0.0
  0
LINE
  5
6F
  8
0
 10
-22.933602333068851
 20
22.60386943817139
 30
0.0
 11
-21.645903587341309
 21
21.65520191192627
 31
0.0
  0
LINE
  5
70
  8
0
 10
-32.472372055053711
 20
18.75603199005127
 30
0.0
 11
-31.767487525939941
 21
20.23828029632568
 31
0.0
  0
LINE
  5
71
  8
0
 10
-22.599935531616211
 20
22.93753623962402
 30
0.0
 11
-20.232796669006351
 21
31.771063804626461
 31
0.0
  0
LINE
  5
72
  8
0
 10
-22.933602333068851
 20
22.60386943817139
 30
0.0
 11
-31.767487525939941
 21
20.23828029632568
 31
0.0
  0
LINE
  5
73
  8
0
 10
-29.574990272521969
 20
7.9234838485717791
 30
0.0
 11
-32.475829124450676
 21
18.750190734863281
 31
0.0
  0
LINE
  5
74
  8
0
 10
-31.040787696838379
 20
8.5645914077758807
 30
0.0
 11
-29.575467109680169
 21
7.9233646392822283
 31
0.0
  0
LINE
  5
75
  8
0
 10
-32.232999801635742
 20
13.013839721679689
 30
0.0
 11
-31.026124954223629
 21
13.337254524230961
 31
0.0
  0
LINE
  5
76
  8
0
 10
-32.476305961608887
 20
18.749475479125969
 30
0.0
 11
-33.407688140869141
 21
17.39811897277832
 31
0.0
  0
LINE
  5
77
  8
0
 10
-29.57308292388916
 20
7.9306364059448251
 30
0.0
 11
-37.499904632568359
 21
0.0061988830566406
 31
0.0
  0
LINE
  5
78
  8
0
 10
-31.16297721862793
 20
8.1086158752441424
 30
0.0
 11
-29.573440551757809
 21
7.9309940338134783
 31
0.0
  0
LINE
  5
79
  8
0
 10
-37.499904632568359
 20
0.0070333480834961
 30
0.0
 11
-37.630796432495117
 21
1.6430616378784171
 31
0.0
  0
LINE
  5
7A
  8
0
 10
-31.040787696838379
 20
8.5645914077758807
 30
0.0
 11
-33.407688140869141
 21
17.39811897277832
 31
0.0
  0
LINE
  5
7B
  8
0
 10
-31.16297721862793
 20
8.1086158752441424
 30
0.0
 11
-37.630796432495117
 21
1.6430616378784171
 31
0.0
  0
LINE
  5
7C
  8
0
 10
-29.574394226074219
 20
-7.9255104064941397
 30
0.0
 11
-37.50002384185791
 21
0.0002384185791016
 31
0.0
  0
LINE
  5
7D
  8
0
 10
-31.16452693939209
 20
-8.1032514572143555
 30
0.0
 11
-29.574871063232418
 21
-7.9258680343627921
 31
0.0
  0
LINE
  5
7E
  8
0
 10
-34.421443939208977
 20
-4.8462152481079102
 30
0.0
 11
-33.538103103637688
 21
-3.9626359939575191
 31
0.0
  0
LINE
  5
7F
  8
0
 10
-37.50002384185791
 20
-0.0007152557373047
 30
0.0
 11
-37.630915641784668
 21
-1.6366243362426749
 31
0.0
  0
LINE
  5
80
  8
0
 10
-29.576420783996578
 20
-7.9184770584106436
 30
0.0
 11
-32.479166984558098
 21
-18.744587898254391
 31
0.0
  0
LINE
  5
81
  8
0
 10
-31.042337417602539
 20
-8.5592269897460937
 30
0.0
 11
-29.577016830444329
 21
-7.9183578491210929
 31
0.0
  0
LINE
  5
82
  8
0
 10
-32.479524612426758
 20
-18.74387264251709
 30
0.0
 11
-33.410787582397461
 21
-17.392396926879879
 31
0.0
  0
LINE
  5
83
  8
0
 10
-31.16452693939209
 20
-8.1032514572143555
 30
0.0
 11
-37.630915641784668
 21
-1.6366243362426749
 31
0.0
  0
LINE
  5
84
  8
0
 10
-31.042337417602539
 20
-8.5592269897460937
 30
0.0
 11
-33.410787582397461
 21
-17.392396926879879
 31
0.0
  0
LINE
  5
85
  8
0
 10
-21.649479866027828
 20
-21.650910377502441
 30
0.0
 11
-32.476067543029778
 21
-18.749833106994629
 31
0.0
  0
LINE
  5
86
  8
0
 10
-22.93753623962402
 20
-22.599935531616211
 30
0.0
 11
-21.649599075317379
 21
-21.651387214660641
 31
0.0
  0
LINE
  5
87
  8
0
 10
-27.386784553527828
 20
-21.4076042175293
 30
0.0
 11
-27.063608169555661
 21
-20.200848579406738
 31
0.0
  0
LINE
  5
88
  8
0
 10
-32.475590705871582
 20
-18.750667572021481
 30
0.0
 11
-31.771063804626461
 21
-20.232915878295898
 31
0.0
  0
LINE
  5
89
  8
0
 10
-21.65472507476807
 20
-21.645784378051761
 30
0.0
 11
-18.755435943603509
 21
-32.472848892211907
 31
0.0
  0
LINE
  5
8A
  8
0
 10
-22.60386943817139
 20
-22.933602333068851
 30
0.0
 11
-21.65532112121582
 21
-21.645903587341309
 31
0.0
  0
LINE
  5
8B
  8
0
 10
-18.75615119934082
 20
-32.472491264343262
 30
0.0
 11
-20.238399505615231
 21
-31.767606735229489
 31
0.0
  0
LINE
  5
8C
  8
0
 10
-22.93753623962402
 20
-22.599935531616211
 30
0.0
 11
-31.771063804626461
 21
-20.232915878295898
 31
0.0
  0
LINE
  5
8D
  8
0
 10
-22.60386943817139
 20
-22.933602333068851
 30
0.0
 11
-20.238399505615231
 21
-31.767606735229489
 31
0.0
  0
LINE
  5
8E
  8
0
 10
-7.9236030578613281
 20
-29.574990272521969
 30
0.0
 11
-18.750309944152828
 21
-32.475948333740227
 31
0.0
  0
LINE
  5
8F
  8
0
 10
-8.5645914077758771
 20
-31.04090690612793
 30
0.0
 11
-7.9234838485717773
 21
-29.57558631896973
 31
0.0
  0
LINE
  5
90
  8
0
 10
-13.01383972167968
 20
-32.232999801635742
 30
0.0
 11
-13.33725452423095
 21
-31.02624416351318
 31
0.0
  0
LINE
  5
91
  8
0
 10
-18.749475479125969
 20
-32.476305961608887
 30
0.0
 11
-17.39811897277832
 21
-33.407688140869141
 31
0.0
  0
LINE
  5
92
  8
0
 10
-7.930755615234375
 20
-29.57308292388916
 30
0.0
 11
-0.0063180923461914
 21
-37.50002384185791
 31
0.0
  0
LINE
  5
93
  8
0
 10
-8.1087350845336914
 20
-31.16297721862793
 30
0.0
 11
-7.9311132431030273
 21
-29.573440551757809
 31
0.0
  0
LINE
  5
94
  8
0
 10
-0.0070333480834961
 20
-37.50002384185791
 30
0.0
 11
-1.6431808471679681
 21
-37.630796432495117
 31
0.0
  0
LINE
  5
95
  8
0
 10
-8.5645914077758771
 20
-31.04090690612793
 30
0.0
 11
-17.39811897277832
 21
-33.407688140869141
 31
0.0
  0
LINE
  5
96
  8
0
 10
-8.1087350845336914
 20
-31.16297721862793
 30
0.0
 11
-1.6431808471679681
 21
-37.630796432495117
 31
0.0
  0
INSERT
  5
97
  8
0
  2
SIMPSON-STRONG-TIE
 10
15.59224267443526
 20
15.92122342513945
 30
0.0
  0
ENDSEC
  0
EOF
