  0
SECTION
  2
HEADER
  9
$ACADVER
  1
AC1009
  9
$INSBASE
 10
0.0
 20
0.0
 30
0.0
  9
$EXTMIN
 10
-47.499418258666992
 20
-12.00032234191894
 30
0.0
  9
$EXTMAX
 10
47.500371932983398
 20
12.00008392333984
 30
0.0
  9
$LIMMIN
 10
0.0
 20
0.0
  9
$LIMMAX
 10
12.0
 20
9.0
  9
$ORTHOMODE
 70
     0
  9
$REGENMODE
 70
     1
  9
$FILLMODE
 70
     1
  9
$QTEXTMODE
 70
     0
  9
$MIRRTEXT
 70
     0
  9
$DRAGMODE
 70
     2
  9
$LTSCALE
 40
1.0
  9
$OSMODE
 70
    47
  9
$ATTMODE
 70
     1
  9
$TEXTSIZE
 40
3.5
  9
$TRACEWID
 40
0.05
  9
$TEXTSTYLE
  7
SST
  9
$CLAYER
  8
0
  9
$CELTYPE
  6
BYLAYER
  9
$CECOLOR
 62
   256
  9
$DIMSCALE
 40
1.0
  9
$DIMASZ
 40
0.18
  9
$DIMEXO
 40
0.0625
  9
$DIMDLI
 40
0.38
  9
$DIMRND
 40
0.0
  9
$DIMDLE
 40
0.0
  9
$DIMEXE
 40
0.18
  9
$DIMTP
 40
0.0
  9
$DIMTM
 40
0.0
  9
$DIMTXT
 40
0.18
  9
$DIMCEN
 40
0.09
  9
$DIMTSZ
 40
0.0
  9
$DIMTOL
 70
     0
  9
$DIMLIM
 70
     0
  9
$DIMTIH
 70
     1
  9
$DIMTOH
 70
     1
  9
$DIMSE1
 70
     0
  9
$DIMSE2
 70
     0
  9
$DIMTAD
 70
     0
  9
$DIMZIN
 70
     0
  9
$DIMBLK
  1

  9
$DIMASO
 70
     1
  9
$DIMSHO
 70
     1
  9
$DIMPOST
  1

  9
$DIMAPOST
  1

  9
$DIMALT
 70
     0
  9
$DIMALTD
 70
     2
  9
$DIMALTF
 40
25.399999999999999
  9
$DIMLFAC
 40
1.0
  9
$DIMTOFL
 70
     0
  9
$DIMTVP
 40
0.0
  9
$DIMTIX
 70
     0
  9
$DIMSOXD
 70
     0
  9
$DIMSAH
 70
     0
  9
$DIMBLK1
  1

  9
$DIMBLK2
  1

  9
$DIMSTYLE
  2
STANDARD
  9
$DIMCLRD
 70
     0
  9
$DIMCLRE
 70
     0
  9
$DIMCLRT
 70
     0
  9
$DIMTFAC
 40
1.0
  9
$DIMGAP
 40
0.09
  9
$LUNITS
 70
     2
  9
$LUPREC
 70
     0
  9
$SKETCHINC
 40
0.1
  9
$FILLETRAD
 40
0.0
  9
$AUNITS
 70
     0
  9
$AUPREC
 70
     0
  9
$MENU
  1
acad
  9
$ELEVATION
 40
0.0
  9
$PELEVATION
 40
0.0
  9
$THICKNESS
 40
0.0
  9
$LIMCHECK
 70
     0
  9
$BLIPMODE
 70
     0
  9
$CHAMFERA
 40
0.0
  9
$CHAMFERB
 40
0.0
  9
$SKPOLY
 70
     0
  9
$TDCREATE
 40
2449631.7321383101
  9
$TDUPDATE
 40
2453443.571530845
  9
$TDINDWG
 40
0.0040026852
  9
$TDUSRTIMER
 40
0.0040026852
  9
$USRTIMER
 70
     1
  9
$ANGBASE
 50
0.0
  9
$ANGDIR
 70
     0
  9
$PDMODE
 70
     0
  9
$PDSIZE
 40
0.0
  9
$PLINEWID
 40
0.0
  9
$COORDS
 70
     1
  9
$SPLFRAME
 70
     0
  9
$SPLINETYPE
 70
     6
  9
$SPLINESEGS
 70
     8
  9
$ATTDIA
 70
     0
  9
$ATTREQ
 70
     1
  9
$HANDLING
 70
     1
  9
$HANDSEED
  5
B4
  9
$SURFTAB1
 70
     6
  9
$SURFTAB2
 70
     6
  9
$SURFTYPE
 70
     6
  9
$SURFU
 70
     6
  9
$SURFV
 70
     6
  9
$UCSNAME
  2

  9
$UCSORG
 10
0.0
 20
0.0
 30
0.0
  9
$UCSXDIR
 10
1.0
 20
0.0
 30
0.0
  9
$UCSYDIR
 10
0.0
 20
1.0
 30
0.0
  9
$PUCSNAME
  2

  9
$PUCSORG
 10
0.0
 20
0.0
 30
0.0
  9
$PUCSXDIR
 10
1.0
 20
0.0
 30
0.0
  9
$PUCSYDIR
 10
0.0
 20
1.0
 30
0.0
  9
$USERI1
 70
     0
  9
$USERI2
 70
     0
  9
$USERI3
 70
     0
  9
$USERI4
 70
     0
  9
$USERI5
 70
     0
  9
$USERR1
 40
0.0
  9
$USERR2
 40
0.0
  9
$USERR3
 40
0.0
  9
$USERR4
 40
0.0
  9
$USERR5
 40
0.0
  9
$WORLDVIEW
 70
     1
  9
$SHADEDGE
 70
     3
  9
$SHADEDIF
 70
    70
  9
$TILEMODE
 70
     1
  9
$MAXACTVP
 70
    16
  9
$PLIMCHECK
 70
     0
  9
$PEXTMIN
 10
1.0000000000000000E+020
 20
1.0000000000000000E+020
 30
1.0000000000000000E+020
  9
$PEXTMAX
 10
-1.0000000000000000E+020
 20
-1.0000000000000000E+020
 30
-1.0000000000000000E+020
  9
$PLIMMIN
 10
0.0
 20
0.0
  9
$PLIMMAX
 10
12.0
 20
9.0
  9
$UNITMODE
 70
     0
  9
$VISRETAIN
 70
     0
  9
$PLINEGEN
 70
     0
  9
$PSLTSCALE
 70
     1
  0
ENDSEC
  0
SECTION
  2
TABLES
  0
TABLE
  2
VPORT
 70
     2
  0
VPORT
  2
*ACTIVE
 70
     0
 10
0.0
 20
0.0
 11
1.0
 21
1.0
 12
128.96348291377029
 22
0.0754819657422559
 13
0.0
 23
0.0
 14
1.0
 24
1.0
 15
0.0
 25
0.0
 16
0.0
 26
0.0
 36
1.0
 17
0.0
 27
0.0
 37
0.0
 40
579.44794334517792
 41
1.4993646759847521
 42
50.0
 43
0.0
 44
0.0
 50
0.0
 51
0.0
 71
     0
 72
   100
 73
     1
 74
     1
 75
     0
 76
     0
 77
     0
 78
     0
  0
ENDTAB
  0
TABLE
  2
LTYPE
 70
     1
  0
LTYPE
  2
CONTINUOUS
 70
     0
  3
Solid line
 72
    65
 73
     0
 40
0.0
  0
ENDTAB
  0
TABLE
  2
LAYER
 70
     1
  0
LAYER
  2
0
 70
     0
 62
     7
  6
CONTINUOUS
  0
ENDTAB
  0
TABLE
  2
STYLE
 70
     2
  0
STYLE
  2
STANDARD
 70
     0
 40
0.0
 41
1.0
 50
0.0
 71
     0
 42
0.2
  3
txt
  4

  0
STYLE
  2
SST
 70
     0
 40
0.0
 41
1.0
 50
0.0
 71
     0
 42
3.5
  3
romans.shx
  4

  0
ENDTAB
  0
TABLE
  2
VIEW
 70
     0
  0
ENDTAB
  0
TABLE
  2
UCS
 70
     0
  0
ENDTAB
  0
TABLE
  2
APPID
 70
     1
  0
APPID
  2
ACAD
 70
     0
  0
ENDTAB
  0
TABLE
  2
DIMSTYLE
 70
     1
  0
DIMSTYLE
  2
STANDARD
 70
     0
  3

  4

  5

  6

  7

 40
1.0
 41
0.18
 42
0.0625
 43
0.38
 44
0.18
 45
0.0
 46
0.0
 47
0.0
 48
0.0
140
0.18
141
0.09
142
0.0
143
25.399999999999999
144
1.0
145
0.0
146
1.0
147
0.09
 71
     0
 72
     0
 73
     1
 74
     1
 75
     0
 76
     0
 77
     0
 78
     0
170
     0
171
     2
172
     0
173
     0
174
     0
175
     0
176
     0
177
     0
178
     0
  0
ENDTAB
  0
ENDSEC
  0
SECTION
  2
BLOCKS
  0
BLOCK
  8
0
  2
$MODEL_SPACE
 70
     0
 10
0.0
 20
0.0
 30
0.0
  3
$MODEL_SPACE
  1

  0
ENDBLK
  5
9
  8
0
  0
BLOCK
 67
     1
  8
0
  2
$PAPER_SPACE
 70
     0
 10
0.0
 20
0.0
 30
0.0
  3
$PAPER_SPACE
  1

  0
ENDBLK
  5
E
 67
     1
  8
0
  0
ENDSEC
  0
SECTION
  2
ENTITIES
  0
LINE
  5
29
  8
0
 62
     8
 10
-47.499418258666992
 20
-0.6757974624633789
 30
0.0
 11
-46.149611473083489
 21
0.674128532409668
 31
0.0
  0
LINE
  5
2A
  8
0
 62
     8
 10
-46.036124229431152
 20
-0.6757974624633789
 30
0.0
 11
-44.686198234558098
 21
0.674128532409668
 31
0.0
  0
LINE
  5
2B
  8
0
 62
     8
 10
-44.572591781616211
 20
-0.6757974624633789
 30
0.0
 11
-43.222784996032708
 21
0.674128532409668
 31
0.0
  0
LINE
  5
2C
  8
0
 62
     8
 10
-43.109297752380371
 20
-0.6757974624633789
 30
0.0
 11
-41.759371757507317
 21
0.674128532409668
 31
0.0
  0
LINE
  5
2D
  8
0
 62
     8
 10
-41.645765304565423
 20
-0.6757974624633789
 30
0.0
 11
-40.295839309692383
 21
0.674128532409668
 31
0.0
  0
LINE
  5
2E
  8
0
 62
     8
 10
-40.182232856750481
 20
-0.6757974624633789
 30
0.0
 11
-38.832426071166992
 21
0.674128532409668
 31
0.0
  0
LINE
  5
2F
  8
0
 62
     8
 10
-38.719058036804199
 20
-0.6757974624633789
 30
0.0
 11
-37.369012832641602
 21
0.674128532409668
 31
0.0
  0
LINE
  5
30
  8
0
 62
     8
 10
-37.255525588989258
 20
-0.6757974624633789
 30
0.0
 11
-35.905599594116211
 21
0.674128532409668
 31
0.0
  0
LINE
  5
31
  8
0
 62
     8
 10
-35.791993141174324
 20
-0.6757974624633789
 30
0.0
 11
-34.44218635559082
 21
0.674128532409668
 31
0.0
  0
LINE
  5
32
  8
0
 62
     8
 10
-34.328699111938477
 20
-0.6757974624633789
 30
0.0
 11
-32.978653907775879
 21
0.674128532409668
 31
0.0
  0
LINE
  5
33
  8
0
 62
     8
 10
-32.865285873413093
 20
-0.6757974624633789
 30
0.0
 11
-31.515359878540039
 21
0.674128532409668
 31
0.0
  0
LINE
  5
34
  8
0
 62
     8
 10
-31.401872634887692
 20
-0.6757974624633789
 30
0.0
 11
-30.051946640014648
 21
0.674128532409668
 31
0.0
  0
LINE
  5
35
  8
0
 62
     8
 10
-29.93834018707275
 20
-0.6757974624633789
 30
0.0
 11
-28.588414192199711
 21
0.674128532409668
 31
0.0
  0
LINE
  5
36
  8
0
 62
     8
 10
-28.47492694854736
 20
-0.6757974624633789
 30
0.0
 11
-27.12500095367432
 21
0.674128532409668
 31
0.0
  0
LINE
  5
37
  8
0
 62
     8
 10
-27.01163291931152
 20
-0.6757974624633789
 30
0.0
 11
-25.66170692443848
 21
0.674128532409668
 31
0.0
  0
LINE
  5
38
  8
0
 62
     8
 10
-25.548100471496578
 20
-0.6757974624633789
 30
0.0
 11
-24.198174476623532
 21
0.674128532409668
 31
0.0
  0
LINE
  5
39
  8
0
 62
     8
 10
-24.084568023681641
 20
-0.6757974624633789
 30
0.0
 11
-22.734761238098141
 21
0.674128532409668
 31
0.0
  0
LINE
  5
3A
  8
0
 62
     8
 10
-22.621273994445801
 20
-0.6757974624633789
 30
0.0
 11
-21.27134799957275
 21
0.674128532409668
 31
0.0
  0
LINE
  5
3B
  8
0
 62
     8
 10
-21.157741546630859
 20
-0.6757974624633789
 30
0.0
 11
-19.80793476104736
 21
0.674128532409668
 31
0.0
  0
LINE
  5
3C
  8
0
 62
     8
 10
-19.69444751739502
 20
-0.6757974624633789
 30
0.0
 11
-18.344521522521969
 21
0.674128532409668
 31
0.0
  0
LINE
  5
3D
  8
0
 62
     8
 10
-18.230915069580071
 20
-0.6757974624633789
 30
0.0
 11
-16.880989074707031
 21
0.674128532409668
 31
0.0
  0
LINE
  5
3E
  8
0
 62
     8
 10
16.50047302246093
 20
-0.6750822067260743
 30
0.0
 11
17.850399017333981
 21
0.6748437881469727
 31
0.0
  0
LINE
  5
3F
  8
0
 62
     8
 10
17.964005470275879
 20
-0.6750822067260743
 30
0.0
 11
19.313931465148919
 21
0.6748437881469727
 31
0.0
  0
LINE
  5
40
  8
0
 62
     8
 10
19.427299499511719
 20
-0.6750822067260743
 30
0.0
 11
20.77734470367432
 21
0.6748437881469727
 31
0.0
  0
LINE
  5
41
  8
0
 62
     8
 10
20.890712738037109
 20
-0.6750822067260743
 30
0.0
 11
22.24063873291016
 21
0.6748437881469727
 31
0.0
  0
LINE
  5
42
  8
0
 62
     8
 10
22.354245185852051
 20
-0.6750822067260743
 30
0.0
 11
23.704171180725101
 21
0.6748437881469727
 31
0.0
  0
LINE
  5
43
  8
0
 62
     8
 10
23.817658424377441
 20
-0.6750822067260743
 30
0.0
 11
25.167584419250488
 21
0.6748437881469727
 31
0.0
  0
LINE
  5
44
  8
0
 62
     8
 10
25.281071662902828
 20
-0.6750822067260743
 30
0.0
 11
26.63099765777589
 21
0.6748437881469727
 31
0.0
  0
LINE
  5
45
  8
0
 62
     8
 10
26.74448490142823
 20
-0.6750822067260743
 30
0.0
 11
28.09441089630128
 21
0.6748437881469727
 31
0.0
  0
LINE
  5
46
  8
0
 62
     8
 10
28.20789813995362
 20
-0.6750822067260743
 30
0.0
 11
29.557824134826671
 21
0.6748437881469727
 31
0.0
  0
LINE
  5
47
  8
0
 62
     8
 10
29.671430587768558
 20
-0.6750822067260743
 30
0.0
 11
31.021356582641609
 21
0.6748437881469727
 31
0.0
  0
LINE
  5
48
  8
0
 62
     8
 10
31.134724617004402
 20
-0.6750822067260743
 30
0.0
 11
32.484650611877449
 21
0.6748437881469727
 31
0.0
  0
LINE
  5
49
  8
0
 62
     8
 10
32.598257064819343
 20
-0.6750822067260743
 30
0.0
 11
33.948063850402839
 21
0.6748437881469727
 31
0.0
  0
LINE
  5
4A
  8
0
 62
     8
 10
34.061670303344727
 20
-0.6750822067260743
 30
0.0
 11
35.411596298217781
 21
0.6748437881469727
 31
0.0
  0
LINE
  5
4B
  8
0
 62
     8
 10
35.525083541870131
 20
-0.6750822067260743
 30
0.0
 11
36.875009536743171
 21
0.6748437881469727
 31
0.0
  0
LINE
  5
4C
  8
0
 62
     8
 10
36.988615989685073
 20
-0.6750822067260743
 30
0.0
 11
38.338422775268562
 21
0.6748437881469727
 31
0.0
  0
LINE
  5
4D
  8
0
 62
     8
 10
38.451910018920913
 20
-0.6750822067260743
 30
0.0
 11
39.801836013793952
 21
0.6748437881469727
 31
0.0
  0
LINE
  5
4E
  8
0
 62
     8
 10
39.915323257446303
 20
-0.6750822067260743
 30
0.0
 11
41.265249252319343
 21
0.6748437881469727
 31
0.0
  0
LINE
  5
4F
  8
0
 62
     8
 10
41.37885570526123
 20
-0.6750822067260743
 30
0.0
 11
42.728781700134277
 21
0.6748437881469727
 31
0.0
  0
LINE
  5
50
  8
0
 62
     8
 10
42.84214973449707
 20
-0.6750822067260743
 30
0.0
 11
44.192194938659668
 21
0.6748437881469727
 31
0.0
  0
LINE
  5
51
  8
0
 62
     8
 10
44.305562973022461
 20
-0.6750822067260743
 30
0.0
 11
45.655488967895508
 21
0.6748437881469727
 31
0.0
  0
LINE
  5
52
  8
0
 62
     8
 10
45.769095420837409
 20
-0.6750822067260743
 30
0.0
 11
47.119021415710449
 21
0.6748437881469727
 31
0.0
  0
LINE
  5
53
  8
0
 10
24.281740188598629
 20
-12.00032234191894
 30
0.0
 11
25.585651397705089
 21
-12.00032234191894
 31
0.0
  0
LINE
  5
54
  8
0
 10
24.281740188598629
 20
-12.00032234191894
 30
0.0
 11
26.121258735656749
 21
-0.6750822067260743
 31
0.0
  0
LINE
  5
55
  8
0
 10
22.44472503662109
 20
-0.6750822067260743
 30
0.0
 11
24.281740188598629
 21
-12.00032234191894
 31
0.0
  0
LINE
  5
56
  8
0
 10
25.585651397705089
 20
-12.00032234191894
 30
0.0
 11
27.425169944763191
 21
-0.6750822067260743
 31
0.0
  0
LINE
  5
57
  8
0
 10
-17.243385314941399
 20
-12.00032234191894
 30
0.0
 11
-16.893982887268059
 21
-12.00032234191894
 31
0.0
  0
LINE
  5
58
  8
0
 10
-17.243385314941399
 20
-12.00032234191894
 30
0.0
 11
-10.38599014282226
 21
-0.6748437881469727
 31
0.0
  0
LINE
  5
59
  8
0
 10
-24.099588394165039
 20
-0.6750822067260743
 30
0.0
 11
-17.243385314941399
 21
-12.00032234191894
 31
0.0
  0
LINE
  5
5A
  8
0
 10
-16.893982887268059
 20
-12.00032234191894
 30
0.0
 11
-10.03658771514892
 21
-0.6748437881469727
 31
0.0
  0
LINE
  5
5B
  8
0
 10
-42.479276657104492
 20
-12.00008392333984
 30
0.0
 11
-41.524648666381829
 21
-12.00008392333984
 31
0.0
  0
LINE
  5
5C
  8
0
 10
-41.524648666381829
 20
-12.00032234191894
 30
0.0
 11
-36.504626274108887
 21
-0.6748437881469727
 31
0.0
  0
LINE
  5
5D
  8
0
 10
-46.54502868652343
 20
-0.6750822067260743
 30
0.0
 11
-41.524648666381829
 21
-12.00008392333984
 31
0.0
  0
LINE
  5
5E
  8
0
 10
-47.498226165771477
 20
-0.6781816482543946
 30
0.0
 11
-42.479276657104492
 21
-12.00008392333984
 31
0.0
  0
LINE
  5
5F
  8
0
 10
16.699075698852539
 20
9.0497732162475586
 30
0.0
 11
15.39516448974609
 21
9.0497732162475586
 31
0.0
  0
LINE
  5
60
  8
0
 10
17.80450344085693
 20
0.6750822067260743
 30
0.0
 11
16.699075698852539
 21
9.0497732162475586
 31
0.0
  0
LINE
  5
61
  8
0
 10
16.500115394592282
 20
0.6787776947021486
 30
0.0
 11
15.39516448974609
 21
9.0497732162475586
 31
0.0
  0
LINE
  5
62
  8
0
 10
15.39516448974609
 20
9.0497732162475586
 30
0.0
 11
14.289975166320801
 21
0.6750822067260743
 31
0.0
  0
LINE
  5
63
  8
0
 10
4.4748783111572257
 20
9.0497732162475586
 30
0.0
 11
4.1254758834838858
 21
9.0497732162475586
 31
0.0
  0
LINE
  5
64
  8
0
 10
8.5998773574829102
 20
0.6750822067260743
 30
0.0
 11
4.4748783111572257
 21
9.0497732162475586
 31
0.0
  0
LINE
  5
65
  8
0
 10
8.2505941390991211
 20
0.6750822067260743
 30
0.0
 11
4.1254758834838858
 21
9.0497732162475586
 31
0.0
  0
LINE
  5
66
  8
0
 10
4.1254758834838858
 20
9.0497732162475586
 30
0.0
 11
0.0004768371582031
 21
0.6750822067260743
 31
0.0
  0
LINE
  5
67
  8
0
 10
-11.269211769104
 20
9.0497732162475586
 30
0.0
 11
-12.223720550537109
 21
9.0497732162475586
 31
0.0
  0
LINE
  5
68
  8
0
 10
-12.223720550537109
 20
9.0497732162475586
 30
0.0
 11
-15.2435302734375
 21
0.6750822067260743
 31
0.0
  0
LINE
  5
69
  8
0
 10
-8.2495212554931641
 20
0.6750822067260743
 30
0.0
 11
-11.269211769104
 21
9.0497732162475586
 31
0.0
  0
LINE
  5
6A
  8
0
 10
-11.269211769104
 20
9.0497732162475586
 30
0.0
 11
-14.28890228271484
 21
0.6750822067260743
 31
0.0
  0
LINE
  5
6B
  8
0
 10
37.993788719177253
 20
-12.00032234191894
 30
0.0
 11
39.2979383468628
 21
-12.00032234191894
 31
0.0
  0
LINE
  5
6C
  8
0
 10
36.156296730041511
 20
-0.6748437881469727
 30
0.0
 11
37.993788719177253
 21
-12.00032234191894
 31
0.0
  0
LINE
  5
6D
  8
0
 10
39.2979383468628
 20
-12.00032234191894
 30
0.0
 11
41.136741638183601
 21
-0.6750822067260743
 31
0.0
  0
LINE
  5
6E
  8
0
 10
37.460207939147963
 20
-0.6748437881469727
 30
0.0
 11
39.2979383468628
 21
-12.00032234191894
 31
0.0
  0
LINE
  5
6F
  8
0
 10
4.0634870529174796
 20
-12.00032234191894
 30
0.0
 11
5.017995834350585
 21
-12.00032234191894
 31
0.0
  0
LINE
  5
70
  8
0
 10
4.0634870529174796
 20
-12.00032234191894
 30
0.0
 11
8.5984468460083008
 21
-1.7694234848022461
 31
0.0
  0
LINE
  5
71
  8
0
 10
-0.471949577331543
 20
-1.763224601745605
 30
0.0
 11
4.0634870529174796
 21
-12.00032234191894
 31
0.0
  0
LINE
  5
72
  8
0
 10
5.017995834350585
 20
-12.00032234191894
 30
0.0
 11
8.9970827102661133
 21
-3.023505210876464
 31
0.0
  0
LINE
  5
73
  8
0
 10
-34.279227256774902
 20
-12.00032234191894
 30
0.0
 11
-33.929944038391113
 21
-12.00032234191894
 31
0.0
  0
LINE
  5
74
  8
0
 10
-33.929944038391113
 20
-12.00032234191894
 30
0.0
 11
-27.07219123840332
 21
-0.6748437881469727
 31
0.0
  0
LINE
  5
75
  8
0
 10
-38.315534591674798
 20
-4.7559738159179679
 30
0.0
 11
-33.929944038391113
 21
-12.00032234191894
 31
0.0
  0
LINE
  5
76
  8
0
 10
-38.463115692138672
 20
-5.0891637802124023
 30
0.0
 11
-34.279227256774902
 21
-12.00032234191894
 31
0.0
  0
LINE
  5
77
  8
0
 10
34.28077697753907
 20
12.00008392333984
 30
0.0
 11
33.93137454986573
 21
12.00008392333984
 31
0.0
  0
LINE
  5
78
  8
0
 10
38.316607475280769
 20
4.7568082809448242
 30
0.0
 11
33.93137454986573
 21
12.00008392333984
 31
0.0
  0
LINE
  5
79
  8
0
 10
33.93137454986573
 20
12.00008392333984
 30
0.0
 11
27.073860168457038
 21
0.6747245788574219
 31
0.0
  0
LINE
  5
7A
  8
0
 10
38.464307785034187
 20
5.089879035949707
 30
0.0
 11
34.28077697753907
 21
12.00008392333984
 31
0.0
  0
LINE
  5
7B
  8
0
 10
-4.0640830993652344
 20
12.00008392333984
 30
0.0
 11
-5.018591880798339
 21
12.00008392333984
 31
0.0
  0
LINE
  5
7C
  8
0
 10
0.4729032516479493
 20
1.7627477645874019
 30
0.0
 11
-4.0640830993652344
 21
12.00008392333984
 31
0.0
  0
LINE
  5
7D
  8
0
 10
-4.0640830993652344
 20
12.00008392333984
 30
0.0
 11
-8.5979700088500977
 21
1.7713308334350579
 31
0.0
  0
LINE
  5
7E
  8
0
 10
-5.018591880798339
 20
12.00008392333984
 30
0.0
 11
-8.9966058731079102
 21
3.0255317687988281
 31
0.0
  0
LINE
  5
7F
  8
0
 10
-37.994861602783203
 20
12.00008392333984
 30
0.0
 11
-39.29901123046875
 21
12.00008392333984
 31
0.0
  0
LINE
  5
80
  8
0
 10
-36.157488822937012
 20
0.6747245788574219
 30
0.0
 11
-37.994861602783203
 21
12.00008392333984
 31
0.0
  0
LINE
  5
81
  8
0
 10
-37.461519241333008
 20
0.6747245788574219
 30
0.0
 11
-39.29901123046875
 21
12.00008392333984
 31
0.0
  0
LINE
  5
82
  8
0
 10
-39.29901123046875
 20
12.00008392333984
 30
0.0
 11
-41.136145591735833
 21
0.6748437881469727
 31
0.0
  0
LINE
  5
83
  8
0
 10
11.27016544342041
 20
-9.0497732162475586
 30
0.0
 11
12.224793434143059
 21
-9.0497732162475586
 31
0.0
  0
LINE
  5
84
  8
0
 10
12.224793434143059
 20
-9.0497732162475586
 30
0.0
 11
15.24460315704345
 21
-0.6750822067260743
 31
0.0
  0
LINE
  5
85
  8
0
 10
11.27016544342041
 20
-9.0497732162475586
 30
0.0
 11
14.289975166320801
 21
-0.6750822067260743
 31
0.0
  0
LINE
  5
86
  8
0
 10
8.2505941390991211
 20
-0.6750822067260743
 30
0.0
 11
11.27016544342041
 21
-9.0497732162475586
 31
0.0
  0
LINE
  5
87
  8
0
 10
-4.4738054275512686
 20
-9.0497732162475586
 30
0.0
 11
-4.1244029998779288
 21
-9.0497732162475586
 31
0.0
  0
LINE
  5
88
  8
0
 10
-8.5988044738769531
 20
-0.6750822067260743
 30
0.0
 11
-4.4738054275512686
 21
-9.0497732162475586
 31
0.0
  0
LINE
  5
89
  8
0
 10
-4.1244029998779288
 20
-9.0497732162475586
 30
0.0
 11
0.0004768371582031
 21
-0.6750822067260743
 31
0.0
  0
LINE
  5
8A
  8
0
 10
-8.2494020462036133
 20
-0.6750822067260743
 30
0.0
 11
-4.1244029998779288
 21
-9.0497732162475586
 31
0.0
  0
LINE
  5
8B
  8
0
 10
-16.69824123382568
 20
-9.0497732162475586
 30
0.0
 11
-15.39421081542968
 21
-9.0497732162475586
 31
0.0
  0
LINE
  5
8C
  8
0
 10
-17.80354976654052
 20
-0.6750822067260743
 30
0.0
 11
-16.69824123382568
 21
-9.0497732162475586
 31
0.0
  0
LINE
  5
8D
  8
0
 10
-15.39421081542968
 20
-9.0497732162475586
 30
0.0
 11
-14.28890228271484
 21
-0.6750822067260743
 31
0.0
  0
LINE
  5
8E
  8
0
 10
-16.499161720275879
 20
-0.6783008575439454
 30
0.0
 11
-15.39421081542968
 21
-9.049534797668457
 31
0.0
  0
LINE
  5
8F
  8
0
 10
42.481780052185059
 20
12.00008392333984
 30
0.0
 11
41.527152061462409
 21
12.00008392333984
 31
0.0
  0
LINE
  5
90
  8
0
 10
46.546339988708503
 20
0.6748437881469727
 30
0.0
 11
41.527152061462409
 21
12.00008392333984
 31
0.0
  0
LINE
  5
91
  8
0
 10
41.527152061462409
 20
12.00008392333984
 30
0.0
 11
36.507248878479011
 21
0.6747245788574219
 31
0.0
  0
LINE
  5
92
  8
0
 10
47.499418258666999
 20
0.6783008575439454
 30
0.0
 11
42.481780052185059
 21
12.00008392333984
 31
0.0
  0
LINE
  5
93
  8
0
 10
17.243862152099609
 20
12.00008392333984
 30
0.0
 11
16.89445972442627
 21
12.00008392333984
 31
0.0
  0
LINE
  5
94
  8
0
 10
24.100184440612789
 20
0.6748437881469727
 30
0.0
 11
17.243862152099609
 21
12.00008392333984
 31
0.0
  0
LINE
  5
95
  8
0
 10
17.243862152099609
 20
12.00008392333984
 30
0.0
 11
10.38634777069092
 21
0.6747245788574219
 31
0.0
  0
LINE
  5
96
  8
0
 10
16.89445972442627
 20
12.00008392333984
 30
0.0
 11
10.03694534301758
 21
0.6747245788574219
 31
0.0
  0
LINE
  5
97
  8
0
 10
-24.28281307220459
 20
12.00008392333984
 30
0.0
 11
-25.586724281311032
 21
12.00008392333984
 31
0.0
  0
LINE
  5
98
  8
0
 10
-22.445797920227051
 20
0.6748437881469727
 30
0.0
 11
-24.28281307220459
 21
12.00008392333984
 31
0.0
  0
LINE
  5
99
  8
0
 10
-24.28281307220459
 20
12.00008392333984
 30
0.0
 11
-26.120305061340328
 21
0.6747245788574219
 31
0.0
  0
LINE
  5
9A
  8
0
 10
-25.586724281311032
 20
12.00008392333984
 30
0.0
 11
-27.424335479736332
 21
0.6747245788574219
 31
0.0
  0
LINE
  5
9B
  8
0
 10
47.500371932983398
 20
-0.6750822067260743
 30
0.0
 11
47.500371932983398
 21
0.6748437881469727
 31
0.0
  0
LINE
  5
9C
  8
0
 10
-47.49870300292968
 20
0.6748437881469727
 30
0.0
 11
-47.49870300292968
 21
-0.6750822067260743
 31
0.0
  0
LINE
  5
9D
  8
0
 10
16.50047302246093
 20
-0.6750822067260743
 30
0.0
 11
16.50047302246093
 21
0.6750822067260743
 31
0.0
  0
LINE
  5
9E
  8
0
 10
-16.49940013885498
 20
0.6750822067260743
 30
0.0
 11
-16.49940013885498
 21
-0.6750822067260743
 31
0.0
  0
LINE
  5
9F
  8
0
 10
47.499418258666999
 20
-0.6750822067260743
 30
0.0
 11
-47.49870300292968
 21
-0.6750822067260743
 31
0.0
  0
LINE
  5
A0
  8
0
 10
47.499418258666999
 20
0.6748437881469727
 30
0.0
 11
-47.49870300292968
 21
0.6748437881469727
 31
0.0
  0
ENDSEC
  0
EOF
