  0
SECTION
  2
HEADER
  9
$ACADVER
  1
AC1009
  9
$INSBASE
 10
0.0
 20
0.0
 30
0.0
  9
$EXTMIN
 10
-48.105798077172381
 20
-46.76106553118791
 30
0.0
  9
$EXTMAX
 10
47.178663897925269
 20
48.523158025330638
 30
0.0
  9
$LIMMIN
 10
0.0
 20
0.0
  9
$LIMMAX
 10
12.0
 20
9.0
  9
$ORTHOMODE
 70
     0
  9
$REGENMODE
 70
     1
  9
$FILLMODE
 70
     1
  9
$QTEXTMODE
 70
     0
  9
$MIRRTEXT
 70
     0
  9
$DRAGMODE
 70
     2
  9
$LTSCALE
 40
1.0
  9
$OSMODE
 70
    47
  9
$ATTMODE
 70
     1
  9
$TEXTSIZE
 40
3.5
  9
$TRACEWID
 40
0.05
  9
$TEXTSTYLE
  7
SST
  9
$CLAYER
  8
0
  9
$CELTYPE
  6
BYLAYER
  9
$CECOLOR
 62
   256
  9
$DIMSCALE
 40
1.0
  9
$DIMASZ
 40
0.18
  9
$DIMEXO
 40
0.0625
  9
$DIMDLI
 40
0.38
  9
$DIMRND
 40
0.0
  9
$DIMDLE
 40
0.0
  9
$DIMEXE
 40
0.18
  9
$DIMTP
 40
0.0
  9
$DIMTM
 40
0.0
  9
$DIMTXT
 40
0.18
  9
$DIMCEN
 40
0.09
  9
$DIMTSZ
 40
0.0
  9
$DIMTOL
 70
     0
  9
$DIMLIM
 70
     0
  9
$DIMTIH
 70
     1
  9
$DIMTOH
 70
     1
  9
$DIMSE1
 70
     0
  9
$DIMSE2
 70
     0
  9
$DIMTAD
 70
     0
  9
$DIMZIN
 70
     0
  9
$DIMBLK
  1

  9
$DIMASO
 70
     1
  9
$DIMSHO
 70
     1
  9
$DIMPOST
  1

  9
$DIMAPOST
  1

  9
$DIMALT
 70
     0
  9
$DIMALTD
 70
     2
  9
$DIMALTF
 40
25.399999999999999
  9
$DIMLFAC
 40
1.0
  9
$DIMTOFL
 70
     0
  9
$DIMTVP
 40
0.0
  9
$DIMTIX
 70
     0
  9
$DIMSOXD
 70
     0
  9
$DIMSAH
 70
     0
  9
$DIMBLK1
  1

  9
$DIMBLK2
  1

  9
$DIMSTYLE
  2
STANDARD
  9
$DIMCLRD
 70
     0
  9
$DIMCLRE
 70
     0
  9
$DIMCLRT
 70
     0
  9
$DIMTFAC
 40
1.0
  9
$DIMGAP
 40
0.09
  9
$LUNITS
 70
     2
  9
$LUPREC
 70
     0
  9
$SKETCHINC
 40
0.1
  9
$FILLETRAD
 40
0.0
  9
$AUNITS
 70
     0
  9
$AUPREC
 70
     0
  9
$MENU
  1
acad
  9
$ELEVATION
 40
0.0
  9
$PELEVATION
 40
0.0
  9
$THICKNESS
 40
0.0
  9
$LIMCHECK
 70
     0
  9
$BLIPMODE
 70
     0
  9
$CHAMFERA
 40
0.0
  9
$CHAMFERB
 40
0.0
  9
$SKPOLY
 70
     0
  9
$TDCREATE
 40
2449631.7321383101
  9
$TDUPDATE
 40
2453443.571537361
  9
$TDINDWG
 40
0.0034054745
  9
$TDUSRTIMER
 40
0.0034054745
  9
$USRTIMER
 70
     1
  9
$ANGBASE
 50
0.0
  9
$ANGDIR
 70
     0
  9
$PDMODE
 70
     0
  9
$PDSIZE
 40
0.0
  9
$PLINEWID
 40
0.0
  9
$COORDS
 70
     1
  9
$SPLFRAME
 70
     0
  9
$SPLINETYPE
 70
     6
  9
$SPLINESEGS
 70
     8
  9
$ATTDIA
 70
     0
  9
$ATTREQ
 70
     1
  9
$HANDLING
 70
     1
  9
$HANDSEED
  5
106
  9
$SURFTAB1
 70
     6
  9
$SURFTAB2
 70
     6
  9
$SURFTYPE
 70
     6
  9
$SURFU
 70
     6
  9
$SURFV
 70
     6
  9
$UCSNAME
  2

  9
$UCSORG
 10
0.0
 20
0.0
 30
0.0
  9
$UCSXDIR
 10
1.0
 20
0.0
 30
0.0
  9
$UCSYDIR
 10
0.0
 20
1.0
 30
0.0
  9
$PUCSNAME
  2

  9
$PUCSORG
 10
0.0
 20
0.0
 30
0.0
  9
$PUCSXDIR
 10
1.0
 20
0.0
 30
0.0
  9
$PUCSYDIR
 10
0.0
 20
1.0
 30
0.0
  9
$USERI1
 70
     0
  9
$USERI2
 70
     0
  9
$USERI3
 70
     0
  9
$USERI4
 70
     0
  9
$USERI5
 70
     0
  9
$USERR1
 40
0.0
  9
$USERR2
 40
0.0
  9
$USERR3
 40
0.0
  9
$USERR4
 40
0.0
  9
$USERR5
 40
0.0
  9
$WORLDVIEW
 70
     1
  9
$SHADEDGE
 70
     3
  9
$SHADEDIF
 70
    70
  9
$TILEMODE
 70
     1
  9
$MAXACTVP
 70
    16
  9
$PLIMCHECK
 70
     0
  9
$PEXTMIN
 10
1.0000000000000000E+020
 20
1.0000000000000000E+020
 30
1.0000000000000000E+020
  9
$PEXTMAX
 10
-1.0000000000000000E+020
 20
-1.0000000000000000E+020
 30
-1.0000000000000000E+020
  9
$PLIMMIN
 10
0.0
 20
0.0
  9
$PLIMMAX
 10
12.0
 20
9.0
  9
$UNITMODE
 70
     0
  9
$VISRETAIN
 70
     0
  9
$PLINEGEN
 70
     0
  9
$PSLTSCALE
 70
     1
  0
ENDSEC
  0
SECTION
  2
TABLES
  0
TABLE
  2
VPORT
 70
     2
  0
VPORT
  2
*ACTIVE
 70
     0
 10
0.0
 20
0.0
 11
1.0
 21
1.0
 12
128.66854867169729
 22
0.0754819657422559
 13
0.0
 23
0.0
 14
1.0
 24
1.0
 15
0.0
 25
0.0
 16
0.0
 26
0.0
 36
1.0
 17
0.0
 27
0.0
 37
0.0
 40
579.44794334517792
 41
1.4993646759847521
 42
50.0
 43
0.0
 44
0.0
 50
0.0
 51
0.0
 71
     0
 72
   100
 73
     1
 74
     1
 75
     0
 76
     0
 77
     0
 78
     0
  0
ENDTAB
  0
TABLE
  2
LTYPE
 70
     1
  0
LTYPE
  2
CONTINUOUS
 70
     0
  3
Solid line
 72
    65
 73
     0
 40
0.0
  0
ENDTAB
  0
TABLE
  2
LAYER
 70
     1
  0
LAYER
  2
0
 70
     0
 62
     7
  6
CONTINUOUS
  0
ENDTAB
  0
TABLE
  2
STYLE
 70
     2
  0
STYLE
  2
STANDARD
 70
     0
 40
0.0
 41
1.0
 50
0.0
 71
     0
 42
0.2
  3
txt
  4

  0
STYLE
  2
SST
 70
     0
 40
0.0
 41
1.0
 50
0.0
 71
     0
 42
3.5
  3
romans.shx
  4

  0
ENDTAB
  0
TABLE
  2
VIEW
 70
     0
  0
ENDTAB
  0
TABLE
  2
UCS
 70
     0
  0
ENDTAB
  0
TABLE
  2
APPID
 70
     1
  0
APPID
  2
ACAD
 70
     0
  0
ENDTAB
  0
TABLE
  2
DIMSTYLE
 70
     1
  0
DIMSTYLE
  2
STANDARD
 70
     0
  3

  4

  5

  6

  7

 40
1.0
 41
0.18
 42
0.0625
 43
0.38
 44
0.18
 45
0.0
 46
0.0
 47
0.0
 48
0.0
140
0.18
141
0.09
142
0.0
143
25.399999999999999
144
1.0
145
0.0
146
1.0
147
0.09
 71
     0
 72
     0
 73
     1
 74
     1
 75
     0
 76
     0
 77
     0
 78
     0
170
     0
171
     2
172
     0
173
     0
174
     0
175
     0
176
     0
177
     0
178
     0
  0
ENDTAB
  0
ENDSEC
  0
SECTION
  2
BLOCKS
  0
BLOCK
  8
0
  2
$MODEL_SPACE
 70
     0
 10
0.0
 20
0.0
 30
0.0
  3
$MODEL_SPACE
  1

  0
ENDBLK
  5
9
  8
0
  0
BLOCK
 67
     1
  8
0
  2
$PAPER_SPACE
 70
     0
 10
0.0
 20
0.0
 30
0.0
  3
$PAPER_SPACE
  1

  0
ENDBLK
  5
E
 67
     1
  8
0
  0
BLOCK
  8
0
  2
SIMPSON-STRONG-TIE
 70
     0
 10
0.0
 20
0.0
 30
0.0
  3
SIMPSON-STRONG-TIE
  1

  0
TEXT
  5
EF
  8
0
  6
CONTINUOUS
 10
-4.7318727780691416
 20
4.4215860385237811
 30
0.0
 40
2.0
  1
SIMPSON
 50
316.94148639091338
  7
SST
 72
     1
 11
0.0
 21
0.0
 31
0.0
  0
TEXT
  5
F0
  8
0
  6
CONTINUOUS
 10
-7.9648409725863862
 20
3.4769825481547749
 30
0.0
 40
2.0
  1
Strong-Tie
 50
316.94148639091338
  7
SST
 72
     1
 11
-2.0499999999999541
 21
-2.0499999999999541
 31
0.0
  0
ENDBLK
  5
F1
  8
0
  0
ENDSEC
  0
SECTION
  2
ENTITIES
  0
POINT
  5
29
  8
0
 10
-0.4635670896235596
 20
0.8811654563609216
 30
0.0
  0
LINE
  5
2A
  8
0
 10
11.26662700217331
 20
-20.473986673766031
 30
0.0
 11
10.748185801916961
 21
-21.371751833372961
 31
0.0
  0
LINE
  5
2B
  8
0
 10
10.748185801916961
 20
-21.371751833372961
 30
0.0
 11
10.748185801916961
 21
-22.408753443175211
 31
0.0
  0
LINE
  5
2C
  8
0
 10
10.748185801916961
 20
-22.408753443175211
 30
0.0
 11
11.26662700217331
 21
-23.30222706835832
 31
0.0
  0
LINE
  5
2D
  8
0
 10
11.26662700217331
 20
-23.30222706835832
 30
0.0
 11
12.16117351096238
 21
-23.821741152220621
 31
0.0
  0
LINE
  5
2E
  8
0
 10
14.61128203909958
 20
-22.406726885252851
 30
0.0
 11
14.09498660605515
 21
-23.30222706835832
 31
0.0
  0
LINE
  5
2F
  8
0
 10
14.61128203909958
 20
-21.37401680987443
 30
0.0
 11
14.61128203909958
 21
-22.406726885252851
 31
0.0
  0
LINE
  5
30
  8
0
 10
14.09498660605515
 20
-20.473986673766031
 30
0.0
 11
14.61128203909958
 21
-21.37401680987443
 31
0.0
  0
LINE
  5
31
  8
0
 10
13.19722144644822
 20
-19.957691240721591
 30
0.0
 11
14.09498660605515
 21
-20.473986673766031
 31
0.0
  0
LINE
  5
32
  8
0
 10
12.16117351096238
 20
-23.821741152220621
 30
0.0
 11
13.211168933325659
 21
-23.819356966429609
 31
0.0
  0
LINE
  5
33
  8
0
 10
13.19602935355271
 20
-23.82400612872209
 30
0.0
 11
14.112271953040009
 21
-23.301988649779211
 31
0.0
  0
LINE
  5
34
  8
0
 10
14.112271953040009
 20
-23.301988649779211
 30
0.0
 11
14.62737529318894
 21
-22.405177164488691
 31
0.0
  0
LINE
  5
35
  8
0
 10
14.62737529318894
 20
-22.405177164488691
 30
0.0
 11
14.625229525977019
 21
-21.37044053118791
 31
0.0
  0
LINE
  5
36
  8
0
 10
14.625229525977019
 20
-21.37044053118791
 30
0.0
 11
14.11000697653855
 21
-20.47374825518693
 31
0.0
  0
LINE
  5
37
  8
0
 10
14.11000697653855
 20
-20.47374825518693
 30
0.0
 11
13.21224181693162
 21
-19.955187845641031
 31
0.0
  0
LINE
  5
38
  8
0
 10
13.21224181693162
 20
-19.955187845641031
 30
0.0
 11
12.16236560385788
 21
-19.959837007933508
 31
0.0
  0
LINE
  5
39
  8
0
 10
12.175120997839819
 20
-19.955187845641031
 30
0.0
 11
11.26662700217331
 21
-20.473986673766031
 31
0.0
  0
LINE
  5
3A
  8
0
 10
11.28283946555222
 20
-20.47482113879289
 30
0.0
 11
10.763206172400359
 21
-21.369367647581949
 31
0.0
  0
LINE
  5
3B
  8
0
 10
10.763206172400359
 20
-21.369367647581949
 30
0.0
 11
10.762133288794409
 21
-22.405177164488691
 31
0.0
  0
LINE
  5
3C
  8
0
 10
10.762133288794409
 20
-22.405177164488691
 30
0.0
 11
11.28283946555222
 21
-23.303061533385169
 31
0.0
  0
LINE
  5
3D
  8
0
 10
11.28283946555222
 20
-23.303061533385169
 30
0.0
 11
12.178458857947239
 21
-23.819356966429609
 31
0.0
  0
LINE
  5
3E
  8
0
 10
-14.124236416405781
 20
21.71990294415389
 30
0.0
 11
-13.089380573815451
 21
21.722167920655359
 31
0.0
  0
LINE
  5
3F
  8
0
 10
-13.089380573815451
 20
21.722167920655359
 30
0.0
 11
-12.193761181420429
 21
22.236198377198331
 31
0.0
  0
LINE
  5
40
  8
0
 10
-12.193761181420429
 20
22.236198377198331
 30
0.0
 11
-11.67531998116408
 21
23.134082746094808
 31
0.0
  0
LINE
  5
41
  8
0
 10
-11.67531998116408
 20
23.134082746094808
 30
0.0
 11
-11.67531998116408
 21
24.171084355897062
 31
0.0
  0
LINE
  5
42
  8
0
 10
-11.67531998116408
 20
24.171084355897062
 30
0.0
 11
-12.193761181420429
 21
25.064438771790609
 31
0.0
  0
LINE
  5
43
  8
0
 10
-12.193761181420429
 20
25.064438771790609
 30
0.0
 11
-13.08830769020949
 21
25.584072064942472
 31
0.0
  0
LINE
  5
44
  8
0
 10
-13.08830769020949
 20
25.584072064942472
 30
0.0
 11
-14.12328274208938
 21
25.58633704144393
 31
0.0
  0
LINE
  5
45
  8
0
 10
-14.12328274208938
 20
25.58633704144393
 30
0.0
 11
-15.02200157601272
 21
25.064438771790609
 31
0.0
  0
LINE
  5
46
  8
0
 10
-15.02200157601272
 20
25.064438771790609
 30
0.0
 11
-15.538416218346701
 21
24.16881937939559
 31
0.0
  0
LINE
  5
47
  8
0
 10
-15.538416218346701
 20
24.16881937939559
 30
0.0
 11
-15.538416218346701
 21
23.13622851330673
 31
0.0
  0
LINE
  5
48
  8
0
 10
-15.538416218346701
 20
23.13622851330673
 30
0.0
 11
-15.02200157601272
 21
22.236198377198331
 31
0.0
  0
LINE
  5
49
  8
0
 10
-15.02200157601272
 20
22.236198377198331
 30
0.0
 11
-14.124236416405781
 21
21.71990294415389
 31
0.0
  0
LINE
  5
4A
  8
0
 10
-10.502777409142601
 20
38.342327069825281
 30
0.0
 11
-0.4635670896235596
 21
48.381537389344317
 31
0.0
  0
LINE
  5
4B
  8
0
 10
-10.694823574608909
 20
40.060490560120677
 30
0.0
 11
-10.503373455590349
 21
38.342923116273028
 31
0.0
  0
LINE
  5
4C
  8
0
 10
-6.4378598447505118
 20
44.317573499268633
 30
0.0
 11
-5.4832318540278564
 21
43.362945508545977
 31
0.0
  0
LINE
  5
4D
  8
0
 10
-10.694823574608909
 20
40.060490560120677
 30
0.0
 11
-2.231679272240747
 21
48.523158025330638
 31
0.0
  0
LINE
  5
4E
  8
0
 10
-0.4646399732295166
 20
48.381537389344317
 30
0.0
 11
-2.2323945279780508
 21
48.522800397461992
 31
0.0
  0
LINE
  5
4F
  8
0
 10
9.5818421129521241
 20
38.340658139771563
 30
0.0
 11
-0.455699276513208
 21
48.381537389344317
 31
0.0
  0
LINE
  5
50
  8
0
 10
9.774245906287085
 20
40.058821630066973
 30
0.0
 11
9.5823189501103272
 21
38.341254186219317
 31
0.0
  0
LINE
  5
51
  8
0
 10
9.774245906287085
 20
40.058821630066973
 30
0.0
 11
1.3124129061039791
 21
48.523038816041087
 31
0.0
  0
LINE
  5
52
  8
0
 10
-0.4545071836177002
 20
48.381537389344317
 30
0.0
 11
1.313247371130835
 21
48.522561978882891
 31
0.0
  0
LINE
  5
53
  8
0
 10
-27.88826019722854
 20
28.30395121533309
 30
0.0
 11
-24.213753056115259
 21
42.01766867596541
 31
0.0
  0
LINE
  5
54
  8
0
 10
-28.913817715233911
 20
29.695838880128019
 30
0.0
 11
-27.889094662255388
 21
28.304189633912198
 31
0.0
  0
LINE
  5
55
  8
0
 10
-27.355633091515649
 20
35.511106442994219
 30
0.0
 11
-26.05160267311965
 21
35.161704015320879
 31
0.0
  0
LINE
  5
56
  8
0
 10
-28.913817715233911
 20
29.695838880128019
 30
0.0
 11
-25.815925907677759
 21
41.256398152894121
 31
0.0
  0
LINE
  5
57
  8
0
 10
-24.214706730431661
 20
42.017072629517649
 30
0.0
 11
-25.816283535546411
 21
41.255682897156817
 31
0.0
  0
LINE
  5
58
  8
0
 10
-10.49383671242629
 20
38.344711255616289
 30
0.0
 11
-24.206958126610861
 21
42.021602582520579
 31
0.0
  0
LINE
  5
59
  8
0
 10
-11.18620426613723
 20
39.928883504456621
 30
0.0
 11
-10.493598293847191
 21
38.345545720643152
 31
0.0
  0
LINE
  5
5A
  8
0
 10
-11.18620426613723
 20
39.928883504456621
 30
0.0
 11
-22.746405911034689
 21
43.028325032776927
 31
0.0
  0
LINE
  5
5B
  8
0
 10
-24.206004452294462
 20
42.02219862896834
 30
0.0
 11
-22.74557144600783
 21
43.028325032776927
 31
0.0
  0
LINE
  5
5C
  8
0
 10
-37.92544395882522
 20
10.917514752930749
 30
0.0
 11
-41.600070309228038
 21
24.631351422852621
 31
0.0
  0
LINE
  5
5D
  8
0
 10
-39.509496998376001
 20
11.610239934510339
 30
0.0
 11
-37.926278423852082
 21
10.9173955436412
 31
0.0
  0
LINE
  5
5E
  8
0
 10
-41.067681622094263
 20
17.42550749737655
 30
0.0
 11
-39.763770412987817
 21
17.77490992504989
 31
0.0
  0
LINE
  5
5F
  8
0
 10
-39.509496998376001
 20
11.610239934510339
 30
0.0
 11
-42.607031178063487
 21
23.170918416566
 31
0.0
  0
LINE
  5
60
  8
0
 10
-41.600666355675799
 20
24.630397748536222
 30
0.0
 11
-42.607031178063487
 21
23.170203160828699
 31
0.0
  0
LINE
  5
61
  8
0
 10
-27.881822895592801
 20
28.31050772625839
 30
0.0
 11
-41.596136402672869
 21
24.63826556164657
 31
0.0
  0
LINE
  5
62
  8
0
 10
-29.273472141808622
 20
29.336184453553312
 30
0.0
 11
-27.882061314171899
 21
28.311222981995691
 31
0.0
  0
LINE
  5
63
  8
0
 10
-29.273472141808622
 20
29.336184453553312
 30
0.0
 11
-40.834627461022478
 21
26.240199994629972
 31
0.0
  0
LINE
  5
64
  8
0
 10
-41.595659565514673
 20
24.639100026673429
 30
0.0
 11
-40.833912205285174
 21
26.240676831788171
 31
0.0
  0
LINE
  5
65
  8
0
 10
-37.924847912377473
 20
-9.1580448631581213
 30
0.0
 11
-47.964058231896502
 21
0.8811654563609216
 31
0.0
  0
LINE
  5
66
  8
0
 10
-39.643011402672883
 20
-9.3500910286244299
 30
0.0
 11
-37.925324749535669
 21
-9.1585217003163244
 31
0.0
  0
LINE
  5
67
  8
0
 10
-43.899975132531267
 20
-5.0931272987660314
 30
0.0
 11
-42.945466351098162
 21
-4.1384993080433752
 31
0.0
  0
LINE
  5
68
  8
0
 10
-39.643011402672883
 20
-9.3500910286244299
 30
0.0
 11
-48.105798077172381
 21
-0.8869467262562658
 31
0.0
  0
LINE
  5
69
  8
0
 10
-47.964058231896502
 20
0.8800925727549646
 30
0.0
 11
-48.105321240014177
 21
-0.8877811912831212
 31
0.0
  0
LINE
  5
6A
  8
0
 10
-37.923178982323762
 20
10.926574658936611
 30
0.0
 11
-47.964058231896502
 21
0.889152478760824
 31
0.0
  0
LINE
  5
6B
  8
0
 10
-39.641223263329621
 20
11.11897845227157
 30
0.0
 11
-37.923775028771509
 21
10.92705149609481
 31
0.0
  0
LINE
  5
6C
  8
0
 10
-39.641223263329621
 20
11.11897845227157
 30
0.0
 11
-48.105440449303728
 21
2.6571454520884599
 31
0.0
  0
LINE
  5
6D
  8
0
 10
-47.964058231896502
 20
0.8901061530772302
 30
0.0
 11
-48.105082821435083
 21
2.657860707825765
 31
0.0
  0
LINE
  5
6E
  8
0
 10
-27.886352848595731
 20
-26.54364686053361
 30
0.0
 11
-41.600189518517602
 21
-22.869020510130781
 31
0.0
  0
LINE
  5
6F
  8
0
 10
-29.2783597226802
 20
-27.56908516924943
 30
0.0
 11
-27.886591267174829
 21
-26.544362116270911
 31
0.0
  0
LINE
  5
70
  8
0
 10
-35.093508076256853
 20
-26.010900545531172
 30
0.0
 11
-34.744105648583513
 21
-24.706870127135169
 31
0.0
  0
LINE
  5
71
  8
0
 10
-29.2783597226802
 20
-27.56908516924943
 30
0.0
 11
-40.838918995446313
 21
-24.471193361693281
 31
0.0
  0
LINE
  5
72
  8
0
 10
-41.599593472069841
 20
-22.86997418444718
 30
0.0
 11
-40.838203739709002
 21
-24.471670198851481
 31
0.0
  0
LINE
  5
73
  8
0
 10
-37.927232098168481
 20
-9.1491041664418127
 30
0.0
 11
-41.604123425072771
 21
-22.862225580626379
 31
0.0
  0
LINE
  5
74
  8
0
 10
-39.511285137719263
 20
-9.8414717201527502
 30
0.0
 11
-37.927947353905793
 21
-9.1488657478627111
 31
0.0
  0
LINE
  5
75
  8
0
 10
-39.511285137719263
 20
-9.8414717201527502
 30
0.0
 11
-42.610607456750017
 21
-21.401673365050211
 31
0.0
  0
LINE
  5
76
  8
0
 10
-41.604600262230967
 20
-22.86127190630998
 30
0.0
 11
-42.610726666039568
 21
-21.40095810931291
 31
0.0
  0
LINE
  5
77
  8
0
 10
-10.500035595482929
 20
-36.580830622130293
 30
0.0
 11
-24.21387226540481
 21
-40.255337763243567
 31
0.0
  0
LINE
  5
78
  8
0
 10
-11.192760777062521
 20
-38.164764452391523
 30
0.0
 11
-10.499797176903829
 21
-36.581545877867597
 31
0.0
  0
LINE
  5
79
  8
0
 10
-17.007909130639181
 20
-39.723068285399343
 30
0.0
 11
-17.357311558312521
 21
-38.41903786700334
 31
0.0
  0
LINE
  5
7A
  8
0
 10
-11.192760777062521
 20
-38.164764452391523
 30
0.0
 11
-22.753439259118188
 21
-41.262298632079023
 31
0.0
  0
LINE
  5
7B
  8
0
 10
-24.212799381798849
 20
-40.255933809691328
 30
0.0
 11
-22.752604794091329
 21
-41.262298632079023
 31
0.0
  0
LINE
  5
7C
  8
0
 10
-27.89290935952102
 20
-26.53709034960832
 30
0.0
 11
-24.220667194909201
 21
-40.251403856688398
 31
0.0
  0
LINE
  5
7D
  8
0
 10
-28.91870529610549
 20
-27.928858805113691
 30
0.0
 11
-27.893743824547869
 21
-26.537328768187422
 31
0.0
  0
LINE
  5
7E
  8
0
 10
-28.91870529610549
 20
-27.928858805113691
 30
0.0
 11
-25.82272083718215
 21
-39.489894915038008
 31
0.0
  0
LINE
  5
7F
  8
0
 10
-24.22162086922561
 20
-40.250927019530202
 30
0.0
 11
-25.823078465050799
 21
-39.489298868590247
 31
0.0
  0
LINE
  5
80
  8
0
 10
9.5756432298954834
 20
-36.580115366392988
 30
0.0
 11
-0.4635670896235596
 21
-46.61920647662248
 31
0.0
  0
LINE
  5
81
  8
0
 10
9.767689395361792
 20
-38.298278856688398
 30
0.0
 11
9.5761200670536866
 21
-36.580592203551191
 31
0.0
  0
LINE
  5
82
  8
0
 10
5.5106064562138419
 20
-42.555242586546797
 30
0.0
 11
4.5559784654911857
 21
-41.600733805113691
 31
0.0
  0
LINE
  5
83
  8
0
 10
9.767689395361792
 20
-38.298278856688398
 30
0.0
 11
1.3045450929936271
 21
-46.76106553118791
 31
0.0
  0
LINE
  5
84
  8
0
 10
-0.4624942060176025
 20
-46.61920647662248
 30
0.0
 11
1.305260348730932
 21
-46.760707903319258
 31
0.0
  0
LINE
  5
85
  8
0
 10
-10.50897629219924
 20
-36.578446436339277
 30
0.0
 11
-0.4715541120234619
 21
-46.61920647662248
 31
0.0
  0
LINE
  5
86
  8
0
 10
-10.701380085534201
 20
-38.296490717345137
 30
0.0
 11
-10.50957233864699
 21
-36.57892327349748
 31
0.0
  0
LINE
  5
87
  8
0
 10
-10.701380085534201
 20
-38.296490717345137
 30
0.0
 11
-2.2396662946406489
 21
-46.760827112608808
 31
0.0
  0
LINE
  5
88
  8
0
 10
-0.4725077863398682
 20
-46.61920647662248
 30
0.0
 11
-2.2403815503779541
 21
-46.760469484740163
 31
0.0
  0
LINE
  5
89
  8
0
 10
26.961245227270979
 20
-26.541739511900801
 30
0.0
 11
23.28661887686814
 21
-40.255337763243567
 31
0.0
  0
LINE
  5
8A
  8
0
 10
27.986564326697248
 20
-27.933507967406172
 30
0.0
 11
26.961960483008291
 21
-26.541858721190351
 31
0.0
  0
LINE
  5
8B
  8
0
 10
26.428498912268541
 20
-33.748775530272383
 30
0.0
 11
25.124468493872541
 21
-33.399373102599043
 31
0.0
  0
LINE
  5
8C
  8
0
 10
27.986564326697248
 20
-27.933507967406172
 30
0.0
 11
24.888672519141089
 21
-39.494186449461843
 31
0.0
  0
LINE
  5
8D
  8
0
 10
23.287572551184549
 20
-40.254860926085371
 30
0.0
 11
24.889149356299288
 21
-39.493471193724531
 31
0.0
  0
LINE
  5
8E
  8
0
 10
9.5665833238896241
 20
-36.582499552183997
 30
0.0
 11
23.279704738074201
 21
-40.259390879088301
 31
0.0
  0
LINE
  5
8F
  8
0
 10
10.25895087760056
 20
-38.166671801024343
 30
0.0
 11
9.5663449053105225
 21
-36.583214807921308
 31
0.0
  0
LINE
  5
90
  8
0
 10
10.25895087760056
 20
-38.166671801024343
 30
0.0
 11
21.81927173178757
 21
-41.265994120055097
 31
0.0
  0
LINE
  5
91
  8
0
 10
23.278870273047339
 20
-40.259986925536047
 30
0.0
 11
21.818437266760721
 21
-41.265994120055097
 31
0.0
  0
LINE
  5
92
  8
0
 10
36.998428988867659
 20
-9.1553030494984533
 30
0.0
 11
40.673055339270491
 21
-22.869020510130781
 31
0.0
  0
LINE
  5
93
  8
0
 10
38.58248202841844
 20
-9.8480282310780431
 30
0.0
 11
36.99914424460497
 21
-9.1551838402089025
 31
0.0
  0
LINE
  5
94
  8
0
 10
40.140547442847151
 20
-15.663295793944251
 30
0.0
 11
38.836636233740712
 21
-16.01269822161759
 31
0.0
  0
LINE
  5
95
  8
0
 10
38.58248202841844
 20
-9.8480282310780431
 30
0.0
 11
41.679777789526838
 21
-21.408825922423262
 31
0.0
  0
LINE
  5
96
  8
0
 10
40.673532176428687
 20
-22.868186045103919
 30
0.0
 11
41.679777789526838
 21
-21.407872248106852
 31
0.0
  0
LINE
  5
97
  8
0
 10
26.954688716345689
 20
-26.548176813536539
 30
0.0
 11
40.669002223425757
 21
-22.875934648924719
 31
0.0
  0
LINE
  5
98
  8
0
 10
28.34633796256151
 20
-27.573853540831461
 30
0.0
 11
26.95480792563524
 21
-26.549011278563391
 31
0.0
  0
LINE
  5
99
  8
0
 10
28.34633796256151
 20
-27.573853540831461
 30
0.0
 11
39.90749328177538
 21
-24.477988291197669
 31
0.0
  0
LINE
  5
9A
  8
0
 10
40.66840617697801
 20
-22.876888323241129
 30
0.0
 11
39.906778026038069
 21
-24.478345919066321
 31
0.0
  0
LINE
  5
9B
  8
0
 10
36.997713733130361
 20
10.920256566590419
 30
0.0
 11
47.036804843359839
 21
0.8811654563609216
 31
0.0
  0
LINE
  5
9C
  8
0
 10
38.71575801413622
 20
11.11242194134627
 30
0.0
 11
36.998190570288557
 21
10.92085261303817
 31
0.0
  0
LINE
  5
9D
  8
0
 10
42.972840953284162
 20
6.8553390021983267
 30
0.0
 11
42.018332171851057
 21
5.9008302207652177
 31
0.0
  0
LINE
  5
9E
  8
0
 10
38.71575801413622
 20
11.11242194134627
 30
0.0
 11
47.178663897925269
 21
2.6492776389781092
 31
0.0
  0
LINE
  5
9F
  8
0
 10
47.036804843359839
 20
0.8822383399668787
 30
0.0
 11
47.178187060767073
 21
2.649992894715413
 31
0.0
  0
LINE
  5
A0
  8
0
 10
36.99604480307665
 20
-9.1642437462147601
 30
0.0
 11
47.036804843359839
 21
0.8731784339610194
 31
0.0
  0
LINE
  5
A1
  8
0
 10
38.713969874792951
 20
-9.3566475395497228
 30
0.0
 11
36.996521640234853
 21
-9.1648397926625158
 31
0.0
  0
LINE
  5
A2
  8
0
 10
38.713969874792951
 20
-9.3566475395497228
 30
0.0
 11
47.178306270056623
 21
-0.8949337486561682
 31
0.0
  0
LINE
  5
A3
  8
0
 10
47.036804843359839
 20
0.8721055503550623
 30
0.0
 11
47.177948642187971
 21
-0.8956490043934728
 31
0.0
  0
LINE
  5
A4
  8
0
 10
26.959218669348619
 20
28.30597777325546
 30
0.0
 11
40.673055339270491
 21
24.631351422852621
 31
0.0
  0
LINE
  5
A5
  8
0
 10
28.351106334143541
 20
29.33129687268173
 30
0.0
 11
26.959457087927721
 21
28.30657381970321
 31
0.0
  0
LINE
  5
A6
  8
0
 10
34.166373897009748
 20
27.773231458253019
 30
0.0
 11
33.816971469336409
 21
26.469201039857019
 31
0.0
  0
LINE
  5
A7
  8
0
 10
28.351106334143541
 20
29.33129687268173
 30
0.0
 11
39.911784816199201
 21
26.233524274415121
 31
0.0
  0
LINE
  5
A8
  8
0
 10
40.672459292822737
 20
24.63218588787948
 30
0.0
 11
39.911069560461897
 21
26.23388190228378
 31
0.0
  0
LINE
  5
A9
  8
0
 10
37.000097918921369
 20
10.911315869874111
 30
0.0
 11
40.676870036536108
 21
24.624437284058679
 31
0.0
  0
LINE
  5
AA
  8
0
 10
38.584150958472151
 20
11.603802632874601
 30
0.0
 11
37.000813174658681
 21
10.91119666058456
 31
0.0
  0
LINE
  5
AB
  8
0
 10
38.584150958472151
 20
11.603802632874601
 30
0.0
 11
41.683592486792463
 21
23.164004277772062
 31
0.0
  0
LINE
  5
AC
  8
0
 10
40.677466082983869
 20
24.623483609742269
 30
0.0
 11
41.683592486792463
 21
23.163169812745199
 31
0.0
  0
LINE
  5
AD
  8
0
 10
9.5729014162358155
 20
38.343161534852129
 30
0.0
 11
23.28661887686814
 21
42.01766867596541
 31
0.0
  0
LINE
  5
AE
  8
0
 10
10.2656265978154
 20
39.92709536511336
 30
0.0
 11
9.5726629976567121
 21
38.34375758129989
 31
0.0
  0
LINE
  5
AF
  8
0
 10
16.080774951392058
 20
41.485279988831621
 30
0.0
 11
16.430177379065402
 21
40.181249570435618
 31
0.0
  0
LINE
  5
B0
  8
0
 10
10.2656265978154
 20
39.92709536511336
 30
0.0
 11
21.826305079871069
 21
43.024510335511309
 31
0.0
  0
LINE
  5
B1
  8
0
 10
23.28566520255173
 20
42.018264722413157
 30
0.0
 11
21.825470614844221
 21
43.02462954480086
 31
0.0
  0
LINE
  5
B2
  8
0
 10
26.965655970984361
 20
28.299302053040609
 30
0.0
 11
23.293413806372541
 21
42.013734769410227
 31
0.0
  0
LINE
  5
B3
  8
0
 10
27.99145190756883
 20
29.69107050854598
 30
0.0
 11
26.96649043601122
 21
28.299540471619711
 31
0.0
  0
LINE
  5
B4
  8
0
 10
27.99145190756883
 20
29.69107050854598
 30
0.0
 11
24.89546744864548
 21
41.252225827759837
 31
0.0
  0
LINE
  5
B5
  8
0
 10
23.294486689978491
 20
42.013138722962481
 30
0.0
 11
24.895825076514139
 21
41.251510572022539
 31
0.0
  0
LINE
  5
B6
  8
0
 10
-0.4618981595698486
 20
18.77948660809432
 30
0.0
 11
-9.4815114255610595
 21
16.363591146058191
 31
0.0
  0
LINE
  5
B7
  8
0
 10
-0.7704118009272705
 20
17.298549604004972
 30
0.0
 11
-0.4617789502802978
 21
18.778771352357019
 31
0.0
  0
LINE
  5
B8
  8
0
 10
-0.7704118009272705
 20
17.298549604004972
 30
0.0
 11
-8.4055283780757062
 21
15.25363345105087
 31
0.0
  0
LINE
  5
B9
  8
0
 10
-9.4805577512446533
 20
16.362995099610441
 30
0.0
 11
-8.4048131223384033
 21
15.253514241761311
 31
0.0
  0
LINE
  5
BA
  8
0
 10
-9.4112971540156494
 20
16.382426213807211
 30
0.0
 11
-16.014538120812521
 21
9.7803773399058471
 31
0.0
  0
LINE
  5
BB
  8
0
 10
-8.9381554837885986
 20
14.94559664685165
 30
0.0
 11
-9.4108203168574462
 21
16.38183016735946
 31
0.0
  0
LINE
  5
BC
  8
0
 10
-8.9381554837885986
 20
14.94559664685165
 30
0.0
 11
-14.527759861535181
 21
9.3570651527110211
 31
0.0
  0
LINE
  5
BD
  8
0
 10
-16.013465237206571
 20
9.7803773399058471
 30
0.0
 11
-14.527044605797871
 21
9.3574227805796752
 31
0.0
  0
LINE
  5
BE
  8
0
 10
-15.96327812630569
 20
9.8317565437022338
 30
0.0
 11
-18.380723309105981
 21
0.8126201148692224
 31
0.0
  0
LINE
  5
BF
  8
0
 10
-14.83496220070754
 20
8.8240804191294782
 30
0.0
 11
-15.962443661278829
 21
9.8315181251231323
 31
0.0
  0
LINE
  5
C0
  8
0
 10
-14.83496220070754
 20
8.8240804191294782
 30
0.0
 11
-16.881428074425799
 21
1.189321469849691
 31
0.0
  0
LINE
  5
C1
  8
0
 10
-18.379769634789572
 20
0.8132161613169763
 30
0.0
 11
-16.88107044655715
 21
1.190036725586995
 31
0.0
  0
LINE
  5
C2
  8
0
 10
-18.361888241356962
 20
0.8828343864146326
 30
0.0
 11
-15.94599277932082
 21
-8.1366596702870275
 31
0.0
  0
LINE
  5
C3
  8
0
 10
-16.88107044655715
 20
0.5743207450572108
 30
0.0
 11
-18.36117298561965
 21
0.8828343864146326
 31
0.0
  0
LINE
  5
C4
  8
0
 10
-16.88107044655715
 20
0.5743207450572108
 30
0.0
 11
-14.836035084313499
 21
-7.0609150413807766
 31
0.0
  0
LINE
  5
C5
  8
0
 10
-15.945396732873069
 20
-8.1358252052601721
 30
0.0
 11
-14.836035084313499
 21
-7.0600805763539221
 31
0.0
  0
LINE
  5
C6
  8
0
 10
-15.96482784706985
 20
-8.0666838173207172
 30
0.0
 11
-9.3628981824580322
 21
-14.66980557482804
 31
0.0
  0
LINE
  5
C7
  8
0
 10
-14.528117489403829
 20
-7.5933037285145657
 30
0.0
 11
-15.964231800622089
 21
-8.0662069801625158
 31
0.0
  0
LINE
  5
C8
  8
0
 10
-14.528117489403829
 20
-7.5933037285145657
 30
0.0
 11
-8.9394667859736572
 21
-13.18314652484025
 31
0.0
  0
LINE
  5
C9
  8
0
 10
-9.3628981824580322
 20
-14.668732691222081
 30
0.0
 11
-8.9398244138423095
 21
-13.182312059813389
 31
0.0
  0
LINE
  5
CA
  8
0
 10
-9.4141581769648681
 20
-14.6185455803212
 30
0.0
 11
-0.3951409574214111
 21
-17.036109972411051
 31
0.0
  0
LINE
  5
CB
  8
0
 10
-8.4066012616816632
 20
-13.490229654723059
 30
0.0
 11
-9.4139197583857666
 21
-14.617830324583901
 31
0.0
  0
LINE
  5
CC
  8
0
 10
-8.4066012616816632
 20
-13.490229654723059
 30
0.0
 11
-0.7717231031123291
 21
-15.536695528441321
 31
0.0
  0
LINE
  5
CD
  8
0
 10
-0.3956177945796142
 20
-17.035156298094641
 30
0.0
 11
-0.7725575681391846
 21
-15.53633790057267
 31
0.0
  0
LINE
  5
CE
  8
0
 10
-0.4651168103877197
 20
-17.01727490466202
 30
0.0
 11
8.5542580370243897
 21
-14.601379442625889
 31
0.0
  0
LINE
  5
CF
  8
0
 10
-0.1566031690302978
 20
-15.536218691283119
 30
0.0
 11
-0.4653552289668213
 21
-17.016440439635169
 31
0.0
  0
LINE
  5
D0
  8
0
 10
-0.1566031690302978
 20
-15.536218691283119
 30
0.0
 11
7.478394198828588
 21
-13.49130253832902
 31
0.0
  0
LINE
  5
D1
  8
0
 10
8.5534235719975342
 20
-14.600783396178141
 30
0.0
 11
7.4776789430912842
 21
-13.49130253832902
 31
0.0
  0
LINE
  5
D2
  8
0
 10
8.4842821840580811
 20
-14.62009530108536
 30
0.0
 11
15.0874039415654
 21
-8.0181656364735492
 31
0.0
  0
LINE
  5
D3
  8
0
 10
8.0109020952519288
 20
-13.18338494341935
 30
0.0
 11
8.4836861376103272
 21
-14.61949925463761
 31
0.0
  0
LINE
  5
D4
  8
0
 10
8.0109020952519288
 20
-13.18338494341935
 30
0.0
 11
13.60062568228806
 21
-7.5947342399891751
 31
0.0
  0
LINE
  5
D5
  8
0
 10
15.08633105795945
 20
-8.0181656364735492
 30
0.0
 11
13.59991042655076
 21
-7.5952110771473791
 31
0.0
  0
LINE
  5
D6
  8
0
 10
15.03602473776902
 20
-8.0694256309803851
 30
0.0
 11
17.453589129858859
 21
0.9497107978526209
 31
0.0
  0
LINE
  5
D7
  8
0
 10
13.90782802146042
 20
-7.0617495064076321
 30
0.0
 11
15.03530948203171
 21
-8.0691872124012853
 31
0.0
  0
LINE
  5
D8
  8
0
 10
13.90782802146042
 20
-7.0617495064076321
 30
0.0
 11
15.954413104468239
 21
0.5728902335826014
 31
0.0
  0
LINE
  5
D9
  8
0
 10
17.452635455542449
 20
0.949114751404867
 30
0.0
 11
15.953936267310031
 21
0.5722941871348475
 31
0.0
  0
LINE
  5
DA
  8
0
 10
17.434754062109839
 20
0.8794965263072107
 30
0.0
 11
15.01897780936326
 21
9.8989905830088745
 31
0.0
  0
LINE
  5
DB
  8
0
 10
15.953936267310031
 20
1.188010167664632
 30
0.0
 11
17.434158015662081
 21
0.8793773170176599
 31
0.0
  0
LINE
  5
DC
  8
0
 10
15.953936267310031
 20
1.188010167664632
 30
0.0
 11
13.90890090506638
 21
8.8232459541026245
 31
0.0
  0
LINE
  5
DD
  8
0
 10
15.01826255362595
 20
9.8981561179820172
 30
0.0
 11
13.90890090506638
 21
8.8224114890757672
 31
0.0
  0
LINE
  5
DE
  8
0
 10
15.03769366782273
 20
9.8288955207530151
 30
0.0
 11
8.4356447939213623
 21
16.43213648754989
 31
0.0
  0
LINE
  5
DF
  8
0
 10
13.60086410086716
 20
9.3556346412364135
 30
0.0
 11
15.037216830664519
 21
9.8284186835948102
 31
0.0
  0
LINE
  5
E0
  8
0
 10
13.60086410086716
 20
9.3556346412364135
 30
0.0
 11
8.0123326067265381
 21
14.945358228272539
 31
0.0
  0
LINE
  5
E1
  8
0
 10
8.4356447939213623
 20
16.430944394654379
 30
0.0
 11
8.0125710253056397
 21
14.94464297253524
 31
0.0
  0
LINE
  5
E2
  8
0
 10
8.4870239977177491
 20
16.3807572837535
 30
0.0
 11
-0.531993221825708
 21
18.798321675843351
 31
0.0
  0
LINE
  5
E3
  8
0
 10
7.4793478731449952
 20
15.252441358155361
 30
0.0
 11
8.4867855791386475
 21
16.380161237305749
 31
0.0
  0
LINE
  5
E4
  8
0
 10
7.4793478731449952
 20
15.252441358155361
 30
0.0
 11
-0.1552918668452392
 21
17.299026441163171
 31
0.0
  0
LINE
  5
E5
  8
0
 10
-0.5316355939570557
 20
18.79724879223739
 30
0.0
 11
-0.1546958203974853
 21
17.298668813294519
 31
0.0
  0
LINE
  5
E6
  8
0
 10
-4.9045899625483642
 20
-15.827327776366131
 30
0.0
 11
-4.589162182396997
 21
-14.513402986937409
 31
0.0
  0
LINE
  5
E7
  8
0
 10
11.785783458166961
 20
-11.31907086413468
 30
0.0
 11
10.805883098059541
 21
-10.38899998705949
 31
0.0
  0
LINE
  5
E8
  8
0
 10
16.226806331091769
 20
5.389422368592367
 30
0.0
 11
14.931358981543431
 21
5.0056876655284022
 31
0.0
  0
LINE
  5
E9
  8
0
 10
3.9773365740116939
 20
17.58977789837753
 30
0.0
 11
3.6619087938603272
 21
16.275853108948809
 31
0.0
  0
LINE
  5
EA
  8
0
 10
-12.713036846703639
 20
13.08152098614608
 30
0.0
 11
-11.73301727730666
 21
12.151450109070881
 31
0.0
  0
LINE
  5
EB
  8
0
 10
-17.154059719628439
 20
-3.6270914558705232
 30
0.0
 11
-15.858612370080101
 21
-3.2433567528065579
 31
0.0
  0
INSERT
  5
EC
  8
0
  2
SIMPSON-STRONG-TIE
 10
19.629866132672081
 20
18.49253464876119
 30
0.0
  0
ENDSEC
  0
EOF
