  0
SECTION
  2
HEADER
  9
$ACADVER
  1
AC1009
  9
$INSBASE
 10
0.0
 20
0.0
 30
0.0
  9
$EXTMIN
 10
-23.999929428100589
 20
-0.0000298023038852
 30
0.0
  9
$EXTMAX
 10
23.999899625778198
 20
6.6003799438661579
 30
0.6063158507458866
  9
$LIMMIN
 10
0.0
 20
0.0
  9
$LIMMAX
 10
12.0
 20
9.0
  9
$ORTHOMODE
 70
     0
  9
$REGENMODE
 70
     1
  9
$FILLMODE
 70
     1
  9
$QTEXTMODE
 70
     0
  9
$MIRRTEXT
 70
     0
  9
$DRAGMODE
 70
     2
  9
$LTSCALE
 40
0.8202099800109863
  9
$OSMODE
 70
    47
  9
$ATTMODE
 70
     1
  9
$TEXTSIZE
 40
0.2
  9
$TRACEWID
 40
0.05
  9
$TEXTSTYLE
  7
STANDARD
  9
$CLAYER
  8
0
  9
$CELTYPE
  6
BYLAYER
  9
$CECOLOR
 62
   256
  9
$DIMSCALE
 40
1.0
  9
$DIMASZ
 40
0.0003968749952037
  9
$DIMEXO
 40
0.1249999850988388
  9
$DIMDLI
 40
1.000000357627868
  9
$DIMRND
 40
0.0
  9
$DIMDLE
 40
0.0
  9
$DIMEXE
 40
0.18
  9
$DIMTP
 40
0.0
  9
$DIMTM
 40
0.0
  9
$DIMTXT
 40
0.18
  9
$DIMCEN
 40
0.09
  9
$DIMTSZ
 40
0.0
  9
$DIMTOL
 70
     0
  9
$DIMLIM
 70
     0
  9
$DIMTIH
 70
     0
  9
$DIMTOH
 70
     0
  9
$DIMSE1
 70
     0
  9
$DIMSE2
 70
     0
  9
$DIMTAD
 70
     0
  9
$DIMZIN
 70
     0
  9
$DIMBLK
  1

  9
$DIMASO
 70
     1
  9
$DIMSHO
 70
     1
  9
$DIMPOST
  1

  9
$DIMAPOST
  1

  9
$DIMALT
 70
     0
  9
$DIMALTD
 70
     2
  9
$DIMALTF
 40
25.399999999999999
  9
$DIMLFAC
 40
1.0
  9
$DIMTOFL
 70
     0
  9
$DIMTVP
 40
0.0
  9
$DIMTIX
 70
     0
  9
$DIMSOXD
 70
     0
  9
$DIMSAH
 70
     0
  9
$DIMBLK1
  1

  9
$DIMBLK2
  1

  9
$DIMSTYLE
  2
STANDARD
  9
$DIMCLRD
 70
     0
  9
$DIMCLRE
 70
     0
  9
$DIMCLRT
 70
     0
  9
$DIMTFAC
 40
1.0
  9
$DIMGAP
 40
0.09
  9
$LUNITS
 70
     2
  9
$LUPREC
 70
     0
  9
$SKETCHINC
 40
0.1
  9
$FILLETRAD
 40
0.0
  9
$AUNITS
 70
     0
  9
$AUPREC
 70
     0
  9
$MENU
  1
acad
  9
$ELEVATION
 40
0.0
  9
$PELEVATION
 40
0.0
  9
$THICKNESS
 40
0.0
  9
$LIMCHECK
 70
     0
  9
$BLIPMODE
 70
     0
  9
$CHAMFERA
 40
0.0
  9
$CHAMFERB
 40
0.0
  9
$SKPOLY
 70
     0
  9
$TDCREATE
 40
2449631.7321383101
  9
$TDUPDATE
 40
2453443.5714067831
  9
$TDINDWG
 40
0.0070886343
  9
$TDUSRTIMER
 40
0.0070886343
  9
$USRTIMER
 70
     1
  9
$ANGBASE
 50
0.0
  9
$ANGDIR
 70
     0
  9
$PDMODE
 70
     0
  9
$PDSIZE
 40
0.0
  9
$PLINEWID
 40
0.0
  9
$COORDS
 70
     1
  9
$SPLFRAME
 70
     0
  9
$SPLINETYPE
 70
     6
  9
$SPLINESEGS
 70
     8
  9
$ATTDIA
 70
     0
  9
$ATTREQ
 70
     1
  9
$HANDLING
 70
     1
  9
$HANDSEED
  5
A1
  9
$SURFTAB1
 70
     6
  9
$SURFTAB2
 70
     6
  9
$SURFTYPE
 70
     6
  9
$SURFU
 70
     6
  9
$SURFV
 70
     6
  9
$UCSNAME
  2

  9
$UCSORG
 10
0.0
 20
0.0
 30
0.0
  9
$UCSXDIR
 10
1.0
 20
0.0
 30
0.0
  9
$UCSYDIR
 10
0.0
 20
1.0
 30
0.0
  9
$PUCSNAME
  2

  9
$PUCSORG
 10
0.0
 20
0.0
 30
0.0
  9
$PUCSXDIR
 10
1.0
 20
0.0
 30
0.0
  9
$PUCSYDIR
 10
0.0
 20
1.0
 30
0.0
  9
$USERI1
 70
     0
  9
$USERI2
 70
     0
  9
$USERI3
 70
     0
  9
$USERI4
 70
     0
  9
$USERI5
 70
     0
  9
$USERR1
 40
0.0
  9
$USERR2
 40
0.0
  9
$USERR3
 40
0.0
  9
$USERR4
 40
0.0
  9
$USERR5
 40
0.0
  9
$WORLDVIEW
 70
     1
  9
$SHADEDGE
 70
     3
  9
$SHADEDIF
 70
    70
  9
$TILEMODE
 70
     1
  9
$MAXACTVP
 70
    16
  9
$PLIMCHECK
 70
     0
  9
$PEXTMIN
 10
1.0000000000000000E+020
 20
1.0000000000000000E+020
 30
1.0000000000000000E+020
  9
$PEXTMAX
 10
-1.0000000000000000E+020
 20
-1.0000000000000000E+020
 30
-1.0000000000000000E+020
  9
$PLIMMIN
 10
0.0
 20
0.0
  9
$PLIMMAX
 10
12.0
 20
9.0
  9
$UNITMODE
 70
     0
  9
$VISRETAIN
 70
     0
  9
$PLINEGEN
 70
     0
  9
$PSLTSCALE
 70
     1
  0
ENDSEC
  0
SECTION
  2
TABLES
  0
TABLE
  2
VPORT
 70
     2
  0
VPORT
  2
*ACTIVE
 70
     0
 10
0.0
 20
0.0
 11
1.0
 21
1.0
 12
40.644375834806048
 22
-13.278275784881201
 13
0.0
 23
0.0
 14
1.0
 24
1.0
 15
0.0
 25
0.0
 16
0.0
 26
0.0
 36
1.0
 17
0.0
 27
0.0
 37
0.0
 40
183.2146739054499
 41
1.4993646759847521
 42
50.0
 43
0.0
 44
0.0
 50
0.0
 51
0.0
 71
     0
 72
   100
 73
     1
 74
     1
 75
     0
 76
     0
 77
     0
 78
     0
  0
ENDTAB
  0
TABLE
  2
LTYPE
 70
     1
  0
LTYPE
  2
CONTINUOUS
 70
     0
  3
Solid line
 72
    65
 73
     0
 40
0.0
  0
ENDTAB
  0
TABLE
  2
LAYER
 70
     1
  0
LAYER
  2
0
 70
     0
 62
     7
  6
CONTINUOUS
  0
ENDTAB
  0
TABLE
  2
STYLE
 70
     1
  0
STYLE
  2
STANDARD
 70
     0
 40
0.0
 41
1.0
 50
0.0
 71
     0
 42
0.2
  3
txt
  4

  0
ENDTAB
  0
TABLE
  2
VIEW
 70
     0
  0
ENDTAB
  0
TABLE
  2
UCS
 70
     0
  0
ENDTAB
  0
TABLE
  2
APPID
 70
     1
  0
APPID
  2
ACAD
 70
     0
  0
ENDTAB
  0
TABLE
  2
DIMSTYLE
 70
     1
  0
DIMSTYLE
  2
STANDARD
 70
     0
  3

  4

  5

  6

  7

 40
1.0
 41
0.18
 42
0.0625
 43
0.38
 44
0.18
 45
0.0
 46
0.0
 47
0.0
 48
0.0
140
0.18
141
0.09
142
0.0
143
25.399999999999999
144
1.0
145
0.0
146
1.0
147
0.09
 71
     0
 72
     0
 73
     1
 74
     1
 75
     0
 76
     0
 77
     0
 78
     0
170
     0
171
     2
172
     0
173
     0
174
     0
175
     0
176
     0
177
     0
178
     0
  0
ENDTAB
  0
ENDSEC
  0
SECTION
  2
BLOCKS
  0
BLOCK
  8
0
  2
$MODEL_SPACE
 70
     0
 10
0.0
 20
0.0
 30
0.0
  3
$MODEL_SPACE
  1

  0
ENDBLK
  5
9
  8
0
  0
BLOCK
 67
     1
  8
0
  2
$PAPER_SPACE
 70
     0
 10
0.0
 20
0.0
 30
0.0
  3
$PAPER_SPACE
  1

  0
ENDBLK
  5
E
 67
     1
  8
0
  0
ENDSEC
  0
SECTION
  2
ENTITIES
  0
LINE
  5
28
  8
0
 62
     8
 10
12.268394231796259
 20
6.6003501415437711
 30
0.0
 11
12.927025556564329
 21
6.6003501415437711
 31
0.0
  0
LINE
  5
29
  8
0
 62
     8
 10
11.34032011032104
 20
1.000165939349557
 30
0.0
 11
12.268394231796259
 21
6.6003501415437711
 31
0.0
  0
LINE
  5
2A
  8
0
 62
     8
 10
12.268394231796259
 20
6.6003501415437711
 30
0.0
 11
13.19643855094909
 21
1.000165939349557
 31
0.0
  0
LINE
  5
2B
  8
0
 62
     8
 10
19.19680833816528
 20
6.6003501415437711
 30
0.0
 11
19.855886697769161
 21
6.6003501415437711
 31
0.0
  0
LINE
  5
2C
  8
0
 62
     8
 10
18.26852560043335
 20
1.000165939349557
 30
0.0
 11
19.19680833816528
 21
6.6003501415437711
 31
0.0
  0
LINE
  5
2D
  8
0
 62
     8
 10
18.927156925201409
 20
1.000165939349557
 30
0.0
 11
19.855886697769161
 21
6.6003501415437711
 31
0.0
  0
LINE
  5
2E
  8
0
 62
     8
 10
19.855231046676629
 20
6.6003501415437711
 30
0.0
 11
20.783960819244381
 21
1.000165939349557
 31
0.0
  0
LINE
  5
2F
  8
0
 62
     8
 10
12.92699575424194
 20
6.6003501415437711
 30
0.0
 11
13.85584473609924
 21
1.000165939349557
 31
0.0
  0
LINE
  5
30
  8
0
 62
     8
 10
2.0514726638793941
 20
6.6003501415437711
 30
0.0
 11
2.5334954261779781
 21
6.6003501415437711
 31
0.0
  0
LINE
  5
31
  8
0
 62
     8
 10
0.8487105369567871
 20
4.097729921359444
 30
0.0
 11
2.0514726638793941
 21
6.6003501415437711
 31
0.0
  0
LINE
  5
32
  8
0
 62
     8
 10
2.0514726638793941
 20
6.6003501415437711
 30
0.0
 11
3.5068690776824951
 21
4.097729921359444
 31
0.0
  0
LINE
  5
33
  8
0
 62
     8
 10
2.5334954261779781
 20
6.6003501415437711
 30
0.0
 11
3.988862037658691
 21
4.097729921359444
 31
0.0
  0
LINE
  5
34
  8
0
 62
     8
 10
-8.7158381938934344
 20
6.6003501415437711
 30
0.0
 11
-8.5392296314239502
 21
6.6003501415437711
 31
0.0
  0
LINE
  5
35
  8
0
 62
     8
 10
-12.179583311080931
 20
1.000165939349557
 30
0.0
 11
-8.7158381938934344
 21
6.6003501415437711
 31
0.0
  0
LINE
  5
36
  8
0
 62
     8
 10
-8.7158381938934344
 20
6.6003501415437711
 30
0.0
 11
-7.0999860763549822
 21
3.9620399475282682
 31
0.0
  0
LINE
  5
37
  8
0
 62
     8
 10
-19.360482692718509
 20
3.4191310405916222
 30
0.0
 11
-17.32441782951355
 21
6.6003501415437711
 31
0.0
  0
LINE
  5
38
  8
0
 62
     8
 10
-17.32441782951355
 20
6.6003501415437711
 30
0.0
 11
-17.14739203453064
 21
6.6003501415437711
 31
0.0
  0
LINE
  5
39
  8
0
 62
     8
 10
-19.291400909423832
 20
3.2356679439729699
 30
0.0
 11
-17.14739203453064
 21
6.6003501415437711
 31
0.0
  0
LINE
  5
3A
  8
0
 62
     8
 10
-17.14739203453064
 20
6.6003501415437711
 30
0.0
 11
-13.683348894119259
 21
1.000165939349557
 31
0.0
  0
LINE
  5
3B
  8
0
 62
     8
 10
-20.98548412322998
 20
6.6003799438661579
 30
0.0
 11
-18.449783325195309
 21
1.000165939349557
 31
0.0
  0
LINE
  5
3C
  8
0
 62
     8
 10
-23.999929428100589
 20
1.003593206424142
 30
0.0
 11
-21.465688943862919
 21
6.6003799438661579
 31
0.0
  0
LINE
  5
3D
  8
0
 62
     8
 10
-21.46853506565094
 20
6.6003799438661579
 30
0.0
 11
-20.98548412322998
 21
6.6003799438661579
 31
0.0
  0
LINE
  5
3E
  8
0
 62
     8
 10
-20.98548412322998
 20
6.6003799438661579
 30
0.0
 11
-23.52122962474823
 21
1.000165939349557
 31
0.0
  0
LINE
  5
3F
  8
0
 10
-23.999929428100589
 20
1.000165939349557
 30
0.0
 11
-23.999929428100589
 21
-0.0000298023038852
 31
0.0
  0
LINE
  5
40
  8
0
 10
23.999899625778198
 20
1.000165939349557
 30
0.0
 11
23.999899625778198
 21
-0.0000298023038852
 31
0.0
  0
LINE
  5
41
  8
0
 10
-7.0990324020385751
 20
4.097729921359444
 30
0.0
 11
7.1001052856445313
 21
4.097729921359444
 31
0.0
  0
LINE
  5
42
  8
0
 10
7.1001946926116943
 20
4.097729921359444
 30
0.0
 11
7.1001946926116943
 21
1.000165939349557
 31
0.0
  0
LINE
  5
43
  8
0
 10
6.1000287532806388
 20
4.097729921359444
 30
0.0
 11
6.1000287532806388
 21
0.0000596046632779
 31
0.0
  0
LINE
  5
44
  8
0
 10
-6.0999989509582528
 20
4.097729921359444
 30
0.0
 11
-6.0999989509582528
 21
0.0000596046632779
 31
0.0
  0
LINE
  5
45
  8
0
 10
-23.999929428100589
 20
1.000165939349557
 30
0.0
 11
-7.0999860763549822
 21
1.000165939349557
 31
0.0
  0
LINE
  5
46
  8
0
 10
-23.999929428100589
 20
0.0000298023408902
 30
0.0
 11
23.999899625778198
 21
-0.0000298023038852
 31
0.0
  0
LINE
  5
47
  8
0
 10
23.999899625778198
 20
1.000165939349557
 30
0.0
 11
7.1001946926116943
 21
1.000165939349557
 31
0.0
  0
LINE
  5
48
  8
0
 10
-7.0999860763549822
 20
4.097729921359444
 30
0.0
 11
-7.0999860763549822
 21
1.000165939349557
 31
0.0
  0
LINE
  5
49
  8
0
 62
     8
 39
0.6063158507458866
 10
23.999899625778198
 20
-0.0000298023038852
 30
0.0
 11
23.317813873291019
 21
1.000165939349557
 31
0.0
  0
LINE
  5
4A
  8
0
 62
     8
 39
0.6063158507458866
 10
23.420006036758419
 20
-0.0000298023038852
 30
0.0
 11
22.73792028427124
 21
1.000165939349557
 31
0.0
  0
LINE
  5
4B
  8
0
 62
     8
 39
0.6063158507458866
 10
22.84008264541626
 20
-0.0000298023038852
 30
0.0
 11
22.157996892929081
 21
1.000165939349557
 31
0.0
  0
LINE
  5
4C
  8
0
 62
     8
 39
0.6063158507458866
 10
22.260189056396481
 20
-0.0000298023038852
 30
0.0
 11
21.57804369926453
 21
1.000165939349557
 31
0.0
  0
LINE
  5
4D
  8
0
 62
     8
 39
0.6063158507458866
 10
21.680265665054321
 20
-0.0000298023038852
 30
0.0
 11
20.998150110244751
 21
1.000165939349557
 31
0.0
  0
LINE
  5
4E
  8
0
 62
     8
 39
0.6063158507458866
 10
21.100312471389771
 20
-0.0000298023038852
 30
0.0
 11
20.418256521224979
 21
1.000165939349557
 31
0.0
  0
LINE
  5
4F
  8
0
 62
     8
 39
0.6063158507458866
 10
20.520478487014771
 20
-0.0000298023038852
 30
0.0
 11
19.838333129882809
 21
1.000165939349557
 31
0.0
  0
LINE
  5
50
  8
0
 62
     8
 39
0.6063158507458866
 10
19.940495491027828
 20
-0.0000298023038852
 30
0.0
 11
19.25843954086303
 21
1.000165939349557
 31
0.0
  0
LINE
  5
51
  8
0
 62
     8
 39
0.6063158507458866
 10
19.36060190200805
 20
-0.0000298023038852
 30
0.0
 11
18.67851614952087
 21
1.000165939349557
 31
0.0
  0
LINE
  5
52
  8
0
 62
     8
 39
0.6063158507458866
 10
18.780708312988281
 20
-0.0000298023038852
 30
0.0
 11
18.098622560501099
 21
1.000165939349557
 31
0.0
  0
LINE
  5
53
  8
0
 62
     8
 39
0.6063158507458866
 10
18.200784921646111
 20
-0.0000298023038852
 30
0.0
 11
17.518669366836541
 21
1.000165939349557
 31
0.0
  0
LINE
  5
54
  8
0
 62
     8
 39
0.6063158507458866
 10
17.62083172798156
 20
-0.0000298023038852
 30
0.0
 11
16.938745975494381
 21
1.000165939349557
 31
0.0
  0
LINE
  5
55
  8
0
 62
     8
 39
0.6063158507458866
 10
17.040938138961788
 20
-0.0000298023038852
 30
0.0
 11
16.358852386474609
 21
1.000165939349557
 31
0.0
  0
LINE
  5
56
  8
0
 62
     8
 39
0.6063158507458866
 10
16.461014747619629
 20
-0.0000298023038852
 30
0.0
 11
15.77889919281006
 21
1.000165939349557
 31
0.0
  0
LINE
  5
57
  8
0
 62
     8
 39
0.6063158507458866
 10
15.881061553955069
 20
-0.0000298023038852
 30
0.0
 11
15.199035406112669
 21
1.000165939349557
 31
0.0
  0
LINE
  5
58
  8
0
 62
     8
 39
0.6063158507458866
 10
15.301167964935299
 20
-0.0000298023038852
 30
0.0
 11
14.61908221244812
 21
1.000165939349557
 31
0.0
  0
LINE
  5
59
  8
0
 62
     8
 39
0.6063158507458866
 10
14.72130417823791
 20
-0.0000298023038852
 30
0.0
 11
14.039188623428339
 21
1.000165939349557
 31
0.0
  0
LINE
  5
5A
  8
0
 62
     8
 39
0.6063158507458866
 10
14.141350984573361
 20
-0.0000298023038852
 30
0.0
 11
13.45926523208618
 21
1.000165939349557
 31
0.0
  0
LINE
  5
5B
  8
0
 62
     8
 39
0.6063158507458866
 10
13.561427593231199
 20
-0.0000298023038852
 30
0.0
 11
12.879371643066399
 21
1.000165939349557
 31
0.0
  0
LINE
  5
5C
  8
0
 62
     8
 39
0.6063158507458866
 10
12.98153400421142
 20
-0.0000298023038852
 30
0.0
 11
12.29944825172424
 21
1.000165939349557
 31
0.0
  0
LINE
  5
5D
  8
0
 62
     8
 39
0.6063158507458866
 10
12.40164041519165
 20
-0.0000298023038852
 30
0.0
 11
11.719495058059691
 21
1.000165939349557
 31
0.0
  0
LINE
  5
5E
  8
0
 62
     8
 39
0.6063158507458866
 10
11.8216872215271
 20
-0.0000298023038852
 30
0.0
 11
11.139631271362299
 21
1.000165939349557
 31
0.0
  0
LINE
  5
5F
  8
0
 62
     8
 39
0.6063158507458866
 10
11.241763830184929
 20
-0.0000298023038852
 30
0.0
 11
10.55967807769775
 21
1.000165939349557
 31
0.0
  0
LINE
  5
60
  8
0
 62
     8
 39
0.6063158507458866
 10
10.661900043487551
 20
-0.0000298023038852
 30
0.0
 11
9.9797844886779785
 21
1.000165939349557
 31
0.0
  0
LINE
  5
61
  8
0
 62
     8
 39
0.6063158507458866
 10
10.081946849823
 20
-0.0000298023038852
 30
0.0
 11
9.3998610973358154
 21
1.000165939349557
 31
0.0
  0
LINE
  5
62
  8
0
 62
     8
 39
0.6063158507458866
 10
9.5019936561584473
 20
-0.0000298023038852
 30
0.0
 11
8.81996750831604
 21
1.000165939349557
 31
0.0
  0
LINE
  5
63
  8
0
 62
     8
 39
0.6063158507458866
 10
7.1001946926116943
 20
3.5220980644411091
 30
0.0
 11
6.7076981067657471
 21
4.097729921359444
 31
0.0
  0
LINE
  5
64
  8
0
 62
     8
 39
0.6063158507458866
 10
8.9221000671386719
 20
-0.0000298023038852
 30
0.0
 11
8.2400143146514893
 21
1.000165939349557
 31
0.0
  0
LINE
  5
65
  8
0
 62
     8
 39
0.6063158507458866
 10
7.1001946926116943
 20
2.6714503765291222
 30
0.0
 11
6.1275959014892569
 21
4.097729921359444
 31
0.0
  0
LINE
  5
66
  8
0
 62
     8
 39
0.6063158507458866
 10
8.3421766757965088
 20
-0.0000298023038852
 30
0.0
 11
7.660120725631713
 21
1.000165939349557
 31
0.0
  0
LINE
  5
67
  8
0
 62
     8
 39
0.6063158507458866
 10
7.1001946926116943
 20
1.8211305141633991
 30
0.0
 11
6.1000287532806388
 21
3.2877027988618859
 31
0.0
  0
LINE
  5
68
  8
0
 62
     8
 39
0.6063158507458866
 10
7.7622830867767334
 20
-0.0000298023038852
 30
0.0
 11
6.1000287532806388
 21
2.4373829364961632
 31
0.0
  0
LINE
  5
69
  8
0
 62
     8
 39
0.6063158507458866
 10
7.1823596954345703
 20
-0.0000298023038852
 30
0.0
 11
6.1000287532806388
 21
1.5870332718080531
 31
0.0
  0
LINE
  5
6A
  8
0
 62
     8
 39
0.6063158507458866
 10
-6.4124763011932391
 20
-0.0000298023038852
 30
0.0
 11
-7.0946216583251971
 21
1.000165939349557
 31
0.0
  0
LINE
  5
6B
  8
0
 62
     8
 39
0.6063158507458866
 10
-6.9923996925354022
 20
-0.0000298023038852
 30
0.0
 11
-7.6744854450225839
 21
1.000165939349557
 31
0.0
  0
LINE
  5
6C
  8
0
 62
     8
 39
0.6063158507458866
 10
-7.572263479232789
 20
-0.0000298023038852
 30
0.0
 11
-8.2543790340423602
 21
1.000165939349557
 31
0.0
  0
LINE
  5
6D
  8
0
 62
     8
 39
0.6063158507458866
 10
-8.1522166728973406
 20
-0.0000298023038852
 30
0.0
 11
-8.8342428207397479
 21
1.000165939349557
 31
0.0
  0
LINE
  5
6E
  8
0
 62
     8
 39
0.6063158507458866
 10
-8.732110261917116
 20
-0.0000298023038852
 30
0.0
 11
-9.4141364097595233
 21
1.000165939349557
 31
0.0
  0
LINE
  5
6F
  8
0
 62
     8
 39
0.6063158507458866
 10
-9.3119740486145037
 20
-0.0000298023038852
 30
0.0
 11
-9.9940598011016863
 21
1.000165939349557
 31
0.0
  0
LINE
  5
70
  8
0
 62
     8
 39
0.6063158507458866
 10
-9.8918378353118914
 20
-0.0000298023038852
 30
0.0
 11
-10.57395339012146
 21
1.000165939349557
 31
0.0
  0
LINE
  5
71
  8
0
 62
     8
 39
0.6063158507458866
 10
-10.47167181968689
 20
-0.0000298023038852
 30
0.0
 11
-11.153817176818849
 21
1.000165939349557
 31
0.0
  0
LINE
  5
72
  8
0
 62
     8
 39
0.6063158507458866
 10
-11.05162501335144
 20
-0.0000298023038852
 30
0.0
 11
-11.733710765838619
 21
1.000165939349557
 31
0.0
  0
LINE
  5
73
  8
0
 62
     8
 39
0.6063158507458866
 10
-11.6315484046936
 20
-0.0000298023038852
 30
0.0
 11
-12.313574552536011
 21
1.000165939349557
 31
0.0
  0
LINE
  5
74
  8
0
 62
     8
 39
0.6063158507458866
 10
-12.211412191390989
 20
-0.0000298023038852
 30
0.0
 11
-12.89349794387817
 21
1.000165939349557
 31
0.0
  0
LINE
  5
75
  8
0
 62
     8
 39
0.6063158507458866
 10
-12.79130578041077
 20
-0.0000298023038852
 30
0.0
 11
-13.473391532897949
 21
1.000165939349557
 31
0.0
  0
LINE
  5
76
  8
0
 62
     8
 39
0.6063158507458866
 10
-13.37116956710816
 20
-0.0000298023038852
 30
0.0
 11
-14.05325531959534
 21
1.000165939349557
 31
0.0
  0
LINE
  5
77
  8
0
 62
     8
 39
0.6063158507458866
 10
-13.95106315612793
 20
-0.0000298023038852
 30
0.0
 11
-14.633208513259889
 21
1.000165939349557
 31
0.0
  0
LINE
  5
78
  8
0
 62
     8
 39
0.6063158507458866
 10
-14.530986547470089
 20
-0.0000298023038852
 30
0.0
 11
-15.21311700344086
 21
1.000165939349557
 31
0.0
  0
LINE
  5
79
  8
0
 62
     8
 39
0.6063158507458866
 10
-15.11089503765106
 20
-0.0000298023038852
 30
0.0
 11
-15.792965888977051
 21
1.000165939349557
 31
0.0
  0
LINE
  5
7A
  8
0
 62
     8
 39
0.6063158507458866
 10
-15.690743923187259
 20
-0.0000298023038852
 30
0.0
 11
-16.372829675674438
 21
1.000165939349557
 31
0.0
  0
LINE
  5
7B
  8
0
 62
     8
 39
0.6063158507458866
 10
-16.270652413368229
 20
-0.0000298023038852
 30
0.0
 11
-16.952678561210629
 21
1.000165939349557
 31
0.0
  0
LINE
  5
7C
  8
0
 62
     8
 39
0.6063158507458866
 10
-16.850516200065609
 20
-0.0000298023038852
 30
0.0
 11
-17.53263175487519
 21
1.000165939349557
 31
0.0
  0
LINE
  5
7D
  8
0
 62
     8
 39
0.6063158507458866
 10
-17.430409789085392
 20
-0.0000298023038852
 30
0.0
 11
-18.112540245056149
 21
1.000165939349557
 31
0.0
  0
LINE
  5
7E
  8
0
 62
     8
 39
0.6063158507458866
 10
-18.010318279266361
 20
-0.0000298023038852
 30
0.0
 11
-18.69240403175354
 21
1.000165939349557
 31
0.0
  0
LINE
  5
7F
  8
0
 62
     8
 39
0.6063158507458866
 10
-18.590182065963749
 20
-0.0000298023038852
 30
0.0
 11
-19.272312521934509
 21
1.000165939349557
 31
0.0
  0
LINE
  5
80
  8
0
 62
     8
 39
0.6063158507458866
 10
-19.170135259628299
 20
-0.0000298023038852
 30
0.0
 11
-19.85216140747071
 21
1.000165939349557
 31
0.0
  0
LINE
  5
81
  8
0
 62
     8
 39
0.6063158507458866
 10
-19.750043749809269
 20
-0.0000298023038852
 30
0.0
 11
-20.432069897651679
 21
1.000165939349557
 31
0.0
  0
LINE
  5
82
  8
0
 62
     8
 39
0.6063158507458866
 10
-20.32990753650666
 20
-0.0000298023038852
 30
0.0
 11
-21.011978387832649
 21
1.000165939349557
 31
0.0
  0
LINE
  5
83
  8
0
 62
     8
 39
0.6063158507458866
 10
-20.90975642204285
 20
-0.0000298023038852
 30
0.0
 11
-21.591886878013611
 21
1.000165939349557
 31
0.0
  0
LINE
  5
84
  8
0
 62
     8
 39
0.6063158507458866
 10
-21.489620208740241
 20
-0.0000298023038852
 30
0.0
 11
-22.171750664710999
 21
1.000165939349557
 31
0.0
  0
LINE
  5
85
  8
0
 62
     8
 39
0.6063158507458866
 10
-22.069573402404789
 20
-0.0000298023038852
 30
0.0
 11
-22.751659154891971
 21
1.000165939349557
 31
0.0
  0
LINE
  5
86
  8
0
 62
     8
 39
0.6063158507458866
 10
-22.649481892585761
 20
-0.0000298023038852
 30
0.0
 11
-23.331508040428169
 21
1.000165939349557
 31
0.0
  0
LINE
  5
87
  8
0
 62
     8
 39
0.6063158507458866
 10
-23.229330778121948
 20
-0.0000298023038852
 30
0.0
 11
-23.911416530609131
 21
1.000165939349557
 31
0.0
  0
LINE
  5
88
  8
0
 62
     8
 39
0.6063158507458866
 10
-23.809239268302921
 20
-0.0000298023038852
 30
0.0
 11
-23.999929428100589
 21
0.1907050609773648
 31
0.0
  0
LINE
  5
89
  8
0
 62
     8
 10
-8.5392296314239502
 20
6.6003501415437711
 30
0.0
 11
-6.984978914260866
 21
4.097729921359444
 31
0.0
  0
LINE
  5
8A
  8
0
 62
     8
 39
0.6063158507458866
 10
6.6025257110595703
 20
-0.0000298023038852
 30
0.0
 11
6.1000287532806388
 21
0.7367432117647184
 31
0.0
  0
LINE
  5
8B
  8
0
 62
     8
 39
0.6063158507458866
 10
-6.0999989509582528
 20
0.391989946383859
 30
0.0
 11
-7.0999860763549822
 21
1.85823440553608
 31
0.0
  0
LINE
  5
8C
  8
0
 62
     8
 39
0.6063158507458866
 10
-6.0999989509582528
 20
1.24219059946003
 30
0.0
 11
-7.0999860763549822
 21
2.7084648609346398
 31
0.0
  0
LINE
  5
8D
  8
0
 62
     8
 39
0.6063158507458866
 10
-6.0999989509582528
 20
2.09242105485859
 30
0.0
 11
-7.0999860763549822
 21
3.558725118655587
 31
0.0
  0
LINE
  5
8E
  8
0
 62
     8
 39
0.6063158507458866
 10
-6.0999989509582528
 20
2.9426813125795368
 30
0.0
 11
-6.8877339363098162
 21
4.097729921359444
 31
0.0
  0
ENDSEC
  0
EOF
