  0
SECTION
  2
HEADER
  9
$ACADVER
  1
AC1009
  9
$INSBASE
 10
0.0
 20
0.0
 30
0.0
  9
$EXTMIN
 10
-31.10821545124054
 20
-31.108319759368889
 30
0.0
  9
$EXTMAX
 10
31.10823035240173
 20
31.108260154724121
 30
1.1999999405816191
  9
$LIMMIN
 10
0.0
 20
0.0
  9
$LIMMAX
 10
12.0
 20
9.0
  9
$ORTHOMODE
 70
     0
  9
$REGENMODE
 70
     1
  9
$FILLMODE
 70
     1
  9
$QTEXTMODE
 70
     0
  9
$MIRRTEXT
 70
     0
  9
$DRAGMODE
 70
     2
  9
$LTSCALE
 40
1.0
  9
$OSMODE
 70
    47
  9
$ATTMODE
 70
     1
  9
$TEXTSIZE
 40
3.5
  9
$TRACEWID
 40
0.05
  9
$TEXTSTYLE
  7
SST
  9
$CLAYER
  8
0
  9
$CELTYPE
  6
BYLAYER
  9
$CECOLOR
 62
   256
  9
$DIMSCALE
 40
1.0
  9
$DIMASZ
 40
0.18
  9
$DIMEXO
 40
0.0625
  9
$DIMDLI
 40
0.38
  9
$DIMRND
 40
0.0
  9
$DIMDLE
 40
0.0
  9
$DIMEXE
 40
0.18
  9
$DIMTP
 40
0.0
  9
$DIMTM
 40
0.0
  9
$DIMTXT
 40
0.18
  9
$DIMCEN
 40
0.09
  9
$DIMTSZ
 40
0.0
  9
$DIMTOL
 70
     0
  9
$DIMLIM
 70
     0
  9
$DIMTIH
 70
     1
  9
$DIMTOH
 70
     1
  9
$DIMSE1
 70
     0
  9
$DIMSE2
 70
     0
  9
$DIMTAD
 70
     0
  9
$DIMZIN
 70
     0
  9
$DIMBLK
  1

  9
$DIMASO
 70
     1
  9
$DIMSHO
 70
     1
  9
$DIMPOST
  1

  9
$DIMAPOST
  1

  9
$DIMALT
 70
     0
  9
$DIMALTD
 70
     2
  9
$DIMALTF
 40
25.399999999999999
  9
$DIMLFAC
 40
1.0
  9
$DIMTOFL
 70
     0
  9
$DIMTVP
 40
0.0
  9
$DIMTIX
 70
     0
  9
$DIMSOXD
 70
     0
  9
$DIMSAH
 70
     0
  9
$DIMBLK1
  1

  9
$DIMBLK2
  1

  9
$DIMSTYLE
  2
STANDARD
  9
$DIMCLRD
 70
     0
  9
$DIMCLRE
 70
     0
  9
$DIMCLRT
 70
     0
  9
$DIMTFAC
 40
1.0
  9
$DIMGAP
 40
0.09
  9
$LUNITS
 70
     2
  9
$LUPREC
 70
     0
  9
$SKETCHINC
 40
0.1
  9
$FILLETRAD
 40
0.0
  9
$AUNITS
 70
     0
  9
$AUPREC
 70
     0
  9
$MENU
  1
acad
  9
$ELEVATION
 40
0.0
  9
$PELEVATION
 40
0.0
  9
$THICKNESS
 40
0.0
  9
$LIMCHECK
 70
     0
  9
$BLIPMODE
 70
     0
  9
$CHAMFERA
 40
0.0
  9
$CHAMFERB
 40
0.0
  9
$SKPOLY
 70
     0
  9
$TDCREATE
 40
2449631.7321383101
  9
$TDUPDATE
 40
2453443.5714263199
  9
$TDINDWG
 40
0.0038844792
  9
$TDUSRTIMER
 40
0.0038844792
  9
$USRTIMER
 70
     1
  9
$ANGBASE
 50
0.0
  9
$ANGDIR
 70
     0
  9
$PDMODE
 70
     0
  9
$PDSIZE
 40
0.0
  9
$PLINEWID
 40
0.0
  9
$COORDS
 70
     1
  9
$SPLFRAME
 70
     0
  9
$SPLINETYPE
 70
     6
  9
$SPLINESEGS
 70
     8
  9
$ATTDIA
 70
     0
  9
$ATTREQ
 70
     1
  9
$HANDLING
 70
     1
  9
$HANDSEED
  5
8F
  9
$SURFTAB1
 70
     6
  9
$SURFTAB2
 70
     6
  9
$SURFTYPE
 70
     6
  9
$SURFU
 70
     6
  9
$SURFV
 70
     6
  9
$UCSNAME
  2

  9
$UCSORG
 10
0.0
 20
0.0
 30
0.0
  9
$UCSXDIR
 10
1.0
 20
0.0
 30
0.0
  9
$UCSYDIR
 10
0.0
 20
1.0
 30
0.0
  9
$PUCSNAME
  2

  9
$PUCSORG
 10
0.0
 20
0.0
 30
0.0
  9
$PUCSXDIR
 10
1.0
 20
0.0
 30
0.0
  9
$PUCSYDIR
 10
0.0
 20
1.0
 30
0.0
  9
$USERI1
 70
     0
  9
$USERI2
 70
     0
  9
$USERI3
 70
     0
  9
$USERI4
 70
     0
  9
$USERI5
 70
     0
  9
$USERR1
 40
0.0
  9
$USERR2
 40
0.0
  9
$USERR3
 40
0.0
  9
$USERR4
 40
0.0
  9
$USERR5
 40
0.0
  9
$WORLDVIEW
 70
     1
  9
$SHADEDGE
 70
     3
  9
$SHADEDIF
 70
    70
  9
$TILEMODE
 70
     1
  9
$MAXACTVP
 70
    16
  9
$PLIMCHECK
 70
     0
  9
$PEXTMIN
 10
1.0000000000000000E+020
 20
1.0000000000000000E+020
 30
1.0000000000000000E+020
  9
$PEXTMAX
 10
-1.0000000000000000E+020
 20
-1.0000000000000000E+020
 30
-1.0000000000000000E+020
  9
$PLIMMIN
 10
0.0
 20
0.0
  9
$PLIMMAX
 10
12.0
 20
9.0
  9
$UNITMODE
 70
     0
  9
$VISRETAIN
 70
     0
  9
$PLINEGEN
 70
     0
  9
$PSLTSCALE
 70
     1
  0
ENDSEC
  0
SECTION
  2
TABLES
  0
TABLE
  2
VPORT
 70
     2
  0
VPORT
  2
*ACTIVE
 70
     0
 10
0.0
 20
0.0
 11
1.0
 21
1.0
 12
129.57701388671489
 22
-44.408886494876462
 13
0.0
 23
0.0
 14
1.0
 24
1.0
 15
0.0
 25
0.0
 16
0.0
 26
0.0
 36
1.0
 17
0.0
 27
0.0
 37
0.0
 40
523.61372571370509
 41
1.4993646759847521
 42
50.0
 43
0.0
 44
0.0
 50
0.0
 51
0.0
 71
     0
 72
   100
 73
     1
 74
     1
 75
     0
 76
     0
 77
     0
 78
     0
  0
ENDTAB
  0
TABLE
  2
LTYPE
 70
     1
  0
LTYPE
  2
CONTINUOUS
 70
     0
  3
Solid line
 72
    65
 73
     0
 40
0.0
  0
ENDTAB
  0
TABLE
  2
LAYER
 70
     1
  0
LAYER
  2
0
 70
     0
 62
     7
  6
CONTINUOUS
  0
ENDTAB
  0
TABLE
  2
STYLE
 70
     2
  0
STYLE
  2
STANDARD
 70
     0
 40
0.0
 41
1.0
 50
0.0
 71
     0
 42
0.2
  3
txt
  4

  0
STYLE
  2
SST
 70
     0
 40
0.0
 41
1.0
 50
0.0
 71
     0
 42
3.5
  3
romans.shx
  4

  0
ENDTAB
  0
TABLE
  2
VIEW
 70
     0
  0
ENDTAB
  0
TABLE
  2
UCS
 70
     0
  0
ENDTAB
  0
TABLE
  2
APPID
 70
     1
  0
APPID
  2
ACAD
 70
     0
  0
ENDTAB
  0
TABLE
  2
DIMSTYLE
 70
     1
  0
DIMSTYLE
  2
STANDARD
 70
     0
  3

  4

  5

  6

  7

 40
1.0
 41
0.18
 42
0.0625
 43
0.38
 44
0.18
 45
0.0
 46
0.0
 47
0.0
 48
0.0
140
0.18
141
0.09
142
0.0
143
25.399999999999999
144
1.0
145
0.0
146
1.0
147
0.09
 71
     0
 72
     0
 73
     1
 74
     1
 75
     0
 76
     0
 77
     0
 78
     0
170
     0
171
     2
172
     0
173
     0
174
     0
175
     0
176
     0
177
     0
178
     0
  0
ENDTAB
  0
ENDSEC
  0
SECTION
  2
BLOCKS
  0
BLOCK
  8
0
  2
$MODEL_SPACE
 70
     0
 10
0.0
 20
0.0
 30
0.0
  3
$MODEL_SPACE
  1

  0
ENDBLK
  5
9
  8
0
  0
BLOCK
 67
     1
  8
0
  2
$PAPER_SPACE
 70
     0
 10
0.0
 20
0.0
 30
0.0
  3
$PAPER_SPACE
  1

  0
ENDBLK
  5
E
 67
     1
  8
0
  0
BLOCK
  8
0
  2
SIMPSON-STRONG-TIE
 70
     0
 10
0.0
 20
0.0
 30
0.0
  3
SIMPSON-STRONG-TIE
  1

  0
TEXT
  5
78
  8
0
  6
CONTINUOUS
 10
-4.7318727780691416
 20
4.4215860385237811
 30
0.0
 40
2.0
  1
SIMPSON
 50
316.94148639091338
  7
SST
 72
     1
 11
0.0
 21
0.0
 31
0.0
  0
TEXT
  5
79
  8
0
  6
CONTINUOUS
 10
-7.9648409725863862
 20
3.4769825481547749
 30
0.0
 40
2.0
  1
Strong-Tie
 50
316.94148639091338
  7
SST
 72
     1
 11
-2.0499999999999541
 21
-2.0499999999999541
 31
0.0
  0
ENDBLK
  5
7A
  8
0
  0
ENDSEC
  0
SECTION
  2
ENTITIES
  0
LINE
  5
29
  8
0
 10
0.0
 20
-30.999720096588131
 30
0.0
 11
6.5511763095855713
 21
-24.448990821838368
 31
0.0
  0
LINE
  5
2A
  8
0
 10
-6.5506100654602051
 20
-24.448513984680169
 30
0.0
 11
0.0
 21
-30.999720096588131
 31
0.0
  0
LINE
  5
2B
  8
0
 10
-6.696760654449462
 20
-25.763809680938721
 30
0.0
 11
-6.5497756004333487
 21
-24.447739124298089
 31
0.0
  0
LINE
  5
2C
  8
0
 10
0.0006556510925293
 20
-31.000316143035882
 30
0.0
 11
-1.35272741317749
 21
-31.108319759368889
 31
0.0
  0
LINE
  5
2D
  8
0
 39
0.7831579423509539
 10
-4.0248036384582511
 20
-28.43600511550903
 30
0.0
 11
-3.274977207183837
 21
-27.72474288940429
 31
0.0
  0
LINE
  5
2E
  8
0
 10
-6.696760654449462
 20
-25.763809680938721
 30
0.0
 11
-1.35272741317749
 21
-31.108319759368889
 31
0.0
  0
LINE
  5
2F
  8
0
 10
15.499830245971671
 20
-26.846528053283691
 30
0.0
 11
17.897963523864739
 21
-17.897844314575192
 31
0.0
  0
LINE
  5
30
  8
0
 10
6.5512657165527344
 20
-24.448335170745839
 30
0.0
 11
15.499830245971671
 21
-26.846528053283691
 31
0.0
  0
LINE
  5
31
  8
0
 10
7.082343101501464
 20
-25.660514831542962
 30
0.0
 11
6.551593542098999
 21
-24.447262287139889
 31
0.0
  0
LINE
  5
32
  8
0
 10
15.500724315643311
 20
-26.84670686721801
 30
0.0
 11
14.38266038894653
 21
-27.616918087005612
 31
0.0
  0
LINE
  5
33
  8
0
 39
0.7831579423509539
 10
10.73244214057922
 20
-26.638686656951901
 30
0.0
 11
11.026144027709959
 21
-25.647819042205811
 31
0.0
  0
LINE
  5
34
  8
0
 10
7.082343101501464
 20
-25.660514831542962
 30
0.0
 11
14.38266038894653
 21
-27.616918087005612
 31
0.0
  0
LINE
  5
35
  8
0
 10
26.846528053283691
 20
-15.49983024597168
 30
0.0
 11
24.448990821838379
 21
-6.5510869026184082
 31
0.0
  0
LINE
  5
36
  8
0
 10
17.89769530296325
 20
-17.897248268127441
 30
0.0
 11
26.846528053283691
 21
-15.49983024597168
 31
0.0
  0
LINE
  5
37
  8
0
 10
18.963724374771111
 20
-18.681466579437249
 30
0.0
 11
17.897456884384152
 21
-17.896175384521481
 31
0.0
  0
LINE
  5
38
  8
0
 10
26.84736251831055
 20
-15.499532222747799
 30
0.0
 11
26.264160871505741
 21
-16.725599765777581
 31
0.0
  0
LINE
  5
39
  8
0
 39
0.7831579423509539
 10
22.613942623138421
 20
-17.703533172607418
 30
0.0
 11
22.37278223037719
 21
-16.698598861694329
 31
0.0
  0
LINE
  5
3A
  8
0
 10
18.963724374771111
 20
-18.681466579437249
 30
0.0
 11
26.264160871505741
 21
-16.725599765777581
 31
0.0
  0
LINE
  5
3B
  8
0
 10
30.999720096588131
 20
0.0
 30
0.0
 11
24.448961019515991
 21
6.5511465072631827
 31
0.0
  0
LINE
  5
3C
  8
0
 10
24.448513984680179
 20
-6.5506100654602051
 30
0.0
 11
30.999720096588131
 21
0.0
 31
0.0
  0
LINE
  5
3D
  8
0
 10
25.763809680938721
 20
-6.6968202590942383
 30
0.0
 11
24.447709321975712
 21
-6.549835205078125
 31
0.0
  0
LINE
  5
3E
  8
0
 10
31.000286340713501
 20
0.0006556510925293
 30
0.0
 11
31.10823035240173
 21
-1.35272741317749
 31
0.0
  0
LINE
  5
3F
  8
0
 39
0.7831579423509539
 10
28.43600511550903
 20
-4.0248036384582511
 30
0.0
 11
27.724683284759521
 21
-3.2750368118286128
 31
0.0
  0
LINE
  5
40
  8
0
 10
25.763809680938721
 20
-6.6968202590942383
 30
0.0
 11
31.10823035240173
 21
-1.35272741317749
 31
0.0
  0
LINE
  5
41
  8
0
 10
26.846528053283691
 20
15.49983024597168
 30
0.0
 11
17.897844314575192
 21
17.897903919219971
 31
0.0
  0
LINE
  5
42
  8
0
 10
24.44833517074585
 20
6.5512657165527344
 30
0.0
 11
26.846528053283691
 21
15.49983024597168
 31
0.0
  0
LINE
  5
43
  8
0
 10
25.660514831542969
 20
7.0822834968566886
 30
0.0
 11
24.447202682495121
 21
6.551504135131835
 31
0.0
  0
LINE
  5
44
  8
0
 10
26.84667706489563
 20
15.500724315643311
 30
0.0
 11
27.616888284683231
 21
14.382600784301751
 31
0.0
  0
LINE
  5
45
  8
0
 39
0.7831579423509539
 10
26.638686656951901
 20
10.73247194290161
 30
0.0
 11
25.647759437561032
 21
11.02608442306518
 31
0.0
  0
LINE
  5
46
  8
0
 10
25.660514831542969
 20
7.0822834968566886
 30
0.0
 11
27.616888284683231
 21
14.382600784301751
 31
0.0
  0
LINE
  5
47
  8
0
 10
15.499830245971671
 20
26.846528053283699
 30
0.0
 11
6.5510272979736319
 21
24.448990821838379
 31
0.0
  0
LINE
  5
48
  8
0
 10
17.897278070449818
 20
17.897725105285641
 30
0.0
 11
15.499830245971671
 21
26.846528053283699
 31
0.0
  0
LINE
  5
49
  8
0
 10
18.681466579437249
 20
18.96369457244873
 30
0.0
 11
17.896115779876698
 21
17.897367477416989
 31
0.0
  0
LINE
  5
4A
  8
0
 10
15.49956202507019
 20
26.84736251831055
 30
0.0
 11
16.725599765777581
 21
26.264190673828129
 31
0.0
  0
LINE
  5
4B
  8
0
 39
0.7831579423509539
 10
17.703533172607418
 20
22.613883018493649
 30
0.0
 11
16.698569059371941
 21
22.372722625732418
 31
0.0
  0
LINE
  5
4C
  8
0
 10
18.681466579437249
 20
18.96369457244873
 30
0.0
 11
16.725599765777581
 21
26.264190673828129
 31
0.0
  0
LINE
  5
4D
  8
0
 10
0.0
 20
30.999720096588138
 30
0.0
 11
-6.5511465072631827
 21
24.4489312171936
 31
0.0
  0
LINE
  5
4E
  8
0
 10
6.5506398677825919
 20
24.448513984680179
 30
0.0
 11
0.0
 21
30.999720096588138
 31
0.0
  0
LINE
  5
4F
  8
0
 10
6.6967904567718497
 20
25.763809680938721
 30
0.0
 11
6.549745798110961
 21
24.44767951965332
 31
0.0
  0
LINE
  5
50
  8
0
 10
-0.0006556510925293
 20
31.00025653839112
 30
0.0
 11
1.3526976108551021
 21
31.108260154724121
 31
0.0
  0
LINE
  5
51
  8
0
 39
0.7831579423509539
 10
4.0247738361358643
 20
28.435945510864261
 30
0.0
 11
3.2750070095062251
 21
27.72462368011475
 31
0.0
  0
LINE
  5
52
  8
0
 10
6.6967904567718497
 20
25.763809680938721
 30
0.0
 11
1.3526976108551021
 21
31.108260154724121
 31
0.0
  0
LINE
  5
53
  8
0
 10
-15.49986004829406
 20
26.846528053283699
 30
0.0
 11
-17.897933721542358
 21
17.897844314575192
 31
0.0
  0
LINE
  5
54
  8
0
 10
-6.5512359142303458
 20
24.44833517074585
 30
0.0
 11
-15.49986004829406
 21
26.846528053283699
 31
0.0
  0
LINE
  5
55
  8
0
 10
-7.0823132991790771
 20
25.660514831542969
 30
0.0
 11
-6.5515637397766113
 21
24.447202682495121
 31
0.0
  0
LINE
  5
56
  8
0
 10
-15.500739216804501
 20
26.846706867218021
 30
0.0
 11
-14.38263058662414
 21
27.616918087005619
 31
0.0
  0
LINE
  5
57
  8
0
 39
0.7831579423509539
 10
-10.732412338256831
 20
26.638627052307129
 30
0.0
 11
-11.02611422538757
 21
25.647759437561032
 31
0.0
  0
LINE
  5
58
  8
0
 10
-7.0823132991790771
 20
25.660514831542969
 30
0.0
 11
-14.38263058662414
 21
27.616918087005619
 31
0.0
  0
LINE
  5
59
  8
0
 10
-26.846513152122501
 20
15.49983024597168
 30
0.0
 11
-24.448975920677182
 21
6.5510272979736319
 31
0.0
  0
LINE
  5
5A
  8
0
 10
-17.897740006446838
 20
17.897248268127441
 30
0.0
 11
-26.846513152122501
 21
15.49983024597168
 31
0.0
  0
LINE
  5
5B
  8
0
 10
-18.963709473609921
 20
18.681466579437249
 30
0.0
 11
-17.897441983222961
 21
17.89605617523193
 31
0.0
  0
LINE
  5
5C
  8
0
 10
-26.847332715988159
 20
15.499532222747799
 30
0.0
 11
-26.264175772666931
 21
16.725599765777581
 31
0.0
  0
LINE
  5
5D
  8
0
 39
0.7831579423509539
 10
-22.613868117332458
 20
17.703533172607418
 30
0.0
 11
-22.37275242805481
 21
16.698539257049561
 31
0.0
  0
LINE
  5
5E
  8
0
 10
-18.963709473609921
 20
18.681466579437249
 30
0.0
 11
-26.264175772666931
 21
16.725599765777581
 31
0.0
  0
LINE
  5
5F
  8
0
 10
-30.999690294265751
 20
0.0
 30
0.0
 11
-24.4489312171936
 21
-6.5511465072631827
 31
0.0
  0
LINE
  5
60
  8
0
 10
-24.448499083518978
 20
6.5506100654602051
 30
0.0
 11
-30.999690294265751
 21
0.0
 31
0.0
  0
LINE
  5
61
  8
0
 10
-25.763779878616329
 20
6.6968202590942383
 30
0.0
 11
-24.44767951965332
 21
6.5497159957885742
 31
0.0
  0
LINE
  5
62
  8
0
 10
-31.000271439552311
 20
-0.0007152557373047
 30
0.0
 11
-31.10821545124054
 21
1.35272741317749
 31
0.0
  0
LINE
  5
63
  8
0
 39
0.7831579423509539
 10
-28.435945510864261
 20
4.0247440338134757
 30
0.0
 11
-27.72465348243713
 21
3.274977207183837
 31
0.0
  0
LINE
  5
64
  8
0
 10
-25.763779878616329
 20
6.6968202590942383
 30
0.0
 11
-31.10821545124054
 21
1.35272741317749
 31
0.0
  0
LINE
  5
65
  8
0
 10
-26.846513152122501
 20
-15.49983024597168
 30
0.0
 11
-17.897829413414001
 21
-17.897903919219971
 31
0.0
  0
LINE
  5
66
  8
0
 10
-24.448305368423458
 20
-6.5512657165527344
 30
0.0
 11
-26.846513152122501
 21
-15.49983024597168
 31
0.0
  0
LINE
  5
67
  8
0
 10
-25.660485029220581
 20
-7.0822834968566886
 30
0.0
 11
-24.44718778133392
 21
-6.5516233444213858
 31
0.0
  0
LINE
  5
68
  8
0
 10
-26.846647262573239
 20
-15.500724315643311
 30
0.0
 11
-27.61685848236084
 21
-14.382600784301751
 31
0.0
  0
LINE
  5
69
  8
0
 39
0.7831579423509539
 10
-26.638627052307129
 20
-10.732412338256831
 30
0.0
 11
-25.647744536399841
 21
-11.026144027709959
 31
0.0
  0
LINE
  5
6A
  8
0
 10
-25.660485029220581
 20
-7.0822834968566886
 30
0.0
 11
-27.61685848236084
 21
-14.382600784301751
 31
0.0
  0
LINE
  5
6B
  8
0
 10
-15.49986004829406
 20
-26.846528053283691
 30
0.0
 11
-6.5509974956512451
 21
-24.448990821838368
 31
0.0
  0
LINE
  5
6C
  8
0
 10
-17.897248268127441
 20
-17.897725105285641
 30
0.0
 11
-15.49986004829406
 21
-26.846528053283691
 31
0.0
  0
LINE
  5
6D
  8
0
 10
-18.681451678276058
 20
-18.96369457244873
 30
0.0
 11
-17.896130681037899
 21
-17.897486686706539
 31
0.0
  0
LINE
  5
6E
  8
0
 10
-15.499532222747799
 20
-26.84736251831054
 30
0.0
 11
-16.725614666938782
 21
-26.264190673828121
 31
0.0
  0
LINE
  5
6F
  8
0
 39
0.7831579423509539
 10
-17.703503370285031
 20
-22.613883018493649
 30
0.0
 11
-16.698583960533139
 21
-22.372841835021969
 31
0.0
  0
LINE
  5
70
  8
0
 10
-18.681451678276058
 20
-18.96369457244873
 30
0.0
 11
-16.725614666938782
 21
-26.264190673828121
 31
0.0
  0
CIRCLE
  5
71
  8
0
 39
1.1999999405816191
 10
-16.201719641685479
 20
-0.0004172325134277
 30
0.0
 40
2.0000233780592671
  0
CIRCLE
  5
72
  8
0
 39
1.1999999405816191
 10
16.201734542846669
 20
-0.0004172325134277
 30
0.0
 40
2.0000233780592671
  0
CIRCLE
  5
73
  8
0
 39
1.1999999405816191
 10
0.0
 20
0.0
 30
0.0
 40
6.1000152491033068
  0
CIRCLE
  5
74
  8
0
 39
1.1999999405816191
 10
0.0
 20
0.0
 30
0.0
 40
7.3000155389308921
  0
INSERT
  5
75
  8
0
  2
SIMPSON-STRONG-TIE
 10
9.9670754669096802
 20
14.58110895915711
 30
0.0
  0
ENDSEC
  0
EOF
