  0
SECTION
  2
HEADER
  9
$ACADVER
  1
AC1009
  9
$INSBASE
 10
0.0
 20
0.0
 30
0.0
  9
$EXTMIN
 10
-37.50018491082681
 20
-1.24979019165039
 30
0.0
  9
$EXTMAX
 10
37.499594551987542
 20
9.1496706008910991
 30
0.9473684476688504
  9
$LIMMIN
 10
0.0
 20
0.0
  9
$LIMMAX
 10
12.0
 20
9.0
  9
$ORTHOMODE
 70
     1
  9
$REGENMODE
 70
     1
  9
$FILLMODE
 70
     1
  9
$QTEXTMODE
 70
     0
  9
$MIRRTEXT
 70
     0
  9
$DRAGMODE
 70
     2
  9
$LTSCALE
 40
1.0
  9
$OSMODE
 70
    47
  9
$ATTMODE
 70
     1
  9
$TEXTSIZE
 40
3.5
  9
$TRACEWID
 40
0.05
  9
$TEXTSTYLE
  7
SST
  9
$CLAYER
  8
0
  9
$CELTYPE
  6
BYLAYER
  9
$CECOLOR
 62
   256
  9
$DIMSCALE
 40
1.0
  9
$DIMASZ
 40
0.18
  9
$DIMEXO
 40
0.0625
  9
$DIMDLI
 40
0.38
  9
$DIMRND
 40
0.0
  9
$DIMDLE
 40
0.0
  9
$DIMEXE
 40
0.18
  9
$DIMTP
 40
0.0
  9
$DIMTM
 40
0.0
  9
$DIMTXT
 40
0.18
  9
$DIMCEN
 40
0.09
  9
$DIMTSZ
 40
0.0
  9
$DIMTOL
 70
     0
  9
$DIMLIM
 70
     0
  9
$DIMTIH
 70
     1
  9
$DIMTOH
 70
     1
  9
$DIMSE1
 70
     0
  9
$DIMSE2
 70
     0
  9
$DIMTAD
 70
     0
  9
$DIMZIN
 70
     0
  9
$DIMBLK
  1

  9
$DIMASO
 70
     1
  9
$DIMSHO
 70
     1
  9
$DIMPOST
  1

  9
$DIMAPOST
  1

  9
$DIMALT
 70
     0
  9
$DIMALTD
 70
     2
  9
$DIMALTF
 40
25.399999999999999
  9
$DIMLFAC
 40
1.0
  9
$DIMTOFL
 70
     0
  9
$DIMTVP
 40
0.0
  9
$DIMTIX
 70
     0
  9
$DIMSOXD
 70
     0
  9
$DIMSAH
 70
     0
  9
$DIMBLK1
  1

  9
$DIMBLK2
  1

  9
$DIMSTYLE
  2
STANDARD
  9
$DIMCLRD
 70
     0
  9
$DIMCLRE
 70
     0
  9
$DIMCLRT
 70
     0
  9
$DIMTFAC
 40
1.0
  9
$DIMGAP
 40
0.09
  9
$LUNITS
 70
     2
  9
$LUPREC
 70
     0
  9
$SKETCHINC
 40
0.1
  9
$FILLETRAD
 40
0.0
  9
$AUNITS
 70
     0
  9
$AUPREC
 70
     0
  9
$MENU
  1
acad
  9
$ELEVATION
 40
0.0
  9
$PELEVATION
 40
0.0
  9
$THICKNESS
 40
0.0
  9
$LIMCHECK
 70
     0
  9
$BLIPMODE
 70
     0
  9
$CHAMFERA
 40
0.0
  9
$CHAMFERB
 40
0.0
  9
$SKPOLY
 70
     0
  9
$TDCREATE
 40
2449631.7321383101
  9
$TDUPDATE
 40
2453443.5714328238
  9
$TDINDWG
 40
0.0041076389
  9
$TDUSRTIMER
 40
0.0041076389
  9
$USRTIMER
 70
     1
  9
$ANGBASE
 50
0.0
  9
$ANGDIR
 70
     0
  9
$PDMODE
 70
     0
  9
$PDSIZE
 40
0.0
  9
$PLINEWID
 40
0.0
  9
$COORDS
 70
     1
  9
$SPLFRAME
 70
     0
  9
$SPLINETYPE
 70
     6
  9
$SPLINESEGS
 70
     8
  9
$ATTDIA
 70
     0
  9
$ATTREQ
 70
     1
  9
$HANDLING
 70
     1
  9
$HANDSEED
  5
A5
  9
$SURFTAB1
 70
     6
  9
$SURFTAB2
 70
     6
  9
$SURFTYPE
 70
     6
  9
$SURFU
 70
     6
  9
$SURFV
 70
     6
  9
$UCSNAME
  2

  9
$UCSORG
 10
0.0
 20
0.0
 30
0.0
  9
$UCSXDIR
 10
1.0
 20
0.0
 30
0.0
  9
$UCSYDIR
 10
0.0
 20
1.0
 30
0.0
  9
$PUCSNAME
  2

  9
$PUCSORG
 10
0.0
 20
0.0
 30
0.0
  9
$PUCSXDIR
 10
1.0
 20
0.0
 30
0.0
  9
$PUCSYDIR
 10
0.0
 20
1.0
 30
0.0
  9
$USERI1
 70
     0
  9
$USERI2
 70
     0
  9
$USERI3
 70
     0
  9
$USERI4
 70
     0
  9
$USERI5
 70
     0
  9
$USERR1
 40
0.0
  9
$USERR2
 40
0.0
  9
$USERR3
 40
0.0
  9
$USERR4
 40
0.0
  9
$USERR5
 40
0.0
  9
$WORLDVIEW
 70
     1
  9
$SHADEDGE
 70
     3
  9
$SHADEDIF
 70
    70
  9
$TILEMODE
 70
     1
  9
$MAXACTVP
 70
    16
  9
$PLIMCHECK
 70
     0
  9
$PEXTMIN
 10
1.0000000000000000E+020
 20
1.0000000000000000E+020
 30
1.0000000000000000E+020
  9
$PEXTMAX
 10
-1.0000000000000000E+020
 20
-1.0000000000000000E+020
 30
-1.0000000000000000E+020
  9
$PLIMMIN
 10
0.0
 20
0.0
  9
$PLIMMAX
 10
12.0
 20
9.0
  9
$UNITMODE
 70
     0
  9
$VISRETAIN
 70
     0
  9
$PLINEGEN
 70
     0
  9
$PSLTSCALE
 70
     1
  0
ENDSEC
  0
SECTION
  2
TABLES
  0
TABLE
  2
VPORT
 70
     2
  0
VPORT
  2
*ACTIVE
 70
     0
 10
0.0
 20
0.0
 11
1.0
 21
1.0
 12
-4.729952113433014
 22
0.2141475950173799
 13
0.0
 23
0.0
 14
1.0
 24
1.0
 15
0.0
 25
0.0
 16
0.0
 26
0.0
 36
1.0
 17
0.0
 27
0.0
 37
0.0
 40
135.15102227764891
 41
1.4993646759847521
 42
50.0
 43
0.0
 44
0.0
 50
0.0
 51
0.0
 71
     0
 72
   100
 73
     1
 74
     1
 75
     0
 76
     0
 77
     0
 78
     0
  0
ENDTAB
  0
TABLE
  2
LTYPE
 70
     1
  0
LTYPE
  2
CONTINUOUS
 70
     0
  3
Solid line
 72
    65
 73
     0
 40
0.0
  0
ENDTAB
  0
TABLE
  2
LAYER
 70
     1
  0
LAYER
  2
0
 70
     0
 62
     7
  6
CONTINUOUS
  0
ENDTAB
  0
TABLE
  2
STYLE
 70
     2
  0
STYLE
  2
STANDARD
 70
     0
 40
0.0
 41
1.0
 50
0.0
 71
     0
 42
0.2
  3
txt
  4

  0
STYLE
  2
SST
 70
     0
 40
0.0
 41
1.0
 50
0.0
 71
     0
 42
3.5
  3
romans.shx
  4

  0
ENDTAB
  0
TABLE
  2
VIEW
 70
     0
  0
ENDTAB
  0
TABLE
  2
UCS
 70
     0
  0
ENDTAB
  0
TABLE
  2
APPID
 70
     1
  0
APPID
  2
ACAD
 70
     0
  0
ENDTAB
  0
TABLE
  2
DIMSTYLE
 70
     1
  0
DIMSTYLE
  2
STANDARD
 70
     0
  3

  4

  5

  6

  7

 40
1.0
 41
0.18
 42
0.0625
 43
0.38
 44
0.18
 45
0.0
 46
0.0
 47
0.0
 48
0.0
140
0.18
141
0.09
142
0.0
143
25.399999999999999
144
1.0
145
0.0
146
1.0
147
0.09
 71
     0
 72
     0
 73
     1
 74
     1
 75
     0
 76
     0
 77
     0
 78
     0
170
     0
171
     2
172
     0
173
     0
174
     0
175
     0
176
     0
177
     0
178
     0
  0
ENDTAB
  0
ENDSEC
  0
SECTION
  2
BLOCKS
  0
BLOCK
  8
0
  2
$MODEL_SPACE
 70
     0
 10
0.0
 20
0.0
 30
0.0
  3
$MODEL_SPACE
  1

  0
ENDBLK
  5
9
  8
0
  0
BLOCK
 67
     1
  8
0
  2
$PAPER_SPACE
 70
     0
 10
0.0
 20
0.0
 30
0.0
  3
$PAPER_SPACE
  1

  0
ENDBLK
  5
E
 67
     1
  8
0
  0
ENDSEC
  0
SECTION
  2
ENTITIES
  0
LINE
  5
29
  8
0
 10
19.169080120987779
 20
9.1495513916015483
 30
0.0
 11
20.198243720002061
 21
9.1495513916015483
 31
0.0
  0
LINE
  5
2A
  8
0
 10
17.718988520569692
 20
0.0001192092895508
 30
0.0
 11
19.169080120987779
 21
9.1495513916015483
 31
0.0
  0
LINE
  5
2B
  8
0
 10
19.169080120987779
 20
9.1495513916015483
 30
0.0
 11
20.619141919083479
 21
0.0001192092895508
 31
0.0
  0
LINE
  5
2C
  8
0
 10
29.994773728318101
 20
9.1495513916015483
 30
0.0
 11
31.02450357145775
 21
9.1495513916015483
 31
0.0
  0
LINE
  5
2D
  8
0
 10
28.54429469770897
 20
0.0001192092895508
 30
0.0
 11
29.994773728318101
 21
9.1495513916015483
 31
0.0
  0
LINE
  5
2E
  8
0
 10
29.573398692078481
 20
0.0001192092895508
 30
0.0
 11
31.02450357145775
 21
9.1495513916015483
 31
0.0
  0
LINE
  5
2F
  8
0
 10
31.023579699463731
 20
9.1495513916015483
 30
0.0
 11
32.474714381165391
 21
0.0001192092895508
 31
0.0
  0
LINE
  5
30
  8
0
 10
20.198154313034902
 20
9.1495513916015483
 30
0.0
 11
21.649497610993269
 21
0.0001192092895508
 31
0.0
  0
LINE
  5
31
  8
0
 10
3.2051979131172921
 20
9.1495513916015483
 30
0.0
 11
3.9583025998543522
 21
9.1495513916015483
 31
0.0
  0
LINE
  5
32
  8
0
 10
0.4437743253182198
 20
2.75027751922606
 30
0.0
 11
3.2051979131172921
 21
9.1495513916015483
 31
0.0
  0
LINE
  5
33
  8
0
 10
3.2051979131172921
 20
9.1495513916015483
 30
0.0
 11
6.5464554852913643
 21
2.75027751922606
 31
0.0
  0
LINE
  5
34
  8
0
 10
3.9583025998543522
 20
9.1495513916015483
 30
0.0
 11
7.2996197766732003
 21
2.75027751922606
 31
0.0
  0
LINE
  5
35
  8
0
 10
-13.61868991189491
 20
9.1495513916015483
 30
0.0
 11
-13.34278001122963
 21
9.1495513916015483
 31
0.0
  0
LINE
  5
36
  8
0
 10
-19.030866163306349
 20
0.0001192092895508
 30
0.0
 11
-13.61868991189491
 21
9.1495513916015483
 31
0.0
  0
LINE
  5
37
  8
0
 10
-13.61868991189491
 20
9.1495513916015483
 30
0.0
 11
-9.3503416948844187
 21
1.9166469573974461
 31
0.0
  0
LINE
  5
38
  8
0
 10
-13.34278001122963
 20
9.1495513916015483
 30
0.0
 11
-9.3503416948844187
 21
2.3804903030395361
 31
0.0
  0
LINE
  5
39
  8
0
 10
-30.372125046782621
 20
3.5229921340942241
 30
0.0
 11
-27.069714801840899
 21
9.1495513916015483
 31
0.0
  0
LINE
  5
3A
  8
0
 10
-27.069714801840899
 20
9.1495513916015483
 30
0.0
 11
-26.793074744277121
 21
9.1495513916015483
 31
0.0
  0
LINE
  5
3B
  8
0
 10
-30.255508559279559
 20
3.2570362091064311
 30
0.0
 11
-26.793074744277121
 21
9.1495513916015483
 31
0.0
  0
LINE
  5
3C
  8
0
 10
-26.793074744277121
 20
9.1495513916015483
 30
0.0
 11
-21.380525963835829
 21
0.0001192092895508
 31
0.0
  0
LINE
  5
3D
  8
0
 10
-32.79004706674111
 20
9.1496706008910991
 30
0.0
 11
-28.82799221807015
 21
0.0001192092895508
 31
0.0
  0
LINE
  5
3E
  8
0
 10
-37.500125306182028
 20
0.0054836273193359
 30
0.0
 11
-33.54043974214089
 21
9.1496706008910991
 31
0.0
  0
LINE
  5
3F
  8
0
 10
-33.544805782370688
 20
9.1496706008910991
 30
0.0
 11
-32.79004706674111
 21
9.1496706008910991
 31
0.0
  0
LINE
  5
40
  8
0
 10
-32.79004706674111
 20
9.1496706008910991
 30
0.0
 11
-36.752161520056852
 21
0.0
 31
0.0
  0
LINE
  5
41
  8
0
 10
-37.500125306182028
 20
0.0001192092895508
 30
0.0
 11
-37.500125306182028
 21
-1.24979019165039
 31
0.0
  0
LINE
  5
42
  8
0
 10
37.499594551987542
 20
0.0001192092895508
 30
0.0
 11
37.499594551987542
 21
-1.24979019165039
 31
0.0
  0
LINE
  5
43
  8
0
 10
-9.3488515787650321
 20
2.7501583099365088
 30
0.0
 11
9.3500195569466378
 21
2.7501583099365088
 31
0.0
  0
LINE
  5
44
  8
0
 10
9.3501685685585763
 20
2.7501583099365088
 30
0.0
 11
9.3501685685585763
 21
0.0
 31
0.0
  0
LINE
  5
45
  8
0
 10
8.099752528138044
 20
2.75027751922606
 30
0.0
 11
8.099752528138044
 21
-1.2495517730712891
 31
0.0
  0
LINE
  5
46
  8
0
 10
-8.1002236776877634
 20
2.75027751922606
 30
0.0
 11
-8.1002236776877634
 21
-1.2495517730712891
 31
0.0
  0
LINE
  5
47
  8
0
 10
-37.50018491082681
 20
0.0
 30
0.0
 11
-9.3503416948844187
 21
0.0
 31
0.0
  0
LINE
  5
48
  8
0
 62
     8
 39
0.9473684476688504
 10
-37.500125306182028
 20
-1.249670982360839
 30
0.0
 11
37.499594551987542
 21
-1.24979019165039
 31
0.0
  0
LINE
  5
49
  8
0
 10
37.499594551987542
 20
0.0
 30
0.0
 11
9.3501685685585763
 21
0.0
 31
0.0
  0
LINE
  5
4A
  8
0
 10
-9.3503416948844187
 20
2.7501583099365088
 30
0.0
 11
-9.3503416948844187
 21
0.0
 31
0.0
  0
LINE
  5
4B
  8
0
 62
     8
 39
0.9473684476688504
 10
37.499594551987542
 20
-1.24979019165039
 30
0.0
 11
36.433863503403551
 21
0.0
 31
0.0
  0
LINE
  5
4C
  8
0
 62
     8
 39
0.9473684476688504
 10
36.593514544434441
 20
-1.24979019165039
 30
0.0
 11
35.527723891205682
 21
0.0
 31
0.0
  0
LINE
  5
4D
  8
0
 62
     8
 39
0.9473684476688504
 10
35.687345129914171
 20
-1.24979019165039
 30
0.0
 11
34.621643883652581
 21
0.0
 31
0.0
  0
LINE
  5
4E
  8
0
 62
     8
 39
0.9473684476688504
 10
34.78126512236107
 20
-1.24979019165039
 30
0.0
 11
33.71547446913231
 21
0.0
 31
0.0
  0
LINE
  5
4F
  8
0
 62
     8
 39
0.9473684476688504
 10
33.875155312485582
 20
-1.24979019165039
 30
0.0
 11
32.80939446157921
 21
0.0
 31
0.0
  0
LINE
  5
50
  8
0
 62
     8
 39
0.9473684476688504
 10
32.969015700287713
 20
-1.24979019165039
 30
0.0
 11
31.90322504705895
 21
0.0
 31
0.0
  0
LINE
  5
51
  8
0
 62
     8
 39
0.9473684476688504
 10
32.062905890412218
 20
-1.24979019165039
 30
0.0
 11
30.997145039505849
 21
0.0
 31
0.0
  0
LINE
  5
52
  8
0
 62
     8
 39
0.9473684476688504
 10
31.156766278214342
 20
-1.24979019165039
 30
0.0
 11
30.091035229630361
 21
0.0
 31
0.0
  0
LINE
  5
53
  8
0
 62
     8
 39
0.9473684476688504
 10
30.250686270661241
 20
-1.24979019165039
 30
0.0
 11
29.184895617432481
 21
0.0
 31
0.0
  0
LINE
  5
54
  8
0
 62
     8
 39
0.9473684476688504
 10
29.344516856140981
 20
-1.24979019165039
 30
0.0
 11
28.278785807556989
 21
0.0
 31
0.0
  0
LINE
  5
55
  8
0
 62
     8
 39
0.9473684476688504
 10
28.43843684858788
 20
-1.24979019165039
 30
0.0
 11
27.37264619535912
 21
0.0
 31
0.0
  0
LINE
  5
56
  8
0
 62
     8
 39
0.9473684476688504
 10
27.532327038712388
 20
-1.24979019165039
 30
0.0
 11
26.46656618780602
 21
0.0
 31
0.0
  0
LINE
  5
57
  8
0
 62
     8
 39
0.9473684476688504
 10
26.62618742651452
 20
-1.24979019165039
 30
0.0
 11
25.560456377930532
 21
0.0
 31
0.0
  0
LINE
  5
58
  8
0
 62
     8
 39
0.9473684476688504
 10
25.720077616639031
 20
-1.24979019165039
 30
0.0
 11
24.654316765732659
 21
0.0
 31
0.0
  0
LINE
  5
59
  8
0
 62
     8
 39
0.9473684476688504
 10
24.813938004441152
 20
-1.24979019165039
 30
0.0
 11
23.74820695585716
 21
0.0
 31
0.0
  0
LINE
  5
5A
  8
0
 62
     8
 39
0.9473684476688504
 10
23.907857996888051
 20
-1.24979019165039
 30
0.0
 11
22.842067343659291
 21
0.0
 31
0.0
  0
LINE
  5
5B
  8
0
 62
     8
 39
0.9473684476688504
 10
23.001748187012559
 20
-1.24979019165039
 30
0.0
 11
21.9359575337838
 21
0.0
 31
0.0
  0
LINE
  5
5C
  8
0
 62
     8
 39
0.9473684476688504
 10
22.09560857481468
 20
-1.24979019165039
 30
0.0
 11
21.02981792158592
 21
0.0
 31
0.0
  0
LINE
  5
5D
  8
0
 62
     8
 39
0.9473684476688504
 10
21.189498764939191
 20
-1.24979019165039
 30
0.0
 11
20.123737914032819
 21
0.0
 31
0.0
  0
LINE
  5
5E
  8
0
 62
     8
 39
0.9473684476688504
 10
20.283359152741319
 20
-1.24979019165039
 30
0.0
 11
19.217628104157331
 21
0.0
 31
0.0
  0
LINE
  5
5F
  8
0
 62
     8
 39
0.9473684476688504
 10
19.377249342865831
 20
-1.24979019165039
 30
0.0
 11
18.311488491959459
 21
0.0
 31
0.0
  0
LINE
  5
60
  8
0
 62
     8
 39
0.9473684476688504
 10
18.471109730667951
 20
-1.24979019165039
 30
0.0
 11
17.40537868208397
 21
0.0
 31
0.0
  0
LINE
  5
61
  8
0
 62
     8
 39
0.9473684476688504
 10
17.565029723114851
 20
-1.24979019165039
 30
0.0
 11
16.499239069886091
 21
0.0
 31
0.0
  0
LINE
  5
62
  8
0
 62
     8
 39
0.9473684476688504
 10
16.658919913239359
 20
-1.24979019165039
 30
0.0
 11
15.593129260010601
 21
0.0
 31
0.0
  0
LINE
  5
63
  8
0
 62
     8
 39
0.9473684476688504
 10
15.75278030104149
 20
-1.24979019165039
 30
0.0
 11
14.68698964781273
 21
0.0
 31
0.0
  0
LINE
  5
64
  8
0
 62
     8
 39
0.9473684476688504
 10
14.846670491166
 20
-1.24979019165039
 30
0.0
 11
13.78090964025963
 21
0.0
 31
0.0
  0
LINE
  5
65
  8
0
 62
     8
 39
0.9473684476688504
 10
13.94053087896812
 20
-1.24979019165039
 30
0.0
 11
12.87479983038414
 21
0.0
 31
0.0
  0
LINE
  5
66
  8
0
 62
     8
 39
0.9473684476688504
 10
13.034421069092639
 20
-1.24979019165039
 30
0.0
 11
11.96866021818626
 21
0.0
 31
0.0
  0
LINE
  5
67
  8
0
 62
     8
 39
0.9473684476688504
 10
12.12828145689476
 20
-1.24979019165039
 30
0.0
 11
11.062550408310781
 21
0.0
 31
0.0
  0
LINE
  5
68
  8
0
 62
     8
 39
0.9473684476688504
 10
11.22217164701927
 20
-1.24979019165039
 30
0.0
 11
10.15641079611289
 21
0.0
 31
0.0
  0
LINE
  5
69
  8
0
 62
     8
 39
0.9473684476688504
 10
9.3501685685585763
 20
0.9455680847167826
 30
0.0
 11
8.099752528138044
 21
2.4119615554809419
 31
0.0
  0
LINE
  5
6A
  8
0
 62
     8
 39
0.9473684476688504
 10
10.31609163946616
 20
-1.24979019165039
 30
0.0
 11
8.099752528138044
 21
1.3493299484252781
 31
0.0
  0
LINE
  5
6B
  8
0
 62
     8
 39
0.9473684476688504
 10
-9.1136814528037302
 20
-1.24979019165039
 30
0.0
 11
-10.17947210603249
 21
0.0
 31
0.0
  0
LINE
  5
6C
  8
0
 62
     8
 39
0.9473684476688504
 10
-10.01979126267922
 20
-1.24979019165039
 30
0.0
 11
-11.085552113585591
 21
0.0
 31
0.0
  0
LINE
  5
6D
  8
0
 62
     8
 39
0.9473684476688504
 10
-10.925871270232321
 20
-1.24979019165039
 30
0.0
 11
-11.9916023188163
 21
0.0
 31
0.0
  0
LINE
  5
6E
  8
0
 62
     8
 39
0.9473684476688504
 10
-11.83192147546303
 20
-1.24979019165039
 30
0.0
 11
-12.89771212869179
 21
0.0
 31
0.0
  0
LINE
  5
6F
  8
0
 62
     8
 39
0.9473684476688504
 10
-12.73803128533852
 20
-1.24979019165039
 30
0.0
 11
-13.803792136244891
 21
0.0
 31
0.0
  0
LINE
  5
70
  8
0
 62
     8
 39
0.9473684476688504
 10
-13.644111292891621
 20
-1.24979019165039
 30
0.0
 11
-14.709857242636801
 21
0.0
 31
0.0
  0
LINE
  5
71
  8
0
 62
     8
 39
0.9473684476688504
 10
-14.55017639928352
 20
-1.24979019165039
 30
0.0
 11
-15.61595215135109
 21
0.0
 31
0.0
  0
LINE
  5
72
  8
0
 62
     8
 39
0.9473684476688504
 10
-15.45627130799782
 20
-1.24979019165039
 30
0.0
 11
-16.522047060065379
 21
0.0
 31
0.0
  0
LINE
  5
73
  8
0
 62
     8
 39
0.9473684476688504
 10
-16.36232151322853
 20
-1.24979019165039
 30
0.0
 11
-17.428097265296099
 21
0.0
 31
0.0
  0
LINE
  5
74
  8
0
 62
     8
 39
0.9473684476688504
 10
-17.268416421942831
 20
-1.24979019165039
 30
0.0
 11
-18.33419217401039
 21
0.0
 31
0.0
  0
LINE
  5
75
  8
0
 62
     8
 39
0.9473684476688504
 10
-18.174511330657118
 20
-1.24979019165039
 30
0.0
 11
-19.240242379241099
 21
0.0
 31
0.0
  0
LINE
  5
76
  8
0
 62
     8
 39
0.9473684476688504
 10
-19.080561535887831
 20
-1.24979019165039
 30
0.0
 11
-20.146337287955401
 21
0.0
 31
0.0
  0
LINE
  5
77
  8
0
 62
     8
 39
0.9473684476688504
 10
-19.98667134576332
 20
-1.24979019165039
 30
0.0
 11
-21.052447097830889
 21
0.0
 31
0.0
  0
LINE
  5
78
  8
0
 62
     8
 39
0.9473684476688504
 10
-20.892766254477621
 20
-1.24979019165039
 30
0.0
 11
-21.958497303061598
 21
0.0
 31
0.0
  0
LINE
  5
79
  8
0
 62
     8
 39
0.9473684476688504
 10
-21.79881645970833
 20
-1.24979019165039
 30
0.0
 11
-22.8645922117759
 21
0.0
 31
0.0
  0
LINE
  5
7A
  8
0
 62
     8
 39
0.9473684476688504
 10
-22.704911368422628
 20
-1.24979019165039
 30
0.0
 11
-23.770687120490191
 21
0.0
 31
0.0
  0
LINE
  5
7B
  8
0
 62
     8
 39
0.9473684476688504
 10
-23.611006277136919
 20
-1.24979019165039
 30
0.0
 11
-24.6767373257209
 21
0.0
 31
0.0
  0
LINE
  5
7C
  8
0
 62
     8
 39
0.9473684476688504
 10
-24.517056482367629
 20
-1.24979019165039
 30
0.0
 11
-25.582832234435202
 21
0.0
 31
0.0
  0
LINE
  5
7D
  8
0
 62
     8
 39
0.9473684476688504
 10
-25.42315139108193
 20
-1.24979019165039
 30
0.0
 11
-26.488882439665911
 21
0.0
 31
0.0
  0
LINE
  5
7E
  8
0
 62
     8
 39
0.9473684476688504
 10
-26.32920159631264
 20
-1.24979019165039
 30
0.0
 11
-27.394977348380209
 21
0.0
 31
0.0
  0
LINE
  5
7F
  8
0
 62
     8
 39
0.9473684476688504
 10
-27.235296505026941
 20
-1.24979019165039
 30
0.0
 11
-28.3010722570945
 21
0.0
 31
0.0
  0
LINE
  5
80
  8
0
 62
     8
 39
0.9473684476688504
 10
-28.141391413741228
 20
-1.24979019165039
 30
0.0
 11
-29.207122462325209
 21
0.0
 31
0.0
  0
LINE
  5
81
  8
0
 62
     8
 39
0.9473684476688504
 10
-29.047441618971941
 20
-1.24979019165039
 30
0.0
 11
-30.113232272200712
 21
0.0
 31
0.0
  0
LINE
  5
82
  8
0
 62
     8
 39
0.9473684476688504
 10
-29.95355142884744
 20
-1.24979019165039
 30
0.0
 11
-31.019327180914999
 21
0.0
 31
0.0
  0
LINE
  5
83
  8
0
 62
     8
 39
0.9473684476688504
 10
-30.859646337561731
 20
-1.24979019165039
 30
0.0
 11
-31.925377386145708
 21
0.0
 31
0.0
  0
LINE
  5
84
  8
0
 62
     8
 39
0.9473684476688504
 10
-31.76569654279244
 20
-1.24979019165039
 30
0.0
 11
-32.831472294860014
 21
0.0
 31
0.0
  0
LINE
  5
85
  8
0
 62
     8
 39
0.9473684476688504
 10
-32.671791451506742
 20
-1.24979019165039
 30
0.0
 11
-33.737567203574301
 21
0.0
 31
0.0
  0
LINE
  5
86
  8
0
 62
     8
 39
0.9473684476688504
 10
-33.577841656737448
 20
-1.24979019165039
 30
0.0
 11
-34.643617408805021
 21
0.0
 31
0.0
  0
LINE
  5
87
  8
0
 62
     8
 39
0.9473684476688504
 10
-34.483936565451742
 20
-1.24979019165039
 30
0.0
 11
-35.549712317519308
 21
0.0
 31
0.0
  0
LINE
  5
88
  8
0
 62
     8
 39
0.9473684476688504
 10
-35.390031474166037
 20
-1.24979019165039
 30
0.0
 11
-36.455762522750021
 21
0.0
 31
0.0
  0
LINE
  5
89
  8
0
 62
     8
 39
0.9473684476688504
 10
-36.29608167939675
 20
-1.24979019165039
 30
0.0
 11
-37.361857431464323
 21
0.0
 31
0.0
  0
LINE
  5
8A
  8
0
 62
     8
 39
0.9473684476688504
 10
-37.202176588111051
 20
-1.24979019165039
 30
0.0
 11
-37.500125306182028
 21
-0.9517669677734375
 31
0.0
  0
LINE
  5
8B
  8
0
 62
     8
 39
0.9473684476688504
 10
9.4100414342354561
 20
-1.24979019165039
 30
0.0
 11
8.099752528138044
 21
0.2868175506591797
 31
0.0
  0
LINE
  5
8C
  8
0
 62
     8
 39
0.9473684476688504
 10
8.5039912290047432
 20
-1.24979019165039
 30
0.0
 11
8.099752528138044
 21
-0.7756948471069336
 31
0.0
  0
LINE
  5
8D
  8
0
 62
     8
 39
0.9473684476688504
 10
-8.2076312475730173
 20
-1.24979019165039
 30
0.0
 11
-9.3503416948844187
 21
0.0902414321899414
 31
0.0
  0
LINE
  5
8E
  8
0
 62
     8
 39
0.9473684476688504
 10
-8.1002236776877634
 20
-0.3131628036499023
 30
0.0
 11
-9.3503416948844187
 21
1.15275382995604
 31
0.0
  0
LINE
  5
8F
  8
0
 62
     8
 39
0.9473684476688504
 10
-8.1002236776877634
 20
0.7493495941161968
 30
0.0
 11
-9.3503416948844187
 21
2.2152662277221529
 31
0.0
  0
LINE
  5
90
  8
0
 62
     8
 39
0.9473684476688504
 10
-8.1002236776877634
 20
1.812815666198716
 30
0.0
 11
-8.8996113710929148
 21
2.75027751922606
 31
0.0
  0
LINE
  5
91
  8
0
 62
     8
 39
0.9473684476688504
 10
9.3501685685585763
 20
2.0091533660888521
 30
0.0
 11
8.7181209153603341
 21
2.75027751922606
 31
0.0
  0
ENDSEC
  0
EOF
