  0
SECTION
  2
HEADER
  9
$ACADVER
  1
AC1009
  9
$INSBASE
 10
0.0
 20
0.0
 30
0.0
  9
$EXTMIN
 10
-47.420680090785027
 20
-46.039964079856873
 30
0.0
  9
$EXTMAX
 10
47.863290145993233
 20
49.244140267372131
 30
1.1999999405816191
  9
$LIMMIN
 10
0.0
 20
0.0
  9
$LIMMAX
 10
12.0
 20
9.0
  9
$ORTHOMODE
 70
     0
  9
$REGENMODE
 70
     1
  9
$FILLMODE
 70
     1
  9
$QTEXTMODE
 70
     0
  9
$MIRRTEXT
 70
     0
  9
$DRAGMODE
 70
     2
  9
$LTSCALE
 40
1.0
  9
$OSMODE
 70
    47
  9
$ATTMODE
 70
     1
  9
$TEXTSIZE
 40
3.5
  9
$TRACEWID
 40
0.05
  9
$TEXTSTYLE
  7
SST
  9
$CLAYER
  8
0
  9
$CELTYPE
  6
BYLAYER
  9
$CECOLOR
 62
   256
  9
$DIMSCALE
 40
1.0
  9
$DIMASZ
 40
0.18
  9
$DIMEXO
 40
0.0625
  9
$DIMDLI
 40
0.38
  9
$DIMRND
 40
0.0
  9
$DIMDLE
 40
0.0
  9
$DIMEXE
 40
0.18
  9
$DIMTP
 40
0.0
  9
$DIMTM
 40
0.0
  9
$DIMTXT
 40
0.18
  9
$DIMCEN
 40
0.09
  9
$DIMTSZ
 40
0.0
  9
$DIMTOL
 70
     0
  9
$DIMLIM
 70
     0
  9
$DIMTIH
 70
     1
  9
$DIMTOH
 70
     1
  9
$DIMSE1
 70
     0
  9
$DIMSE2
 70
     0
  9
$DIMTAD
 70
     0
  9
$DIMZIN
 70
     0
  9
$DIMBLK
  1

  9
$DIMASO
 70
     1
  9
$DIMSHO
 70
     1
  9
$DIMPOST
  1

  9
$DIMAPOST
  1

  9
$DIMALT
 70
     0
  9
$DIMALTD
 70
     2
  9
$DIMALTF
 40
25.399999999999999
  9
$DIMLFAC
 40
1.0
  9
$DIMTOFL
 70
     0
  9
$DIMTVP
 40
0.0
  9
$DIMTIX
 70
     0
  9
$DIMSOXD
 70
     0
  9
$DIMSAH
 70
     0
  9
$DIMBLK1
  1

  9
$DIMBLK2
  1

  9
$DIMSTYLE
  2
STANDARD
  9
$DIMCLRD
 70
     0
  9
$DIMCLRE
 70
     0
  9
$DIMCLRT
 70
     0
  9
$DIMTFAC
 40
1.0
  9
$DIMGAP
 40
0.09
  9
$LUNITS
 70
     2
  9
$LUPREC
 70
     0
  9
$SKETCHINC
 40
0.1
  9
$FILLETRAD
 40
0.0
  9
$AUNITS
 70
     0
  9
$AUPREC
 70
     0
  9
$MENU
  1
acad
  9
$ELEVATION
 40
0.0
  9
$PELEVATION
 40
0.0
  9
$THICKNESS
 40
0.0
  9
$LIMCHECK
 70
     0
  9
$BLIPMODE
 70
     0
  9
$CHAMFERA
 40
0.0
  9
$CHAMFERB
 40
0.0
  9
$SKPOLY
 70
     0
  9
$TDCREATE
 40
2449631.7321383101
  9
$TDUPDATE
 40
2453443.5714525469
  9
$TDINDWG
 40
0.0040104282
  9
$TDUSRTIMER
 40
0.0040104282
  9
$USRTIMER
 70
     1
  9
$ANGBASE
 50
0.0
  9
$ANGDIR
 70
     0
  9
$PDMODE
 70
     0
  9
$PDSIZE
 40
0.0
  9
$PLINEWID
 40
0.0
  9
$COORDS
 70
     1
  9
$SPLFRAME
 70
     0
  9
$SPLINETYPE
 70
     6
  9
$SPLINESEGS
 70
     8
  9
$ATTDIA
 70
     0
  9
$ATTREQ
 70
     1
  9
$HANDLING
 70
     1
  9
$HANDSEED
  5
C3
  9
$SURFTAB1
 70
     6
  9
$SURFTAB2
 70
     6
  9
$SURFTYPE
 70
     6
  9
$SURFU
 70
     6
  9
$SURFV
 70
     6
  9
$UCSNAME
  2

  9
$UCSORG
 10
0.0
 20
0.0
 30
0.0
  9
$UCSXDIR
 10
1.0
 20
0.0
 30
0.0
  9
$UCSYDIR
 10
0.0
 20
1.0
 30
0.0
  9
$PUCSNAME
  2

  9
$PUCSORG
 10
0.0
 20
0.0
 30
0.0
  9
$PUCSXDIR
 10
1.0
 20
0.0
 30
0.0
  9
$PUCSYDIR
 10
0.0
 20
1.0
 30
0.0
  9
$USERI1
 70
     0
  9
$USERI2
 70
     0
  9
$USERI3
 70
     0
  9
$USERI4
 70
     0
  9
$USERI5
 70
     0
  9
$USERR1
 40
0.0
  9
$USERR2
 40
0.0
  9
$USERR3
 40
0.0
  9
$USERR4
 40
0.0
  9
$USERR5
 40
0.0
  9
$WORLDVIEW
 70
     1
  9
$SHADEDGE
 70
     3
  9
$SHADEDIF
 70
    70
  9
$TILEMODE
 70
     1
  9
$MAXACTVP
 70
    16
  9
$PLIMCHECK
 70
     0
  9
$PEXTMIN
 10
1.0000000000000000E+020
 20
1.0000000000000000E+020
 30
1.0000000000000000E+020
  9
$PEXTMAX
 10
-1.0000000000000000E+020
 20
-1.0000000000000000E+020
 30
-1.0000000000000000E+020
  9
$PLIMMIN
 10
0.0
 20
0.0
  9
$PLIMMAX
 10
12.0
 20
9.0
  9
$UNITMODE
 70
     0
  9
$VISRETAIN
 70
     0
  9
$PLINEGEN
 70
     0
  9
$PSLTSCALE
 70
     1
  0
ENDSEC
  0
SECTION
  2
TABLES
  0
TABLE
  2
VPORT
 70
     2
  0
VPORT
  2
*ACTIVE
 70
     0
 10
0.0
 20
0.0
 11
1.0
 21
1.0
 12
-16.509982828451029
 22
-9.5454110067979627
 13
0.0
 23
0.0
 14
1.0
 24
1.0
 15
0.0
 25
0.0
 16
0.0
 26
0.0
 36
1.0
 17
0.0
 27
0.0
 37
0.0
 40
222.44348875954461
 41
1.4993646759847521
 42
50.0
 43
0.0
 44
0.0
 50
0.0
 51
0.0
 71
     0
 72
   100
 73
     1
 74
     1
 75
     0
 76
     0
 77
     0
 78
     0
  0
ENDTAB
  0
TABLE
  2
LTYPE
 70
     1
  0
LTYPE
  2
CONTINUOUS
 70
     0
  3
Solid line
 72
    65
 73
     0
 40
0.0
  0
ENDTAB
  0
TABLE
  2
LAYER
 70
     1
  0
LAYER
  2
0
 70
     0
 62
     7
  6
CONTINUOUS
  0
ENDTAB
  0
TABLE
  2
STYLE
 70
     2
  0
STYLE
  2
STANDARD
 70
     0
 40
0.0
 41
1.0
 50
0.0
 71
     0
 42
0.2
  3
txt
  4

  0
STYLE
  2
SST
 70
     0
 40
0.0
 41
1.0
 50
0.0
 71
     0
 42
3.5
  3
romans.shx
  4

  0
ENDTAB
  0
TABLE
  2
VIEW
 70
     0
  0
ENDTAB
  0
TABLE
  2
UCS
 70
     0
  0
ENDTAB
  0
TABLE
  2
APPID
 70
     1
  0
APPID
  2
ACAD
 70
     0
  0
ENDTAB
  0
TABLE
  2
DIMSTYLE
 70
     1
  0
DIMSTYLE
  2
STANDARD
 70
     0
  3

  4

  5

  6

  7

 40
1.0
 41
0.18
 42
0.0625
 43
0.38
 44
0.18
 45
0.0
 46
0.0
 47
0.0
 48
0.0
140
0.18
141
0.09
142
0.0
143
25.399999999999999
144
1.0
145
0.0
146
1.0
147
0.09
 71
     0
 72
     0
 73
     1
 74
     1
 75
     0
 76
     0
 77
     0
 78
     0
170
     0
171
     2
172
     0
173
     0
174
     0
175
     0
176
     0
177
     0
178
     0
  0
ENDTAB
  0
ENDSEC
  0
SECTION
  2
BLOCKS
  0
BLOCK
  8
0
  2
$MODEL_SPACE
 70
     0
 10
0.0
 20
0.0
 30
0.0
  3
$MODEL_SPACE
  1

  0
ENDBLK
  5
9
  8
0
  0
BLOCK
 67
     1
  8
0
  2
$PAPER_SPACE
 70
     0
 10
0.0
 20
0.0
 30
0.0
  3
$PAPER_SPACE
  1

  0
ENDBLK
  5
E
 67
     1
  8
0
  0
BLOCK
  8
0
  2
SIMPSON-STRONG-TIE
 70
     0
 10
0.0
 20
0.0
 30
0.0
  3
SIMPSON-STRONG-TIE
  1

  0
TEXT
  5
AC
  8
0
  6
CONTINUOUS
 10
-4.7318727780691416
 20
4.4215860385237811
 30
0.0
 40
2.0
  1
SIMPSON
 50
316.94148639091338
  7
SST
 72
     1
 11
0.0
 21
0.0
 31
0.0
  0
TEXT
  5
AD
  8
0
  6
CONTINUOUS
 10
-7.9648409725863862
 20
3.4769825481547749
 30
0.0
 40
2.0
  1
Strong-Tie
 50
316.94148639091338
  7
SST
 72
     1
 11
-2.0499999999999541
 21
-2.0499999999999541
 31
0.0
  0
ENDBLK
  5
AE
  8
0
  0
ENDSEC
  0
SECTION
  2
ENTITIES
  0
LINE
  5
29
  8
0
 10
-24.66082529723645
 20
0.1767622232437134
 30
0.0
 11
-24.14224998652935
 21
1.0748850107192991
 31
0.0
  0
LINE
  5
2A
  8
0
 10
-24.14224998652935
 20
1.0748850107192991
 30
0.0
 11
-24.146034881472591
 21
2.1073566675186148
 31
0.0
  0
LINE
  5
2B
  8
0
 10
-24.146034881472591
 20
2.1073566675186148
 30
0.0
 11
-24.660929605364799
 21
3.0046449899673462
 31
0.0
  0
LINE
  5
2C
  8
0
 10
-24.660929605364799
 20
3.0046449899673462
 30
0.0
 11
-25.55762188136578
 21
3.5235630273818961
 31
0.0
  0
LINE
  5
2D
  8
0
 10
-25.55762188136578
 20
3.5235630273818961
 30
0.0
 11
-26.595398351550109
 21
3.5215364694595328
 31
0.0
  0
LINE
  5
2E
  8
0
 10
-26.595398351550109
 20
3.5215364694595328
 30
0.0
 11
-27.490406796336181
 21
3.0040489435195918
 31
0.0
  0
LINE
  5
2F
  8
0
 10
-27.490406796336181
 20
3.0040489435195918
 30
0.0
 11
-28.006791636347771
 21
2.1098600625991821
 31
0.0
  0
LINE
  5
30
  8
0
 10
-28.006791636347771
 20
2.1098600625991821
 30
0.0
 11
-28.009220525622371
 21
1.0707126855850211
 31
0.0
  0
LINE
  5
31
  8
0
 10
-28.009220525622371
 20
1.0707126855850211
 30
0.0
 11
-27.490213081240661
 21
0.1761661767959595
 31
0.0
  0
LINE
  5
32
  8
0
 10
-27.490213081240661
 20
0.1761661767959595
 30
0.0
 11
-26.59283535182476
 21
-0.3392947912216186
 31
0.0
  0
LINE
  5
33
  8
0
 10
-25.558635160326961
 20
-0.3415597677230835
 30
0.0
 11
-24.66082529723645
 21
0.1767622232437134
 31
0.0
  0
LINE
  5
34
  8
0
 10
-26.59283535182476
 20
-0.3392947912216186
 30
0.0
 11
-25.558635160326961
 21
-0.3415597677230835
 31
0.0
  0
LINE
  5
35
  8
0
 10
24.583682850003239
 20
2.1160589456558219
 30
0.0
 11
24.581090047955509
 21
1.083229660987854
 31
0.0
  0
LINE
  5
36
  8
0
 10
24.581090047955509
 20
1.083229660987854
 30
0.0
 11
25.099352434277531
 21
0.1853452920913696
 31
0.0
  0
LINE
  5
37
  8
0
 10
25.995180442929271
 20
3.5326229333877559
 30
0.0
 11
25.099173620343208
 21
3.013228058815002
 31
0.0
  0
LINE
  5
38
  8
0
 10
25.099173620343208
 20
3.013228058815002
 30
0.0
 11
24.583682850003239
 21
2.1160589456558219
 31
0.0
  0
LINE
  5
39
  8
0
 10
27.927056387066841
 20
3.013466477394104
 30
0.0
 11
27.032807901501659
 21
3.5298811197280879
 31
0.0
  0
LINE
  5
3A
  8
0
 10
27.032807901501659
 20
3.5298811197280879
 30
0.0
 11
25.995180442929271
 21
3.5326229333877559
 31
0.0
  0
LINE
  5
3B
  8
0
 10
28.44698770344257
 20
1.079057335853576
 30
0.0
 11
28.444603517651561
 21
2.1185623407363892
 31
0.0
  0
LINE
  5
3C
  8
0
 10
28.444603517651561
 20
2.1185623407363892
 30
0.0
 11
27.927056387066841
 21
3.013466477394104
 31
0.0
  0
LINE
  5
3D
  8
0
 10
27.030393913388249
 20
-0.3308309316635132
 30
0.0
 11
27.927622631192211
 21
0.1841531991958618
 31
0.0
  0
LINE
  5
3E
  8
0
 10
27.927622631192211
 20
0.1841531991958618
 30
0.0
 11
28.44698770344257
 21
1.079057335853576
 31
0.0
  0
LINE
  5
3F
  8
0
 10
25.997415617108349
 20
-0.333095908164978
 30
0.0
 11
27.030393913388249
 21
-0.3308309316635132
 31
0.0
  0
LINE
  5
40
  8
0
 10
25.099352434277531
 20
0.1853452920913696
 30
0.0
 11
25.997415617108349
 21
-0.333095908164978
 31
0.0
  0
LINE
  5
41
  8
0
 10
23.971006706356999
 20
-39.533759474754341
 30
0.0
 11
27.646169498562809
 21
-25.821472525596619
 31
0.0
  0
LINE
  5
42
  8
0
 10
10.25931580364704
 20
-35.860086798667908
 30
0.0
 11
23.971006706356999
 21
-39.533759474754341
 31
0.0
  0
LINE
  5
43
  8
0
 10
27.646169498562809
 20
-25.821472525596619
 30
0.0
 11
41.358456447720528
 21
-22.14732301235199
 31
0.0
  0
LINE
  5
44
  8
0
 10
41.358456447720528
 20
-22.14732301235199
 30
0.0
 11
37.684247329831123
 21
-8.4349168539047241
 31
0.0
  0
LINE
  5
45
  8
0
 10
37.684247329831123
 20
-8.4349168539047241
 30
0.0
 11
47.722354963421822
 21
1.6022669076919549
 31
0.0
  0
LINE
  5
46
  8
0
 10
47.722354963421822
 20
1.6022669076919549
 30
0.0
 11
37.683442667126663
 21
11.63992750644684
 31
0.0
  0
LINE
  5
47
  8
0
 10
37.683442667126663
 20
11.63992750644684
 30
0.0
 11
41.358486250042922
 21
25.352095246314999
 31
0.0
  0
LINE
  5
48
  8
0
 10
41.358486250042922
 20
25.352095246314999
 30
0.0
 11
27.646258905529979
 21
29.027198433876041
 31
0.0
  0
LINE
  5
49
  8
0
 10
27.646258905529979
 20
29.027198433876041
 30
0.0
 11
23.972437217831612
 21
42.737935662269592
 31
0.0
  0
LINE
  5
4A
  8
0
 10
23.972437217831612
 20
42.737935662269592
 30
0.0
 11
10.26015026867389
 21
39.06378614902497
 31
0.0
  0
LINE
  5
4B
  8
0
 10
10.26015026867389
 20
39.06378614902497
 30
0.0
 11
0.2214167863130569
 21
49.101565957069397
 31
0.0
  0
LINE
  5
4C
  8
0
 10
0.2214167863130569
 20
49.101565957069397
 30
0.0
 11
-9.8166312426328641
 21
39.064143776893623
 31
0.0
  0
LINE
  5
4D
  8
0
 10
-9.8166312426328641
 20
39.064143776893623
 30
0.0
 11
-23.52842645347118
 21
42.737697243690477
 31
0.0
  0
LINE
  5
4E
  8
0
 10
-23.52842645347118
 20
42.737697243690477
 30
0.0
 11
-27.20199482142926
 21
29.025887131690979
 31
0.0
  0
LINE
  5
4F
  8
0
 10
-27.20199482142926
 20
29.025887131690979
 30
0.0
 11
-40.914296671748161
 21
25.351618409156799
 31
0.0
  0
LINE
  5
50
  8
0
 10
-40.914296671748161
 20
25.351618409156799
 30
0.0
 11
-37.24053458869458
 21
11.640881180763239
 31
0.0
  0
LINE
  5
51
  8
0
 10
-37.24053458869458
 20
11.640881180763239
 30
0.0
 11
-47.278090879321098
 21
1.602028489112854
 31
0.0
  0
LINE
  5
52
  8
0
 10
-47.278090879321098
 20
1.602028489112854
 30
0.0
 11
-37.24092201888562
 21
-8.4358705282211304
 31
0.0
  0
LINE
  5
53
  8
0
 10
-37.24092201888562
 20
-8.4358705282211304
 30
0.0
 11
-40.914296671748161
 21
-22.14791905879974
 31
0.0
  0
LINE
  5
54
  8
0
 10
-40.914296671748161
 20
-22.14791905879974
 30
0.0
 11
-27.202620670199401
 21
-25.821234107017521
 31
0.0
  0
LINE
  5
55
  8
0
 10
-23.528337046504021
 20
-39.533640265464783
 30
0.0
 11
-9.8159457892179471
 21
-35.859490752220161
 31
0.0
  0
LINE
  5
56
  8
0
 10
-27.202620670199401
 20
-25.821234107017521
 30
0.0
 11
-23.528337046504021
 21
-39.533640265464783
 31
0.0
  0
LINE
  5
57
  8
0
 10
0.2212677747011185
 20
-45.897508978843689
 30
0.0
 11
10.25931580364704
 21
-35.860086798667908
 31
0.0
  0
LINE
  5
58
  8
0
 10
-9.8159457892179471
 20
-35.859490752220161
 30
0.0
 11
0.2212677747011185
 21
-45.897508978843689
 31
0.0
  0
LINE
  5
59
  8
0
 10
30.33493502438068
 20
-15.78416955471039
 30
0.0
 11
21.893844440579411
 21
-6.7426217794418326
 31
0.0
  0
LINE
  5
5A
  8
0
 10
22.856995895504951
 20
-7.7743781805038452
 30
0.0
 11
19.659325912594792
 21
-13.31284177303314
 31
0.0
  0
LINE
  5
5B
  8
0
 10
18.284276559948921
 20
-12.99455296993256
 30
0.0
 11
30.33493502438068
 21
-15.78416955471039
 31
0.0
  0
LINE
  5
5C
  8
0
 10
21.893844440579411
 20
-6.7426217794418326
 30
0.0
 11
18.284276559948921
 21
-12.99455296993256
 31
0.0
  0
LINE
  5
5D
  8
0
 39
1.1999999405816191
 10
21.25816090404987
 20
-10.543490767478939
 30
0.0
 11
20.08904559910297
 21
-9.8685277700424194
 31
0.0
  0
LINE
  5
5E
  8
0
 10
29.036328628659248
 20
-26.844288229942318
 30
0.0
 11
27.644858196377751
 21
-25.819326758384712
 31
0.0
  0
LINE
  5
5F
  8
0
 10
29.036328628659248
 20
-26.844288229942318
 30
0.0
 11
40.597454145550728
 21
-23.748303771018978
 31
0.0
  0
LINE
  5
60
  8
0
 10
41.358456447720528
 20
-22.14732301235199
 30
0.0
 11
40.596768692135811
 21
-23.748780608177189
 31
0.0
  0
LINE
  5
61
  8
0
 39
1.1999999405816191
 10
34.816876485943787
 20
-25.296355605125431
 30
0.0
 11
34.50231297314167
 21
-23.984338164329529
 31
0.0
  0
LINE
  5
62
  8
0
 10
39.399013355374343
 20
-8.6256517171859741
 30
0.0
 11
37.681505516171462
 21
-8.4338439702987671
 31
0.0
  0
LINE
  5
63
  8
0
 10
39.399013355374343
 20
-8.6256517171859741
 30
0.0
 11
47.863290145993233
 21
-0.1639379262924194
 31
0.0
  0
LINE
  5
64
  8
0
 10
47.721758916974068
 20
1.603101372718811
 30
0.0
 11
47.862902715802193
 21
-0.1646531820297241
 31
0.0
  0
LINE
  5
65
  8
0
 39
1.1999999405816191
 10
43.631121948361397
 20
-4.3947948217391959
 30
0.0
 11
42.7027498036623
 21
-3.415967345237731
 31
0.0
  0
LINE
  5
66
  8
0
 10
39.264038637280457
 20
12.33348715305328
 30
0.0
 11
37.680730655789382
 21
11.640881180763239
 31
0.0
  0
LINE
  5
67
  8
0
 10
39.264038637280457
 20
12.33348715305328
 30
0.0
 11
42.363480165600777
 21
23.893688797950752
 31
0.0
  0
LINE
  5
68
  8
0
 10
41.357383564114571
 20
25.353168129920959
 30
0.0
 11
42.363480165600777
 21
23.89297354221344
 31
0.0
  0
LINE
  5
69
  8
0
 39
1.1999999405816191
 10
40.81375940144062
 20
18.11346876621246
 30
0.0
 11
39.520338609814637
 21
18.497084259986881
 31
0.0
  0
LINE
  5
6A
  8
0
 10
28.667614296078678
 20
30.417178750038151
 30
0.0
 11
27.64271242916584
 21
29.025648713111881
 31
0.0
  0
LINE
  5
6B
  8
0
 10
28.667614296078678
 20
30.417178750038151
 30
0.0
 11
25.57165963947773
 21
41.978214859962463
 31
0.0
  0
LINE
  5
6C
  8
0
 10
23.970619276165959
 20
42.739127755165093
 30
0.0
 11
25.57204706966877
 21
41.977618813514702
 31
0.0
  0
LINE
  5
6D
  8
0
 39
1.1999999405816191
 10
27.119681671261791
 20
36.19763720035553
 30
0.0
 11
25.807813242077831
 21
35.883043885231018
 31
0.0
  0
LINE
  5
6E
  8
0
 10
10.44900758564472
 20
40.779803872108452
 30
0.0
 11
10.25714023411274
 21
39.062355637550361
 31
0.0
  0
LINE
  5
6F
  8
0
 10
10.44900758564472
 20
40.779803872108452
 30
0.0
 11
1.9872639924287789
 21
49.244140267372131
 31
0.0
  0
LINE
  5
70
  8
0
 10
0.2202544957399368
 20
49.10251963138581
 30
0.0
 11
1.9879494458436959
 21
49.243782639503479
 31
0.0
  0
LINE
  5
71
  8
0
 39
1.1999999405816191
 10
6.2181506901979438
 20
45.011972069740288
 30
0.0
 11
5.2393232136964789
 21
44.083570122718797
 31
0.0
  0
LINE
  5
72
  8
0
 10
-10.51010148227215
 20
40.644858956336968
 30
0.0
 11
-9.8175551146268845
 21
39.061521172523499
 31
0.0
  0
LINE
  5
73
  8
0
 10
-10.51010148227215
 20
40.644858956336968
 30
0.0
 11
-22.070332929492
 21
43.74418127536773
 31
0.0
  0
LINE
  5
74
  8
0
 10
-23.529842063784599
 20
42.738174080848687
 30
0.0
 11
-22.06955806910992
 21
43.74418127536773
 31
0.0
  0
LINE
  5
75
  8
0
 39
1.1999999405816191
 10
-16.290217205882069
 20
42.194579720497117
 30
0.0
 11
-16.673713490366929
 21
40.901039719581597
 31
0.0
  0
LINE
  5
76
  8
0
 10
-28.593718573451039
 20
30.04834520816803
 30
0.0
 11
-27.202337548136711
 21
29.02350294589997
 31
0.0
  0
LINE
  5
77
  8
0
 10
-28.593718573451039
 20
30.04834520816803
 30
0.0
 11
-40.154888793826103
 21
26.952479958534241
 31
0.0
  0
LINE
  5
78
  8
0
 10
-40.915846392512321
 20
25.351499199867249
 30
0.0
 11
-40.15421824157238
 21
26.9528375864029
 31
0.0
  0
LINE
  5
79
  8
0
 39
1.1999999405816191
 10
-34.374385640025139
 20
28.50053179264069
 30
0.0
 11
-34.059717819094658
 21
27.188514351844791
 31
0.0
  0
LINE
  5
7A
  8
0
 10
-38.956418201327331
 20
11.829827904701229
 30
0.0
 11
-37.238984867930419
 21
11.63790094852447
 31
0.0
  0
LINE
  5
7B
  8
0
 10
-38.956418201327331
 20
11.829827904701229
 30
0.0
 11
-47.420680090785027
 21
3.367994904518127
 31
0.0
  0
LINE
  5
7C
  8
0
 10
-47.279208466410637
 20
1.6010748147964471
 30
0.0
 11
-47.420292660593987
 21
3.3687101602554321
 31
0.0
  0
LINE
  5
7D
  8
0
 39
1.1999999405816191
 10
-43.188660904765129
 20
7.5989710092544547
 30
0.0
 11
-42.260184451937668
 21
6.6201435327529898
 31
0.0
  0
LINE
  5
7E
  8
0
 10
-38.821443483233452
 20
-9.1293109655380231
 30
0.0
 11
-37.238210007548339
 21
-8.4367049932479858
 31
0.0
  0
LINE
  5
7F
  8
0
 10
-38.821443483233452
 20
-9.1293109655380231
 30
0.0
 11
-41.920825406908989
 21
-20.689512610435489
 31
0.0
  0
LINE
  5
80
  8
0
 10
-40.914877817034721
 20
-22.148991942405701
 30
0.0
 11
-41.920825406908989
 21
-20.688797354698181
 31
0.0
  0
LINE
  5
81
  8
0
 39
1.1999999405816191
 10
-40.371298357844353
 20
-14.90941178798675
 30
0.0
 11
-39.077773258090019
 21
-15.29290807247162
 31
0.0
  0
LINE
  5
82
  8
0
 10
-28.225048944354061
 20
-27.212883353233341
 30
0.0
 11
-27.200206682085991
 21
-25.821472525596619
 31
0.0
  0
LINE
  5
83
  8
0
 10
-28.225048944354061
 20
-27.212883353233341
 30
0.0
 11
-25.129064485430721
 21
-38.774038672447212
 31
0.0
  0
LINE
  5
84
  8
0
 10
-23.528143331408501
 20
-39.535070776939392
 30
0.0
 11
-25.129451915621761
 21
-38.773442625999451
 31
0.0
  0
LINE
  5
85
  8
0
 39
1.1999999405816191
 10
-26.677175924181942
 20
-32.993580222129822
 30
0.0
 11
-25.365232989192009
 21
-32.678867697715759
 31
0.0
  0
LINE
  5
86
  8
0
 10
-10.006501838564869
 20
-37.575627684593201
 30
0.0
 11
-9.8146344870328903
 21
-35.858179450035102
 31
0.0
  0
LINE
  5
87
  8
0
 10
-10.006501838564869
 20
-37.575627684593201
 30
0.0
 11
-1.5446986407041541
 21
-46.039964079856873
 31
0.0
  0
LINE
  5
88
  8
0
 10
0.2222512513399124
 20
-45.898462653160088
 30
0.0
 11
-1.5453840941190711
 21
-46.039487242698669
 31
0.0
  0
LINE
  5
89
  8
0
 39
1.1999999405816191
 10
-5.7756449431180954
 20
-41.80791509151458
 30
0.0
 11
-4.7968174666166297
 21
-40.879393935203552
 31
0.0
  0
LINE
  5
8A
  8
0
 10
10.952607229351999
 20
-37.440682768821723
 30
0.0
 11
10.26006086170673
 21
-35.85734498500824
 31
0.0
  0
LINE
  5
8B
  8
0
 10
10.952607229351999
 20
-37.440682768821723
 30
0.0
 11
22.512898281216621
 21
-40.540005087852471
 31
0.0
  0
LINE
  5
8C
  8
0
 10
23.97240741550922
 20
-39.534117102622993
 30
0.0
 11
22.512063816189769
 21
-40.540005087852471
 31
0.0
  0
LINE
  5
8D
  8
0
 39
1.1999999405816191
 10
16.7327676564455
 20
-38.99052274227143
 30
0.0
 11
17.1161745339632
 21
-37.696982741355903
 31
0.0
  0
LINE
  5
8E
  8
0
 10
30.334994629025459
 20
18.988226532936089
 30
0.0
 11
18.284276559948921
 21
16.198729157447811
 31
0.0
  0
LINE
  5
8F
  8
0
 10
19.659325912594792
 20
16.517017960548401
 30
0.0
 11
22.856995895504951
 21
10.9785543680191
 31
0.0
  0
LINE
  5
90
  8
0
 10
21.893844440579411
 20
9.9467979669570923
 30
0.0
 11
30.334994629025459
 21
18.988226532936089
 31
0.0
  0
LINE
  5
91
  8
0
 10
18.284276559948921
 20
16.198729157447811
 30
0.0
 11
21.893844440579411
 21
9.9467979669570923
 31
0.0
  0
LINE
  5
92
  8
0
 39
1.1999999405816191
 10
21.258131101727489
 20
13.7476669549942
 30
0.0
 11
20.08904559910297
 21
13.07270395755768
 31
0.0
  0
LINE
  5
93
  8
0
 10
0.2213273793458939
 20
36.374305367469788
 30
0.0
 11
-3.3883001059293738
 21
24.543379426002499
 31
0.0
  0
LINE
  5
94
  8
0
 10
-2.976432010531425
 20
25.8934246301651
 30
0.0
 11
3.418907955288887
 21
25.8934246301651
 31
0.0
  0
LINE
  5
95
  8
0
 10
3.8308356553316112
 20
24.543379426002499
 30
0.0
 11
0.2213273793458939
 21
36.374305367469788
 31
0.0
  0
LINE
  5
96
  8
0
 10
-3.3883001059293738
 20
24.543379426002499
 30
0.0
 11
3.8308356553316112
 21
24.543379426002499
 31
0.0
  0
LINE
  5
97
  8
0
 39
1.1999999405816191
 10
0.2212677747011185
 20
25.893305420875549
 30
0.0
 11
0.2212677747011185
 21
24.543379426002499
 31
0.0
  0
LINE
  5
98
  8
0
 10
-29.892339870333672
 20
18.988226532936089
 30
0.0
 11
-21.451234385371212
 21
9.9466787576675415
 31
0.0
  0
LINE
  5
99
  8
0
 10
-22.414445444941521
 20
10.97843515872955
 30
0.0
 11
-19.216820165514939
 21
16.51689875125885
 31
0.0
  0
LINE
  5
9A
  8
0
 10
-17.841666504740711
 20
16.198609948158261
 30
0.0
 11
-29.892339870333672
 21
18.988226532936089
 31
0.0
  0
LINE
  5
9B
  8
0
 10
-21.451234385371212
 20
9.9466787576675415
 30
0.0
 11
-17.841666504740711
 21
16.198609948158261
 31
0.0
  0
LINE
  5
9C
  8
0
 39
1.1999999405816191
 10
-20.815521046519279
 20
13.7476669549942
 30
0.0
 11
-19.646450445055962
 21
13.07270395755768
 31
0.0
  0
LINE
  5
9D
  8
0
 10
-29.892339870333672
 20
-15.784050345420839
 30
0.0
 11
-17.84162180125713
 21
-12.99455296993256
 31
0.0
  0
LINE
  5
9E
  8
0
 10
-19.216730758547779
 20
-13.312960982322689
 30
0.0
 11
-22.414400741457939
 21
-7.7743781805038452
 31
0.0
  0
LINE
  5
9F
  8
0
 10
-21.45118968188763
 20
-6.7426217794418326
 30
0.0
 11
-29.892339870333672
 21
-15.784050345420839
 31
0.0
  0
LINE
  5
A0
  8
0
 10
-17.84162180125713
 20
-12.99455296993256
 30
0.0
 11
-21.45118968188763
 21
-6.7426217794418326
 31
0.0
  0
LINE
  5
A1
  8
0
 39
1.1999999405816191
 10
-20.815476343035701
 20
-10.543490767478939
 30
0.0
 11
-19.64640574157238
 21
-9.8685277700424194
 31
0.0
  0
LINE
  5
A2
  8
0
 10
0.2212677747011185
 20
-33.170129179954529
 30
0.0
 11
3.830895259976387
 21
-21.33920323848724
 31
0.0
  0
LINE
  5
A3
  8
0
 10
3.4190867692232132
 20
-22.689367651939389
 30
0.0
 11
-2.9762531965970989
 21
-22.689367651939389
 31
0.0
  0
LINE
  5
A4
  8
0
 10
-3.3882405012845989
 20
-21.33920323848724
 30
0.0
 11
0.2212677747011185
 21
-33.170129179954529
 31
0.0
  0
LINE
  5
A5
  8
0
 10
3.830895259976387
 20
-21.33920323848724
 30
0.0
 11
-3.3882405012845989
 21
-21.33920323848724
 31
0.0
  0
LINE
  5
A6
  8
0
 39
1.1999999405816191
 10
0.2213273793458939
 20
-22.689129233360291
 30
0.0
 11
0.2213273793458939
 21
-21.33920323848724
 31
0.0
  0
CIRCLE
  5
A7
  8
0
 10
0.2212677747011185
 20
1.602028489112854
 30
0.0
 40
8.0306530149331543
  0
CIRCLE
  5
A8
  8
0
 10
0.2212677747011185
 20
1.602028489112854
 30
0.0
 40
9.4497273604991765
  0
INSERT
  5
A9
  8
0
  2
SIMPSON-STRONG-TIE
 10
10.969958045208839
 20
14.2047683145272
 30
0.0
  0
ENDSEC
  0
EOF
