  0
SECTION
  2
HEADER
  9
$ACADVER
  1
AC1009
  9
$INSBASE
 10
0.0
 20
0.0
 30
0.0
  9
$EXTMIN
 10
-58.499813079833977
 20
-1.4996528625488279
 30
0.0
  9
$EXTMAX
 10
58.499842882156372
 20
14.10174369812011
 30
1.477894722484052
  9
$LIMMIN
 10
0.0
 20
0.0
  9
$LIMMAX
 10
12.0
 20
9.0
  9
$ORTHOMODE
 70
     1
  9
$REGENMODE
 70
     1
  9
$FILLMODE
 70
     1
  9
$QTEXTMODE
 70
     0
  9
$MIRRTEXT
 70
     0
  9
$DRAGMODE
 70
     2
  9
$LTSCALE
 40
1.0
  9
$OSMODE
 70
    47
  9
$ATTMODE
 70
     1
  9
$TEXTSIZE
 40
3.5
  9
$TRACEWID
 40
0.05
  9
$TEXTSTYLE
  7
SST
  9
$CLAYER
  8
0
  9
$CELTYPE
  6
BYLAYER
  9
$CECOLOR
 62
   256
  9
$DIMSCALE
 40
1.0
  9
$DIMASZ
 40
0.18
  9
$DIMEXO
 40
0.0625
  9
$DIMDLI
 40
0.38
  9
$DIMRND
 40
0.0
  9
$DIMDLE
 40
0.0
  9
$DIMEXE
 40
0.18
  9
$DIMTP
 40
0.0
  9
$DIMTM
 40
0.0
  9
$DIMTXT
 40
0.18
  9
$DIMCEN
 40
0.09
  9
$DIMTSZ
 40
0.0
  9
$DIMTOL
 70
     0
  9
$DIMLIM
 70
     0
  9
$DIMTIH
 70
     1
  9
$DIMTOH
 70
     1
  9
$DIMSE1
 70
     0
  9
$DIMSE2
 70
     0
  9
$DIMTAD
 70
     0
  9
$DIMZIN
 70
     0
  9
$DIMBLK
  1

  9
$DIMASO
 70
     1
  9
$DIMSHO
 70
     1
  9
$DIMPOST
  1

  9
$DIMAPOST
  1

  9
$DIMALT
 70
     0
  9
$DIMALTD
 70
     2
  9
$DIMALTF
 40
25.399999999999999
  9
$DIMLFAC
 40
1.0
  9
$DIMTOFL
 70
     0
  9
$DIMTVP
 40
0.0
  9
$DIMTIX
 70
     0
  9
$DIMSOXD
 70
     0
  9
$DIMSAH
 70
     0
  9
$DIMBLK1
  1

  9
$DIMBLK2
  1

  9
$DIMSTYLE
  2
STANDARD
  9
$DIMCLRD
 70
     0
  9
$DIMCLRE
 70
     0
  9
$DIMCLRT
 70
     0
  9
$DIMTFAC
 40
1.0
  9
$DIMGAP
 40
0.09
  9
$LUNITS
 70
     2
  9
$LUPREC
 70
     0
  9
$SKETCHINC
 40
0.1
  9
$FILLETRAD
 40
0.0
  9
$AUNITS
 70
     0
  9
$AUPREC
 70
     0
  9
$MENU
  1
acad
  9
$ELEVATION
 40
0.0
  9
$PELEVATION
 40
0.0
  9
$THICKNESS
 40
0.0
  9
$LIMCHECK
 70
     0
  9
$BLIPMODE
 70
     0
  9
$CHAMFERA
 40
0.0
  9
$CHAMFERB
 40
0.0
  9
$SKPOLY
 70
     0
  9
$TDCREATE
 40
2449631.7321383101
  9
$TDUPDATE
 40
2453443.5714590512
  9
$TDINDWG
 40
0.0105837037
  9
$TDUSRTIMER
 40
0.0105837037
  9
$USRTIMER
 70
     1
  9
$ANGBASE
 50
0.0
  9
$ANGDIR
 70
     0
  9
$PDMODE
 70
     0
  9
$PDSIZE
 40
0.0
  9
$PLINEWID
 40
0.0
  9
$COORDS
 70
     1
  9
$SPLFRAME
 70
     0
  9
$SPLINETYPE
 70
     6
  9
$SPLINESEGS
 70
     8
  9
$ATTDIA
 70
     0
  9
$ATTREQ
 70
     1
  9
$HANDLING
 70
     1
  9
$HANDSEED
  5
B2
  9
$SURFTAB1
 70
     6
  9
$SURFTAB2
 70
     6
  9
$SURFTYPE
 70
     6
  9
$SURFU
 70
     6
  9
$SURFV
 70
     6
  9
$UCSNAME
  2

  9
$UCSORG
 10
0.0
 20
0.0
 30
0.0
  9
$UCSXDIR
 10
1.0
 20
0.0
 30
0.0
  9
$UCSYDIR
 10
0.0
 20
1.0
 30
0.0
  9
$PUCSNAME
  2

  9
$PUCSORG
 10
0.0
 20
0.0
 30
0.0
  9
$PUCSXDIR
 10
1.0
 20
0.0
 30
0.0
  9
$PUCSYDIR
 10
0.0
 20
1.0
 30
0.0
  9
$USERI1
 70
     0
  9
$USERI2
 70
     0
  9
$USERI3
 70
     0
  9
$USERI4
 70
     0
  9
$USERI5
 70
     0
  9
$USERR1
 40
0.0
  9
$USERR2
 40
0.0
  9
$USERR3
 40
0.0
  9
$USERR4
 40
0.0
  9
$USERR5
 40
0.0
  9
$WORLDVIEW
 70
     1
  9
$SHADEDGE
 70
     3
  9
$SHADEDIF
 70
    70
  9
$TILEMODE
 70
     1
  9
$MAXACTVP
 70
    16
  9
$PLIMCHECK
 70
     0
  9
$PEXTMIN
 10
1.0000000000000000E+020
 20
1.0000000000000000E+020
 30
1.0000000000000000E+020
  9
$PEXTMAX
 10
-1.0000000000000000E+020
 20
-1.0000000000000000E+020
 30
-1.0000000000000000E+020
  9
$PLIMMIN
 10
0.0
 20
0.0
  9
$PLIMMAX
 10
12.0
 20
9.0
  9
$UNITMODE
 70
     0
  9
$VISRETAIN
 70
     0
  9
$PLINEGEN
 70
     0
  9
$PSLTSCALE
 70
     1
  0
ENDSEC
  0
SECTION
  2
TABLES
  0
TABLE
  2
VPORT
 70
     2
  0
VPORT
  2
*ACTIVE
 70
     0
 10
0.0
 20
0.0
 11
1.0
 21
1.0
 12
138.10366496293221
 22
-9.8414012015660433
 13
0.0
 23
0.0
 14
1.0
 24
1.0
 15
0.0
 25
0.0
 16
0.0
 26
0.0
 36
1.0
 17
0.0
 27
0.0
 37
0.0
 40
618.65354699250827
 41
1.4993646759847521
 42
50.0
 43
0.0
 44
0.0
 50
0.0
 51
0.0
 71
     0
 72
   100
 73
     1
 74
     1
 75
     0
 76
     0
 77
     0
 78
     0
  0
ENDTAB
  0
TABLE
  2
LTYPE
 70
     1
  0
LTYPE
  2
CONTINUOUS
 70
     0
  3
Solid line
 72
    65
 73
     0
 40
0.0
  0
ENDTAB
  0
TABLE
  2
LAYER
 70
     1
  0
LAYER
  2
0
 70
     0
 62
     7
  6
CONTINUOUS
  0
ENDTAB
  0
TABLE
  2
STYLE
 70
     2
  0
STYLE
  2
STANDARD
 70
     0
 40
0.0
 41
1.0
 50
0.0
 71
     0
 42
0.2
  3
txt
  4

  0
STYLE
  2
SST
 70
     0
 40
0.0
 41
1.0
 50
0.0
 71
     0
 42
3.5
  3
romans.shx
  4

  0
ENDTAB
  0
TABLE
  2
VIEW
 70
     0
  0
ENDTAB
  0
TABLE
  2
UCS
 70
     0
  0
ENDTAB
  0
TABLE
  2
APPID
 70
     1
  0
APPID
  2
ACAD
 70
     0
  0
ENDTAB
  0
TABLE
  2
DIMSTYLE
 70
     1
  0
DIMSTYLE
  2
STANDARD
 70
     0
  3

  4

  5

  6

  7

 40
1.0
 41
0.18
 42
0.0625
 43
0.38
 44
0.18
 45
0.0
 46
0.0
 47
0.0
 48
0.0
140
0.18
141
0.09
142
0.0
143
25.399999999999999
144
1.0
145
0.0
146
1.0
147
0.09
 71
     0
 72
     0
 73
     1
 74
     1
 75
     0
 76
     0
 77
     0
 78
     0
170
     0
171
     2
172
     0
173
     0
174
     0
175
     0
176
     0
177
     0
178
     0
  0
ENDTAB
  0
ENDSEC
  0
SECTION
  2
BLOCKS
  0
BLOCK
  8
0
  2
$MODEL_SPACE
 70
     0
 10
0.0
 20
0.0
 30
0.0
  3
$MODEL_SPACE
  1

  0
ENDBLK
  5
9
  8
0
  0
BLOCK
 67
     1
  8
0
  2
$PAPER_SPACE
 70
     0
 10
0.0
 20
0.0
 30
0.0
  3
$PAPER_SPACE
  1

  0
ENDBLK
  5
E
 67
     1
  8
0
  0
ENDSEC
  0
SECTION
  2
ENTITIES
  0
LINE
  5
29
  8
0
 10
-29.904171824455261
 20
14.10174369812011
 30
0.0
 11
-31.50959312915802
 21
14.10174369812011
 31
0.0
  0
LINE
  5
2A
  8
0
 10
-27.641996741294861
 20
0.0002384185791016
 30
0.0
 11
-29.904171824455261
 21
14.10174369812011
 31
0.0
  0
LINE
  5
2B
  8
0
 10
-29.904171824455261
 20
14.10174369812011
 30
0.0
 11
-32.166242599487298
 21
0.0002384185791016
 31
0.0
  0
LINE
  5
2C
  8
0
 10
-46.792283654212952
 20
14.10174369812011
 30
0.0
 11
-48.398673534393311
 21
14.10174369812011
 31
0.0
  0
LINE
  5
2D
  8
0
 10
-44.529542326927178
 20
0.0002384185791016
 30
0.0
 11
-46.792283654212952
 21
14.10174369812011
 31
0.0
  0
LINE
  5
2E
  8
0
 10
-46.13485932350158
 20
0.0002384185791016
 30
0.0
 11
-48.398673534393311
 21
14.10174369812011
 31
0.0
  0
LINE
  5
2F
  8
0
 10
-48.39712381362915
 20
14.10174369812011
 30
0.0
 11
-50.660952925682061
 21
0.0002384185791016
 31
0.0
  0
LINE
  5
30
  8
0
 10
-31.50950372219086
 20
14.10174369812011
 30
0.0
 11
-33.773601055145257
 21
0.0002384185791016
 31
0.0
  0
LINE
  5
31
  8
0
 10
-5.0004720687866211
 20
14.10174369812011
 30
0.0
 11
-6.1752796173095703
 21
14.10174369812011
 31
0.0
  0
LINE
  5
32
  8
0
 10
-1.67885422706604
 20
6.5240859985351563
 30
0.0
 11
-5.0004720687866211
 21
14.10174369812011
 31
0.0
  0
LINE
  5
33
  8
0
 10
-5.0004720687866211
 20
14.10174369812011
 30
0.0
 11
-10.087102651596069
 21
2.5005340576171871
 31
0.0
  0
LINE
  5
34
  8
0
 10
-11.639595031738279
 20
1.644134521484375
 30
0.0
 11
-12.360185384750361
 21
0.0002384185791016
 31
0.0
  0
LINE
  5
35
  8
0
 10
-6.1752796173095703
 20
14.10174369812011
 30
0.0
 11
-11.26199960708618
 21
2.5005340576171871
 31
0.0
  0
LINE
  5
36
  8
0
 10
21.244734525680538
 20
14.10174369812011
 30
0.0
 11
20.81432938575745
 21
14.10174369812011
 31
0.0
  0
LINE
  5
37
  8
0
 10
24.113357067108151
 20
9.3107223510742187
 30
0.0
 11
21.244734525680538
 21
14.10174369812011
 31
0.0
  0
LINE
  5
38
  8
0
 10
29.68773245811462
 20
0.0002384185791016
 30
0.0
 11
27.143508195877072
 21
4.2493343353271484
 31
0.0
  0
LINE
  5
39
  8
0
 10
21.244734525680538
 20
14.10174369812011
 30
0.0
 11
12.799918651580811
 21
0.0002384185791016
 31
0.0
  0
LINE
  5
3A
  8
0
 10
20.81432938575745
 20
14.10174369812011
 30
0.0
 11
12.366026639938349
 21
0.0002384185791016
 31
0.0
  0
LINE
  5
3B
  8
0
 10
47.380149364471428
 20
5.4957866668701172
 30
0.0
 11
42.228341102600091
 21
14.10174369812011
 31
0.0
  0
LINE
  5
3C
  8
0
 10
42.228341102600091
 20
14.10174369812011
 30
0.0
 11
41.796892881393433
 21
14.10174369812011
 31
0.0
  0
LINE
  5
3D
  8
0
 10
47.198206186294549
 20
5.0811767578125
 30
0.0
 11
41.796892881393433
 21
14.10174369812011
 31
0.0
  0
LINE
  5
3E
  8
0
 10
41.796892881393433
 20
14.10174369812011
 30
0.0
 11
33.353209495544426
 21
0.0002384185791016
 31
0.0
  0
LINE
  5
3F
  8
0
 10
51.15211009979248
 20
14.10174369812011
 30
0.0
 11
44.971197843551629
 21
0.0002384185791016
 31
0.0
  0
LINE
  5
40
  8
0
 10
58.499842882156372
 20
0.0085830688476563
 30
0.0
 11
52.32268571853637
 21
14.10174369812011
 31
0.0
  0
LINE
  5
41
  8
0
 10
52.329570055007927
 20
14.10174369812011
 30
0.0
 11
51.15211009979248
 21
14.10174369812011
 31
0.0
  0
LINE
  5
42
  8
0
 10
51.15211009979248
 20
14.10174369812011
 30
0.0
 11
57.332932949066162
 21
0.0
 31
0.0
  0
LINE
  5
43
  8
0
 10
58.499842882156372
 20
0.0002384185791016
 30
0.0
 11
58.499842882156372
 21
-1.4996528625488279
 31
0.0
  0
LINE
  5
44
  8
0
 10
-58.499813079833977
 20
0.0002384185791016
 30
0.0
 11
-58.499813079833977
 21
-1.4996528625488279
 31
0.0
  0
LINE
  5
45
  8
0
 10
-26.445567607879639
 20
0.0002384185791016
 30
0.0
 11
-24.476304650306702
 21
11.38544082641601
 31
0.0
  0
LINE
  5
46
  8
0
 10
-22.507920861244202
 20
0.0002384185791016
 30
0.0
 11
-24.471744894981381
 21
11.383056640625
 31
0.0
  0
LINE
  5
47
  8
0
 10
-24.471744894981381
 20
11.383056640625
 30
0.0
 11
-25.916337966918942
 21
11.37995719909668
 31
0.0
  0
LINE
  5
48
  8
0
 10
0.002056360244751
 20
11.38544082641601
 30
0.0
 11
-3.0721426010131831
 21
2.5005340576171871
 31
0.0
  0
LINE
  5
49
  8
0
 10
3.076225519180297
 20
2.5005340576171871
 30
0.0
 11
0.0099837779998779
 21
11.383056640625
 31
0.0
  0
LINE
  5
4A
  8
0
 10
24.471879005432129
 20
11.38544082641601
 30
0.0
 11
22.502213716506962
 21
0.0002384185791016
 31
0.0
  0
LINE
  5
4B
  8
0
 10
25.911211967468262
 20
11.37995719909668
 30
0.0
 11
24.471879005432129
 21
11.38544082641601
 31
0.0
  0
LINE
  5
4C
  8
0
 10
24.475753307342529
 20
11.383056640625
 30
0.0
 11
26.441127061843869
 21
0.0002384185791016
 31
0.0
  0
LINE
  5
4D
  8
0
 10
-25.910615921020511
 20
11.41262054443359
 30
0.0
 11
-27.886077761650078
 21
0.0002384185791016
 31
0.0
  0
LINE
  5
4E
  8
0
 10
27.880370616912838
 20
0.0002384185791016
 30
0.0
 11
25.911211967468262
 21
11.37995719909668
 31
0.0
  0
LINE
  5
4F
  8
0
 10
11.63730025291443
 20
2.5005340576171871
 30
0.0
 11
-11.639297008514401
 21
2.5005340576171871
 31
0.0
  0
LINE
  5
50
  8
0
 10
-11.639595031738279
 20
2.5005340576171871
 30
0.0
 11
-11.639595031738279
 21
0.0
 31
0.0
  0
LINE
  5
51
  8
0
 10
-10.10000705718994
 20
2.5005340576171871
 30
0.0
 11
-10.10000705718994
 21
-1.4994144439697259
 31
0.0
  0
LINE
  5
52
  8
0
 10
10.10015606880188
 20
2.5005340576171871
 30
0.0
 11
10.10015606880188
 21
-1.4994144439697259
 31
0.0
  0
LINE
  5
53
  8
0
 10
58.499842882156372
 20
0.0
 30
0.0
 11
11.63971424102783
 21
0.0
 31
0.0
  0
LINE
  5
54
  8
0
 10
58.499842882156372
 20
-1.4996528625488279
 30
0.0
 11
-58.499813079833977
 21
-1.4996528625488279
 31
0.0
  0
LINE
  5
55
  8
0
 10
-58.499813079833977
 20
0.0
 30
0.0
 11
-11.639595031738279
 21
0.0
 31
0.0
  0
LINE
  5
56
  8
0
 10
11.63971424102783
 20
2.5005340576171871
 30
0.0
 11
11.63971424102783
 21
0.0
 31
0.0
  0
LINE
  5
57
  8
0
 62
     8
 39
1.477894722484052
 10
-58.499813079833977
 20
-1.4996528625488279
 30
0.0
 11
-56.837216019630432
 21
0.0
 31
0.0
  0
LINE
  5
58
  8
0
 62
     8
 39
1.477894722484052
 10
-57.08622932434082
 20
-1.4996528625488279
 30
0.0
 11
-55.423632264137261
 21
0.0
 31
0.0
  0
LINE
  5
59
  8
0
 62
     8
 39
1.477894722484052
 10
-55.67266047000885
 20
-1.4996528625488279
 30
0.0
 11
-54.010063409805291
 21
0.0
 31
0.0
  0
LINE
  5
5A
  8
0
 62
     8
 39
1.477894722484052
 10
-54.259181022644043
 20
-1.4996528625488279
 30
0.0
 11
-52.596583962440491
 21
0.0
 31
0.0
  0
LINE
  5
5B
  8
0
 62
     8
 39
1.477894722484052
 10
-52.845597267150872
 20
-1.4996528625488279
 30
0.0
 11
-51.18300020694732
 21
0.0
 31
0.0
  0
LINE
  5
5C
  8
0
 62
     8
 39
1.477894722484052
 10
-51.432028412818902
 20
-1.4996528625488279
 30
0.0
 11
-49.769431352615349
 21
0.0
 31
0.0
  0
LINE
  5
5D
  8
0
 62
     8
 39
1.477894722484052
 10
-50.018548965454102
 20
-1.4996528625488279
 30
0.0
 11
-48.355951905250542
 21
0.0
 31
0.0
  0
LINE
  5
5E
  8
0
 62
     8
 39
1.477894722484052
 10
-48.60496520996093
 20
-1.4996528625488279
 30
0.0
 11
-46.942368149757378
 21
0.0
 31
0.0
  0
LINE
  5
5F
  8
0
 62
     8
 39
1.477894722484052
 10
-47.19139635562896
 20
-1.4996528625488279
 30
0.0
 11
-45.528799295425408
 21
0.0
 31
0.0
  0
LINE
  5
60
  8
0
 62
     8
 39
1.477894722484052
 10
-45.77791690826416
 20
-1.4996528625488279
 30
0.0
 11
-44.115319848060601
 21
0.0
 31
0.0
  0
LINE
  5
61
  8
0
 62
     8
 39
1.477894722484052
 10
-44.364333152770989
 20
-1.4996528625488279
 30
0.0
 11
-42.701736092567437
 21
0.0
 31
0.0
  0
LINE
  5
62
  8
0
 62
     8
 39
1.477894722484052
 10
-42.950764298439019
 20
-1.4996528625488279
 30
0.0
 11
-41.288167238235467
 21
0.0
 31
0.0
  0
LINE
  5
63
  8
0
 62
     8
 39
1.477894722484052
 10
-41.537284851074212
 20
-1.4996528625488279
 30
0.0
 11
-39.874687790870667
 21
0.0
 31
0.0
  0
LINE
  5
64
  8
0
 62
     8
 39
1.477894722484052
 10
-40.123701095581048
 20
-1.4996528625488279
 30
0.0
 11
-38.461104035377502
 21
0.0
 31
0.0
  0
LINE
  5
65
  8
0
 62
     8
 39
1.477894722484052
 10
-38.710132241249077
 20
-1.4996528625488279
 30
0.0
 11
-37.047535181045532
 21
0.0
 31
0.0
  0
LINE
  5
66
  8
0
 62
     8
 39
1.477894722484052
 10
-37.296652793884277
 20
-1.4996528625488279
 30
0.0
 11
-35.634055733680718
 21
0.0
 31
0.0
  0
LINE
  5
67
  8
0
 62
     8
 39
1.477894722484052
 10
-35.883069038391113
 20
-1.4996528625488279
 30
0.0
 11
-34.220471978187561
 21
0.0
 31
0.0
  0
LINE
  5
68
  8
0
 62
     8
 39
1.477894722484052
 10
-34.469485282897949
 20
-1.4996528625488279
 30
0.0
 11
-32.806903123855591
 21
0.0
 31
0.0
  0
LINE
  5
69
  8
0
 62
     8
 39
1.477894722484052
 10
-33.056005835533142
 20
-1.4996528625488279
 30
0.0
 11
-31.39342367649078
 21
0.0
 31
0.0
  0
LINE
  5
6A
  8
0
 62
     8
 39
1.477894722484052
 10
-31.642436981201168
 20
-1.4996528625488279
 30
0.0
 11
-29.97983992099762
 21
0.0
 31
0.0
  0
LINE
  5
6B
  8
0
 62
     8
 39
1.477894722484052
 10
-30.228853225708011
 20
-1.4996528625488279
 30
0.0
 11
-28.566271066665649
 21
0.0
 31
0.0
  0
LINE
  5
6C
  8
0
 62
     8
 39
1.477894722484052
 10
-28.815373778343201
 20
-1.4996528625488279
 30
0.0
 11
-27.152791619300839
 21
0.0
 31
0.0
  0
LINE
  5
6D
  8
0
 62
     8
 39
1.477894722484052
 10
-27.40180492401123
 20
-1.4996528625488279
 30
0.0
 11
-25.739207863807682
 21
0.0
 31
0.0
  0
LINE
  5
6E
  8
0
 62
     8
 39
1.477894722484052
 10
-25.98822116851807
 20
-1.4996528625488279
 30
0.0
 11
-24.325639009475712
 21
0.0
 31
0.0
  0
LINE
  5
6F
  8
0
 62
     8
 39
1.477894722484052
 10
-24.574741721153259
 20
-1.4996528625488279
 30
0.0
 11
-22.912159562110901
 21
0.0
 31
0.0
  0
LINE
  5
70
  8
0
 62
     8
 39
1.477894722484052
 10
-23.161172866821289
 20
-1.4996528625488279
 30
0.0
 11
-21.49857580661774
 21
0.0
 31
0.0
  0
LINE
  5
71
  8
0
 62
     8
 39
1.477894722484052
 10
-21.747589111328121
 20
-1.4996528625488279
 30
0.0
 11
-20.08500695228577
 21
0.0
 31
0.0
  0
LINE
  5
72
  8
0
 62
     8
 39
1.477894722484052
 10
-20.334109663963321
 20
-1.4996528625488279
 30
0.0
 11
-18.671527504920959
 21
0.0
 31
0.0
  0
LINE
  5
73
  8
0
 62
     8
 39
1.477894722484052
 10
-18.920540809631341
 20
-1.4996528625488279
 30
0.0
 11
-17.257943749427788
 21
0.0
 31
0.0
  0
LINE
  5
74
  8
0
 62
     8
 39
1.477894722484052
 10
-17.50695705413818
 20
-1.4996528625488279
 30
0.0
 11
-15.84437489509582
 21
0.0
 31
0.0
  0
LINE
  5
75
  8
0
 62
     8
 39
1.477894722484052
 10
-16.093477606773369
 20
-1.4996528625488279
 30
0.0
 11
-14.430895447731009
 21
0.0
 31
0.0
  0
LINE
  5
76
  8
0
 62
     8
 39
1.477894722484052
 10
-14.679908752441399
 20
-1.4996528625488279
 30
0.0
 11
-13.01732659339905
 21
0.0
 31
0.0
  0
LINE
  5
77
  8
0
 62
     8
 39
1.477894722484052
 10
-11.639595031738279
 20
1.377820968627929
 30
0.0
 11
-10.51670312881469
 21
2.5005340576171871
 31
0.0
  0
LINE
  5
78
  8
0
 62
     8
 39
1.477894722484052
 10
-13.26632499694824
 20
-1.4996528625488279
 30
0.0
 11
-10.10000705718994
 21
1.5099048614501951
 31
0.0
  0
LINE
  5
79
  8
0
 62
     8
 39
1.477894722484052
 10
-11.852860450744631
 20
-1.4996528625488279
 30
0.0
 11
-10.10000705718994
 21
0.1010894775390625
 31
0.0
  0
LINE
  5
7A
  8
0
 62
     8
 39
1.477894722484052
 10
10.10006666183471
 20
-1.388072967529296
 30
0.0
 11
11.63902878761291
 21
0.0
 31
0.0
  0
LINE
  5
7B
  8
0
 62
     8
 39
1.477894722484052
 10
11.390000581741329
 20
-1.4996528625488279
 30
0.0
 11
13.052612543106081
 21
0.0
 31
0.0
  0
LINE
  5
7C
  8
0
 62
     8
 39
1.477894722484052
 10
10.10006666183471
 20
-0.1256465911865234
 30
0.0
 11
11.63971424102783
 21
1.4142990112304681
 31
0.0
  0
LINE
  5
7D
  8
0
 62
     8
 39
1.477894722484052
 10
10.10006666183471
 20
1.28793716430664
 30
0.0
 11
11.312782764434809
 21
2.5005340576171871
 31
0.0
  0
LINE
  5
7E
  8
0
 62
     8
 39
1.477894722484052
 10
12.80349493026733
 20
-1.4996528625488279
 30
0.0
 11
14.466077089309691
 21
0.0
 31
0.0
  0
LINE
  5
7F
  8
0
 62
     8
 39
1.477894722484052
 10
14.21695947647094
 20
-1.4996528625488279
 30
0.0
 11
15.87957143783569
 21
0.0
 31
0.0
  0
LINE
  5
80
  8
0
 62
     8
 39
1.477894722484052
 10
15.63045382499695
 20
-1.4996528625488279
 30
0.0
 11
17.2930359840393
 21
0.0
 31
0.0
  0
LINE
  5
81
  8
0
 62
     8
 39
1.477894722484052
 10
17.043918371200562
 20
-1.4996528625488279
 30
0.0
 11
18.706530332565301
 21
0.0
 31
0.0
  0
LINE
  5
82
  8
0
 62
     8
 39
1.477894722484052
 10
18.457412719726559
 20
-1.4996528625488279
 30
0.0
 11
20.119994878768921
 21
0.0
 31
0.0
  0
LINE
  5
83
  8
0
 62
     8
 39
1.477894722484052
 10
19.870877265930169
 20
-1.4996528625488279
 30
0.0
 11
21.533489227294918
 21
0.0
 31
0.0
  0
LINE
  5
84
  8
0
 62
     8
 39
1.477894722484052
 10
21.28437161445618
 20
-1.4996528625488279
 30
0.0
 11
22.946953773498532
 21
0.0
 31
0.0
  0
LINE
  5
85
  8
0
 62
     8
 39
1.477894722484052
 10
22.697955369949341
 20
-1.4996528625488279
 30
0.0
 11
24.360537528991699
 21
0.0
 31
0.0
  0
LINE
  5
86
  8
0
 62
     8
 39
1.477894722484052
 10
24.111419916152951
 20
-1.4996528625488279
 30
0.0
 11
25.7740318775177
 21
0.0
 31
0.0
  0
LINE
  5
87
  8
0
 62
     8
 39
1.477894722484052
 10
25.524914264678952
 20
-1.4996528625488279
 30
0.0
 11
27.18749642372131
 21
0.0
 31
0.0
  0
LINE
  5
88
  8
0
 62
     8
 39
1.477894722484052
 10
26.938378810882568
 20
-1.4996528625488279
 30
0.0
 11
28.600990772247311
 21
0.0
 31
0.0
  0
LINE
  5
89
  8
0
 62
     8
 39
1.477894722484052
 10
28.351873159408569
 20
-1.4996528625488279
 30
0.0
 11
30.014455318450931
 21
0.0
 31
0.0
  0
LINE
  5
8A
  8
0
 62
     8
 39
1.477894722484052
 10
29.765337705612179
 20
-1.4996528625488279
 30
0.0
 11
31.427949666976929
 21
0.0
 31
0.0
  0
LINE
  5
8B
  8
0
 62
     8
 39
1.477894722484052
 10
31.17883205413818
 20
-1.4996528625488279
 30
0.0
 11
32.841414213180542
 21
0.0
 31
0.0
  0
LINE
  5
8C
  8
0
 62
     8
 39
1.477894722484052
 10
32.592296600341797
 20
-1.4996528625488279
 30
0.0
 11
34.254908561706543
 21
0.0
 31
0.0
  0
LINE
  5
8D
  8
0
 62
     8
 39
1.477894722484052
 10
34.005790948867798
 20
-1.4996528625488279
 30
0.0
 11
35.668373107910163
 21
0.0
 31
0.0
  0
LINE
  5
8E
  8
0
 62
     8
 39
1.477894722484052
 10
35.419255495071411
 20
-1.4996528625488279
 30
0.0
 11
37.081867456436157
 21
0.0
 31
0.0
  0
LINE
  5
8F
  8
0
 62
     8
 39
1.477894722484052
 10
36.832749843597412
 20
-1.4996528625488279
 30
0.0
 11
38.495332002639771
 21
0.0
 31
0.0
  0
LINE
  5
90
  8
0
 62
     8
 39
1.477894722484052
 10
38.246214389801018
 20
-1.4996528625488279
 30
0.0
 11
39.908826351165771
 21
0.0
 31
0.0
  0
LINE
  5
91
  8
0
 62
     8
 39
1.477894722484052
 10
39.659708738327019
 20
-1.4996528625488279
 30
0.0
 11
41.322290897369378
 21
0.0
 31
0.0
  0
LINE
  5
92
  8
0
 62
     8
 39
1.477894722484052
 10
41.073173284530633
 20
-1.4996528625488279
 30
0.0
 11
42.735785245895379
 21
0.0
 31
0.0
  0
LINE
  5
93
  8
0
 62
     8
 39
1.477894722484052
 10
42.486667633056641
 20
-1.4996528625488279
 30
0.0
 11
44.149249792098992
 21
0.0
 31
0.0
  0
LINE
  5
94
  8
0
 62
     8
 39
1.477894722484052
 10
43.900132179260247
 20
-1.4996528625488279
 30
0.0
 11
45.562744140625
 21
0.0
 31
0.0
  0
LINE
  5
95
  8
0
 62
     8
 39
1.477894722484052
 10
45.313626527786248
 20
-1.4996528625488279
 30
0.0
 11
46.976208686828613
 21
0.0
 31
0.0
  0
LINE
  5
96
  8
0
 62
     8
 39
1.477894722484052
 10
46.727091073989861
 20
-1.4996528625488279
 30
0.0
 11
48.389703035354607
 21
0.0
 31
0.0
  0
LINE
  5
97
  8
0
 62
     8
 39
1.477894722484052
 10
48.140585422515862
 20
-1.4996528625488279
 30
0.0
 11
49.80316758155822
 21
0.0
 31
0.0
  0
LINE
  5
98
  8
0
 62
     8
 39
1.477894722484052
 10
49.554169178009033
 20
-1.4996528625488279
 30
0.0
 11
51.216751337051392
 21
0.0
 31
0.0
  0
LINE
  5
99
  8
0
 62
     8
 39
1.477894722484052
 10
50.967633724212639
 20
-1.4996528625488279
 30
0.0
 11
52.630215883254998
 21
0.0
 31
0.0
  0
LINE
  5
9A
  8
0
 62
     8
 39
1.477894722484052
 10
52.38112807273864
 20
-1.4996528625488279
 30
0.0
 11
54.043710231780999
 21
0.0
 31
0.0
  0
LINE
  5
9B
  8
0
 62
     8
 39
1.477894722484052
 10
53.794592618942261
 20
-1.4996528625488279
 30
0.0
 11
55.457174777984612
 21
0.0
 31
0.0
  0
LINE
  5
9C
  8
0
 62
     8
 39
1.477894722484052
 10
55.208086967468262
 20
-1.4996528625488279
 30
0.0
 11
56.87066912651062
 21
0.0
 31
0.0
  0
LINE
  5
9D
  8
0
 62
     8
 39
1.477894722484052
 10
56.621551513671868
 20
-1.4996528625488279
 30
0.0
 11
58.284133672714233
 21
0.0
 31
0.0
  0
LINE
  5
9E
  8
0
 62
     8
 39
1.477894722484052
 10
58.035045862197869
 20
-1.4996528625488279
 30
0.0
 11
58.499842882156372
 21
-1.034736633300781
 31
0.0
  0
ENDSEC
  0
EOF
