  0
SECTION
  2
HEADER
  9
$ACADVER
  1
AC1009
  9
$INSBASE
 10
0.0
 20
0.0
 30
0.0
  9
$EXTMIN
 10
-58.560267090797417
 20
-58.56025218963623
 30
0.0
  9
$EXTMAX
 10
58.560341596603386
 20
58.560371398925781
 30
1.477894722484052
  9
$LIMMIN
 10
0.0
 20
0.0
  9
$LIMMAX
 10
12.0
 20
9.0
  9
$ORTHOMODE
 70
     1
  9
$REGENMODE
 70
     1
  9
$FILLMODE
 70
     1
  9
$QTEXTMODE
 70
     0
  9
$MIRRTEXT
 70
     0
  9
$DRAGMODE
 70
     2
  9
$LTSCALE
 40
1.0
  9
$OSMODE
 70
    47
  9
$ATTMODE
 70
     1
  9
$TEXTSIZE
 40
3.5
  9
$TRACEWID
 40
0.05
  9
$TEXTSTYLE
  7
SST
  9
$CLAYER
  8
0
  9
$CELTYPE
  6
BYLAYER
  9
$CECOLOR
 62
   256
  9
$DIMSCALE
 40
1.0
  9
$DIMASZ
 40
0.18
  9
$DIMEXO
 40
0.0625
  9
$DIMDLI
 40
0.38
  9
$DIMRND
 40
0.0
  9
$DIMDLE
 40
0.0
  9
$DIMEXE
 40
0.18
  9
$DIMTP
 40
0.0
  9
$DIMTM
 40
0.0
  9
$DIMTXT
 40
0.18
  9
$DIMCEN
 40
0.09
  9
$DIMTSZ
 40
0.0
  9
$DIMTOL
 70
     0
  9
$DIMLIM
 70
     0
  9
$DIMTIH
 70
     1
  9
$DIMTOH
 70
     1
  9
$DIMSE1
 70
     0
  9
$DIMSE2
 70
     0
  9
$DIMTAD
 70
     0
  9
$DIMZIN
 70
     0
  9
$DIMBLK
  1

  9
$DIMASO
 70
     1
  9
$DIMSHO
 70
     1
  9
$DIMPOST
  1

  9
$DIMAPOST
  1

  9
$DIMALT
 70
     0
  9
$DIMALTD
 70
     2
  9
$DIMALTF
 40
25.399999999999999
  9
$DIMLFAC
 40
1.0
  9
$DIMTOFL
 70
     0
  9
$DIMTVP
 40
0.0
  9
$DIMTIX
 70
     0
  9
$DIMSOXD
 70
     0
  9
$DIMSAH
 70
     0
  9
$DIMBLK1
  1

  9
$DIMBLK2
  1

  9
$DIMSTYLE
  2
STANDARD
  9
$DIMCLRD
 70
     0
  9
$DIMCLRE
 70
     0
  9
$DIMCLRT
 70
     0
  9
$DIMTFAC
 40
1.0
  9
$DIMGAP
 40
0.09
  9
$LUNITS
 70
     2
  9
$LUPREC
 70
     0
  9
$SKETCHINC
 40
0.1
  9
$FILLETRAD
 40
0.0
  9
$AUNITS
 70
     0
  9
$AUPREC
 70
     0
  9
$MENU
  1
acad
  9
$ELEVATION
 40
0.0
  9
$PELEVATION
 40
0.0
  9
$THICKNESS
 40
0.0
  9
$LIMCHECK
 70
     0
  9
$BLIPMODE
 70
     0
  9
$CHAMFERA
 40
0.0
  9
$CHAMFERB
 40
0.0
  9
$SKPOLY
 70
     0
  9
$TDCREATE
 40
2449631.7321383101
  9
$TDUPDATE
 40
2453443.5714655672
  9
$TDINDWG
 40
0.0103371412
  9
$TDUSRTIMER
 40
0.0103371412
  9
$USRTIMER
 70
     1
  9
$ANGBASE
 50
0.0
  9
$ANGDIR
 70
     0
  9
$PDMODE
 70
     0
  9
$PDSIZE
 40
0.0
  9
$PLINEWID
 40
0.0
  9
$COORDS
 70
     1
  9
$SPLFRAME
 70
     0
  9
$SPLINETYPE
 70
     6
  9
$SPLINESEGS
 70
     8
  9
$ATTDIA
 70
     0
  9
$ATTREQ
 70
     1
  9
$HANDLING
 70
     1
  9
$HANDSEED
  5
C3
  9
$SURFTAB1
 70
     6
  9
$SURFTAB2
 70
     6
  9
$SURFTYPE
 70
     6
  9
$SURFU
 70
     6
  9
$SURFV
 70
     6
  9
$UCSNAME
  2

  9
$UCSORG
 10
0.0
 20
0.0
 30
0.0
  9
$UCSXDIR
 10
1.0
 20
0.0
 30
0.0
  9
$UCSYDIR
 10
0.0
 20
1.0
 30
0.0
  9
$PUCSNAME
  2

  9
$PUCSORG
 10
0.0
 20
0.0
 30
0.0
  9
$PUCSXDIR
 10
1.0
 20
0.0
 30
0.0
  9
$PUCSYDIR
 10
0.0
 20
1.0
 30
0.0
  9
$USERI1
 70
     0
  9
$USERI2
 70
     0
  9
$USERI3
 70
     0
  9
$USERI4
 70
     0
  9
$USERI5
 70
     0
  9
$USERR1
 40
0.0
  9
$USERR2
 40
0.0
  9
$USERR3
 40
0.0
  9
$USERR4
 40
0.0
  9
$USERR5
 40
0.0
  9
$WORLDVIEW
 70
     1
  9
$SHADEDGE
 70
     3
  9
$SHADEDIF
 70
    70
  9
$TILEMODE
 70
     1
  9
$MAXACTVP
 70
    16
  9
$PLIMCHECK
 70
     0
  9
$PEXTMIN
 10
1.0000000000000000E+020
 20
1.0000000000000000E+020
 30
1.0000000000000000E+020
  9
$PEXTMAX
 10
-1.0000000000000000E+020
 20
-1.0000000000000000E+020
 30
-1.0000000000000000E+020
  9
$PLIMMIN
 10
0.0
 20
0.0
  9
$PLIMMAX
 10
12.0
 20
9.0
  9
$UNITMODE
 70
     0
  9
$VISRETAIN
 70
     0
  9
$PLINEGEN
 70
     0
  9
$PSLTSCALE
 70
     1
  0
ENDSEC
  0
SECTION
  2
TABLES
  0
TABLE
  2
VPORT
 70
     2
  0
VPORT
  2
*ACTIVE
 70
     0
 10
0.0
 20
0.0
 11
1.0
 21
1.0
 12
138.0749252043081
 22
-9.8414012015660433
 13
0.0
 23
0.0
 14
1.0
 24
1.0
 15
0.0
 25
0.0
 16
0.0
 26
0.0
 36
1.0
 17
0.0
 27
0.0
 37
0.0
 40
618.65354699250827
 41
1.4993646759847521
 42
50.0
 43
0.0
 44
0.0
 50
0.0
 51
0.0
 71
     0
 72
   100
 73
     1
 74
     1
 75
     0
 76
     0
 77
     0
 78
     0
  0
ENDTAB
  0
TABLE
  2
LTYPE
 70
     1
  0
LTYPE
  2
CONTINUOUS
 70
     0
  3
Solid line
 72
    65
 73
     0
 40
0.0
  0
ENDTAB
  0
TABLE
  2
LAYER
 70
     1
  0
LAYER
  2
0
 70
     0
 62
     7
  6
CONTINUOUS
  0
ENDTAB
  0
TABLE
  2
STYLE
 70
     2
  0
STYLE
  2
STANDARD
 70
     0
 40
0.0
 41
1.0
 50
0.0
 71
     0
 42
0.2
  3
txt
  4

  0
STYLE
  2
SST
 70
     0
 40
0.0
 41
1.0
 50
0.0
 71
     0
 42
3.5
  3
romans.shx
  4

  0
ENDTAB
  0
TABLE
  2
VIEW
 70
     0
  0
ENDTAB
  0
TABLE
  2
UCS
 70
     0
  0
ENDTAB
  0
TABLE
  2
APPID
 70
     1
  0
APPID
  2
ACAD
 70
     0
  0
ENDTAB
  0
TABLE
  2
DIMSTYLE
 70
     1
  0
DIMSTYLE
  2
STANDARD
 70
     0
  3

  4

  5

  6

  7

 40
1.0
 41
0.18
 42
0.0625
 43
0.38
 44
0.18
 45
0.0
 46
0.0
 47
0.0
 48
0.0
140
0.18
141
0.09
142
0.0
143
25.399999999999999
144
1.0
145
0.0
146
1.0
147
0.09
 71
     0
 72
     0
 73
     1
 74
     1
 75
     0
 76
     0
 77
     0
 78
     0
170
     0
171
     2
172
     0
173
     0
174
     0
175
     0
176
     0
177
     0
178
     0
  0
ENDTAB
  0
ENDSEC
  0
SECTION
  2
BLOCKS
  0
BLOCK
  8
0
  2
$MODEL_SPACE
 70
     0
 10
0.0
 20
0.0
 30
0.0
  3
$MODEL_SPACE
  1

  0
ENDBLK
  5
9
  8
0
  0
BLOCK
 67
     1
  8
0
  2
$PAPER_SPACE
 70
     0
 10
0.0
 20
0.0
 30
0.0
  3
$PAPER_SPACE
  1

  0
ENDBLK
  5
E
 67
     1
  8
0
  0
BLOCK
  8
0
  2
SIMPSON-STRONG-TIE
 70
     0
 10
0.0
 20
0.0
 30
0.0
  3
SIMPSON-STRONG-TIE
  1

  0
TEXT
  5
AC
  8
0
  6
CONTINUOUS
 10
-4.7318727780691416
 20
4.4215860385237811
 30
0.0
 40
2.0
  1
SIMPSON
 50
316.94148639091338
  7
SST
 72
     1
 11
0.0
 21
0.0
 31
0.0
  0
TEXT
  5
AD
  8
0
  6
CONTINUOUS
 10
-7.9648409725863862
 20
3.4769825481547749
 30
0.0
 40
2.0
  1
Strong-Tie
 50
316.94148639091338
  7
SST
 72
     1
 11
-2.0499999999999541
 21
-2.0499999999999541
 31
0.0
  0
ENDBLK
  5
AE
  8
0
  0
ENDSEC
  0
SECTION
  2
ENTITIES
  0
LINE
  5
29
  8
0
 10
-30.644237995147702
 20
-1.755475997924804
 30
0.0
 11
-30.00561892986298
 21
-0.6492137908935547
 31
0.0
  0
LINE
  5
2A
  8
0
 10
-30.00561892986298
 20
-0.6492137908935547
 30
0.0
 11
-30.01026809215546
 21
0.6222724914550782
 31
0.0
  0
LINE
  5
2B
  8
0
 10
-30.01026809215546
 20
0.6222724914550782
 30
0.0
 11
-30.64438700675964
 21
1.7273426055908201
 31
0.0
  0
LINE
  5
2C
  8
0
 10
-30.64438700675964
 20
1.7273426055908201
 30
0.0
 11
-31.748771667480469
 21
2.3665428161621089
 31
0.0
  0
LINE
  5
2D
  8
0
 10
-31.748771667480469
 20
2.3665428161621089
 30
0.0
 11
-33.026844263076782
 21
2.3641586303710929
 31
0.0
  0
LINE
  5
2E
  8
0
 10
-33.026844263076782
 20
2.3641586303710929
 30
0.0
 11
-34.129112958908081
 21
1.726865768432617
 31
0.0
  0
LINE
  5
2F
  8
0
 10
-34.129112958908081
 20
1.726865768432617
 30
0.0
 11
-34.765169024467468
 21
0.6253719329833986
 31
0.0
  0
LINE
  5
30
  8
0
 10
-34.765169024467468
 20
0.6253719329833986
 30
0.0
 11
-34.76811945438385
 21
-0.6542205810546875
 31
0.0
  0
LINE
  5
31
  8
0
 10
-34.76811945438385
 20
-0.6542205810546875
 30
0.0
 11
-34.128859639167793
 21
-1.7561912536621089
 31
0.0
  0
LINE
  5
32
  8
0
 10
-34.128859639167793
 20
-1.7561912536621089
 30
0.0
 11
-33.023744821548462
 21
-2.3909807205200191
 31
0.0
  0
LINE
  5
33
  8
0
 10
-31.749993562698361
 20
-2.3937225341796871
 30
0.0
 11
-30.644237995147702
 21
-1.755475997924804
 31
0.0
  0
LINE
  5
34
  8
0
 10
-33.023744821548462
 20
-2.3909807205200191
 30
0.0
 11
-31.749993562698361
 21
-2.3937225341796871
 31
0.0
  0
LINE
  5
35
  8
0
 10
30.004173517227169
 20
0.63323974609375
 30
0.0
 11
30.000984668731689
 21
-0.6387233734130861
 31
0.0
  0
LINE
  5
36
  8
0
 10
30.000984668731689
 20
-0.6387233734130861
 30
0.0
 11
30.63926100730896
 21
-1.7447471618652339
 31
0.0
  0
LINE
  5
37
  8
0
 10
31.742602586746219
 20
2.3777484893798819
 30
0.0
 11
30.639022588729858
 21
1.738309860229492
 31
0.0
  0
LINE
  5
38
  8
0
 10
30.639022588729858
 20
1.738309860229492
 30
0.0
 11
30.004173517227169
 21
0.63323974609375
 31
0.0
  0
LINE
  5
39
  8
0
 10
34.121870994567871
 20
1.738309860229492
 30
0.0
 11
33.020526170730591
 21
2.3741722106933589
 31
0.0
  0
LINE
  5
3A
  8
0
 10
33.020526170730591
 20
2.3741722106933589
 30
0.0
 11
31.742602586746219
 21
2.3777484893798819
 31
0.0
  0
LINE
  5
3B
  8
0
 10
34.762173891067498
 20
-0.6439685821533204
 30
0.0
 11
34.759223461151123
 21
0.6363391876220704
 31
0.0
  0
LINE
  5
3C
  8
0
 10
34.759223461151123
 20
0.6363391876220704
 30
0.0
 11
34.121870994567871
 21
1.738309860229492
 31
0.0
  0
LINE
  5
3D
  8
0
 10
33.017575740814209
 20
-2.3804903030395499
 30
0.0
 11
34.122586250305183
 21
-1.7461776733398431
 31
0.0
  0
LINE
  5
3E
  8
0
 10
34.122586250305183
 20
-1.7461776733398431
 30
0.0
 11
34.762173891067498
 21
-0.6439685821533204
 31
0.0
  0
LINE
  5
3F
  8
0
 10
31.745374202728271
 20
-2.3832321166992179
 30
0.0
 11
33.017575740814209
 21
-2.3804903030395499
 31
0.0
  0
LINE
  5
40
  8
0
 10
30.63926100730896
 20
-1.7447471618652339
 30
0.0
 11
31.745374202728271
 21
-2.3832321166992179
 31
0.0
  0
CIRCLE
  5
41
  8
0
 39
1.1999999405816191
 10
0.0
 20
0.0
 30
0.0
 40
10.10001357644796
  0
CIRCLE
  5
42
  8
0
 39
1.1999999405816191
 10
0.0
 20
0.0
 30
0.0
 40
11.600018478929989
  0
LINE
  5
43
  8
0
 10
0.0
 20
-42.824625968933098
 30
0.0
 11
4.3960511684417716
 21
-28.415799140930169
 31
0.0
  0
LINE
  5
44
  8
0
 10
3.938347101211547
 20
-29.916644096374512
 30
0.0
 11
-3.9380788803100581
 21
-29.916644096374512
 31
0.0
  0
LINE
  5
45
  8
0
 10
-4.3959915637969971
 20
-28.416156768798832
 30
0.0
 11
0.0
 21
-42.824625968933098
 31
0.0
  0
LINE
  5
46
  8
0
 10
4.3960511684417716
 20
-28.415799140930169
 30
0.0
 11
-4.3959915637969971
 21
-28.416156768798832
 31
0.0
  0
LINE
  5
47
  8
0
 39
1.477894722484052
 10
0.0
 20
-29.91640567779541
 30
0.0
 11
0.0
 21
-28.416156768798832
 31
0.0
  0
LINE
  5
48
  8
0
 10
0.0
 20
-58.499455451965332
 30
0.0
 11
12.362688779830931
 21
-46.13757133483886
 31
0.0
  0
LINE
  5
49
  8
0
 10
-12.48174905776977
 20
-48.135876655578613
 30
0.0
 11
-12.359976768493651
 21
-46.135187149047852
 31
0.0
  0
LINE
  5
4A
  8
0
 10
-12.48174905776977
 20
-48.135876655578613
 30
0.0
 11
-2.06032395362854
 21
-58.56025218963623
 31
0.0
  0
LINE
  5
4B
  8
0
 10
0.0012218952178955
 20
-58.500528335571282
 30
0.0
 11
-2.0611882209777832
 21
-58.559656143188469
 31
0.0
  0
LINE
  5
4C
  8
0
 39
1.477894722484052
 10
-7.2711110115051261
 20
-53.348302841186523
 30
0.0
 11
-6.18019700050354
 21
-52.319169044494622
 31
0.0
  0
LINE
  5
4D
  8
0
 10
-12.361675500869749
 20
-46.136736869812012
 30
0.0
 11
0.0
 21
-58.499455451965332
 31
0.0
  0
LINE
  5
4E
  8
0
 10
37.087380886077881
 20
-21.412372589111332
 30
0.0
 11
26.807010173797611
 21
-10.400772094726561
 31
0.0
  0
LINE
  5
4F
  8
0
 10
27.8778076171875
 20
-11.54756546020508
 30
0.0
 11
23.939639329910278
 21
-18.368721008300781
 31
0.0
  0
LINE
  5
50
  8
0
 10
22.411137819290161
 20
-18.01502704620361
 30
0.0
 11
37.087380886077881
 21
-21.412372589111332
 31
0.0
  0
LINE
  5
51
  8
0
 10
26.807010173797611
 20
-10.400772094726561
 30
0.0
 11
22.411137819290161
 21
-18.01502704620361
 31
0.0
  0
LINE
  5
52
  8
0
 39
1.477894722484052
 10
25.908499956130981
 20
-14.958024024963381
 30
0.0
 11
24.609118700027469
 21
-14.208078384399411
 31
0.0
  0
LINE
  5
53
  8
0
 10
37.087380886077881
 20
21.41261100769043
 30
0.0
 11
22.41089940071106
 21
18.015146255493161
 31
0.0
  0
LINE
  5
54
  8
0
 10
23.93949031829834
 20
18.368959426879879
 30
0.0
 11
27.877777814865109
 21
11.548042297363279
 31
0.0
  0
LINE
  5
55
  8
0
 10
26.807159185409549
 20
10.40124893188476
 30
0.0
 11
37.087380886077881
 21
21.41261100769043
 31
0.0
  0
LINE
  5
56
  8
0
 10
22.41089940071106
 20
18.015146255493161
 30
0.0
 11
26.807159185409549
 21
10.40124893188476
 31
0.0
  0
LINE
  5
57
  8
0
 39
1.477894722484052
 10
25.90847015380859
 20
14.958381652832029
 30
0.0
 11
24.609118700027469
 21
14.208078384399411
 31
0.0
  0
LINE
  5
58
  8
0
 10
0.0
 20
42.824745178222649
 30
0.0
 11
-4.3961405754089347
 21
28.41591835021973
 31
0.0
  0
LINE
  5
59
  8
0
 10
-3.9382576942443839
 20
29.916763305664059
 30
0.0
 11
3.9381086826324458
 21
29.916763305664059
 31
0.0
  0
LINE
  5
5A
  8
0
 10
4.3959617614746094
 20
28.416156768798832
 30
0.0
 11
0.0
 21
42.824745178222649
 31
0.0
  0
LINE
  5
5B
  8
0
 10
-4.3961405754089347
 20
28.41591835021973
 30
0.0
 11
4.3959617614746094
 21
28.416156768798832
 31
0.0
  0
LINE
  5
5C
  8
0
 39
1.477894722484052
 10
0.0
 20
29.916524887084961
 30
0.0
 11
-0.0000298023223877
 21
28.416156768798832
 31
0.0
  0
LINE
  5
5D
  8
0
 10
-37.087306380271912
 20
21.412372589111332
 30
0.0
 11
-26.80698037147522
 21
10.400772094726561
 31
0.0
  0
LINE
  5
5E
  8
0
 10
-27.877688407897949
 20
11.54756546020508
 30
0.0
 11
-23.939609527587891
 21
18.368959426879879
 31
0.0
  0
LINE
  5
5F
  8
0
 10
-22.411122918128971
 20
18.015146255493161
 30
0.0
 11
-37.087306380271912
 21
21.412372589111332
 31
0.0
  0
LINE
  5
60
  8
0
 10
-26.80698037147522
 20
10.400772094726561
 30
0.0
 11
-22.411122918128971
 21
18.015146255493161
 31
0.0
  0
LINE
  5
61
  8
0
 39
1.477894722484052
 10
-25.908380746841431
 20
14.958381652832029
 30
0.0
 11
-24.609103798866268
 21
14.208078384399411
 31
0.0
  0
LINE
  5
62
  8
0
 10
-37.087216973304749
 20
-21.412372589111332
 30
0.0
 11
-22.410780191421509
 21
-18.015265464782711
 31
0.0
  0
LINE
  5
63
  8
0
 10
-23.939326405525211
 20
-18.36907863616943
 30
0.0
 11
-27.877643704414371
 21
-11.54780387878418
 31
0.0
  0
LINE
  5
64
  8
0
 10
-26.807025074958801
 20
-10.401010513305661
 30
0.0
 11
-37.087216973304749
 21
-21.412372589111332
 31
0.0
  0
LINE
  5
65
  8
0
 10
-22.410780191421509
 20
-18.015265464782711
 30
0.0
 11
-26.807025074958801
 21
-10.401010513305661
 31
0.0
  0
LINE
  5
66
  8
0
 39
1.477894722484052
 10
-25.908291339874271
 20
-14.95826244354248
 30
0.0
 11
-24.608999490737911
 21
-14.208078384399411
 31
0.0
  0
LINE
  5
67
  8
0
 10
29.249727725982659
 20
-50.662040710449212
 30
0.0
 11
33.775240182876587
 21
-33.774971961975098
 31
0.0
  0
LINE
  5
68
  8
0
 10
13.25839757919311
 20
-47.927737236022942
 30
0.0
 11
12.36355304718017
 21
-46.134114265441887
 31
0.0
  0
LINE
  5
69
  8
0
 10
13.25839757919311
 20
-47.927737236022942
 30
0.0
 11
27.4958610534668
 21
-51.744937896728509
 31
0.0
  0
LINE
  5
6A
  8
0
 10
29.251366853713989
 20
-50.662517547607422
 30
0.0
 11
27.49478816986084
 21
-51.744818687438958
 31
0.0
  0
LINE
  5
6B
  8
0
 39
1.477894722484052
 10
20.377218723297119
 20
-49.836516380310051
 30
0.0
 11
20.807415246963501
 21
-48.399806022644043
 31
0.0
  0
LINE
  5
6C
  8
0
 10
12.36280798912048
 20
-46.136379241943352
 30
0.0
 11
29.249727725982659
 21
-50.662040710449212
 31
0.0
  0
LINE
  5
6D
  8
0
 10
50.662040710449212
 20
-29.249787330627441
 30
0.0
 11
46.137690544128411
 21
-12.362480163574221
 31
0.0
  0
LINE
  5
6E
  8
0
 10
35.446017980575562
 20
-34.877419471740723
 30
0.0
 11
33.774256706237793
 21
-33.771634101867683
 31
0.0
  0
LINE
  5
6F
  8
0
 10
35.446017980575562
 20
-34.877419471740723
 30
0.0
 11
49.684584140777581
 21
-31.06439113616943
 31
0.0
  0
LINE
  5
70
  8
0
 10
50.663620233535759
 20
-29.249191284179691
 30
0.0
 11
49.683600664138787
 21
-31.06486797332764
 31
0.0
  0
LINE
  5
71
  8
0
 39
1.477894722484052
 10
42.565435171127312
 20
-32.970905303955078
 30
0.0
 11
42.219668626785271
 21
-31.511664390563961
 31
0.0
  0
LINE
  5
72
  8
0
 10
33.774733543396003
 20
-33.774018287658691
 30
0.0
 11
50.662040710449212
 21
-29.249787330627441
 31
0.0
  0
LINE
  5
73
  8
0
 10
58.499485254287713
 20
0.0
 30
0.0
 11
46.13766074180603
 21
12.36271858215332
 31
0.0
  0
LINE
  5
74
  8
0
 10
48.135876655578613
 20
-12.481689453125
 30
0.0
 11
46.135187149047852
 21
-12.359738349914551
 31
0.0
  0
LINE
  5
75
  8
0
 10
48.135876655578613
 20
-12.481689453125
 30
0.0
 11
58.560341596603386
 21
-2.0604133605957031
 31
0.0
  0
LINE
  5
76
  8
0
 10
58.500647544860833
 20
0.0011920928955078
 30
0.0
 11
58.559745550155633
 21
-2.0611286163330069
 31
0.0
  0
LINE
  5
77
  8
0
 39
1.477894722484052
 10
53.348302841186523
 20
-7.2709321975707999
 30
0.0
 11
52.319258451461792
 21
-6.1802864074707031
 31
0.0
  0
LINE
  5
78
  8
0
 10
46.136766672134392
 20
-12.361764907836911
 30
0.0
 11
58.499485254287713
 21
0.0
 31
0.0
  0
LINE
  5
79
  8
0
 10
50.662070512771599
 20
29.249668121337891
 30
0.0
 11
33.775031566619873
 21
33.77532958984375
 31
0.0
  0
LINE
  5
7A
  8
0
 10
47.92776703834533
 20
13.258457183837891
 30
0.0
 11
46.134203672409051
 21
12.36343383789062
 31
0.0
  0
LINE
  5
7B
  8
0
 10
47.92776703834533
 20
13.258457183837891
 30
0.0
 11
51.744908094406121
 21
27.4958610534668
 31
0.0
  0
LINE
  5
7C
  8
0
 10
50.662457942962639
 20
29.251337051391602
 30
0.0
 11
51.74487829208374
 21
27.494668960571289
 31
0.0
  0
LINE
  5
7D
  8
0
 39
1.477894722484052
 10
49.836546182632439
 20
20.377397537231442
 30
0.0
 11
48.399925231933587
 21
20.807504653930661
 31
0.0
  0
LINE
  5
7E
  8
0
 10
46.136528253555291
 20
12.36271858215332
 30
0.0
 11
50.662070512771599
 21
29.249668121337891
 31
0.0
  0
LINE
  5
7F
  8
0
 10
29.249787330627441
 20
50.662040710449212
 30
0.0
 11
12.36242055892944
 21
46.137809753417962
 31
0.0
  0
LINE
  5
80
  8
0
 10
34.87744927406311
 20
35.4461669921875
 30
0.0
 11
33.771634101867683
 21
33.774137496948242
 31
0.0
  0
LINE
  5
81
  8
0
 10
34.87744927406311
 20
35.4461669921875
 30
0.0
 11
31.0644805431366
 21
49.684524536132813
 31
0.0
  0
LINE
  5
82
  8
0
 10
29.249340295791619
 20
50.663471221923821
 30
0.0
 11
31.064987182617191
 21
49.683809280395501
 31
0.0
  0
LINE
  5
83
  8
0
 39
1.477894722484052
 10
32.971113920211792
 20
42.565584182739251
 30
0.0
 11
31.51190280914307
 21
42.219638824462891
 31
0.0
  0
LINE
  5
84
  8
0
 10
33.774018287658691
 20
33.774852752685547
 30
0.0
 11
29.249787330627441
 21
50.662040710449212
 31
0.0
  0
LINE
  5
85
  8
0
 10
0.0
 20
58.499574661254883
 30
0.0
 11
-12.362688779830931
 21
46.137809753417962
 31
0.0
  0
LINE
  5
86
  8
0
 10
12.481719255447381
 20
48.135995864868157
 30
0.0
 11
12.359976768493651
 21
46.135187149047852
 31
0.0
  0
LINE
  5
87
  8
0
 10
12.481719255447381
 20
48.135995864868157
 30
0.0
 11
2.0603537559509268
 21
58.560371398925781
 31
0.0
  0
LINE
  5
88
  8
0
 10
-0.0011026859283447
 20
58.500528335571282
 30
0.0
 11
2.06121802330017
 21
58.559894561767571
 31
0.0
  0
LINE
  5
89
  8
0
 39
1.477894722484052
 10
7.2710812091827393
 20
53.348541259765618
 30
0.0
 11
6.1803162097930899
 21
52.319288253784173
 31
0.0
  0
LINE
  5
8A
  8
0
 10
12.3617947101593
 20
46.136856079101563
 30
0.0
 11
0.0
 21
58.499574661254883
 31
0.0
  0
LINE
  5
8B
  8
0
 10
-29.24975752830505
 20
50.662040710449212
 30
0.0
 11
-33.775255084037781
 21
33.775091171264648
 31
0.0
  0
LINE
  5
8C
  8
0
 10
-13.25848698616028
 20
47.9278564453125
 30
0.0
 11
-12.36352324485779
 21
46.134233474731438
 31
0.0
  0
LINE
  5
8D
  8
0
 10
-13.25848698616028
 20
47.9278564453125
 30
0.0
 11
-27.495846152305599
 21
51.744937896728509
 31
0.0
  0
LINE
  5
8E
  8
0
 10
-29.251247644424438
 20
50.66227912902832
 30
0.0
 11
-27.494817972183231
 21
51.744937896728509
 31
0.0
  0
LINE
  5
8F
  8
0
 39
1.477894722484052
 10
-20.377233624458309
 20
49.836635589599602
 30
0.0
 11
-20.80729603767395
 21
48.399925231933587
 31
0.0
  0
LINE
  5
90
  8
0
 10
-12.36274838447571
 20
46.136617660522461
 30
0.0
 11
-29.24975752830505
 21
50.662040710449212
 31
0.0
  0
LINE
  5
91
  8
0
 10
-50.662055611610413
 20
29.249668121337891
 30
0.0
 11
-46.137720346450799
 21
12.362480163574221
 31
0.0
  0
LINE
  5
92
  8
0
 10
-35.446077585220337
 20
34.877538681030273
 30
0.0
 11
-33.774182200431817
 21
33.771514892578118
 31
0.0
  0
LINE
  5
93
  8
0
 10
-35.446077585220337
 20
34.877538681030273
 30
0.0
 11
-49.684509634971612
 21
31.064510345458981
 31
0.0
  0
LINE
  5
94
  8
0
 10
-50.663515925407403
 20
29.249429702758789
 30
0.0
 11
-49.683630466461182
 21
31.064987182617191
 31
0.0
  0
LINE
  5
95
  8
0
 39
1.477894722484052
 10
-42.5654649734497
 20
32.97114372253418
 30
0.0
 11
-42.21954941749572
 21
31.512022018432621
 31
0.0
  0
LINE
  5
96
  8
0
 10
-33.774718642234802
 20
33.774137496948242
 30
0.0
 11
-50.662055611610413
 21
29.249668121337891
 31
0.0
  0
LINE
  5
97
  8
0
 10
-58.4995150566101
 20
0.0
 30
0.0
 11
-46.137630939483643
 21
-12.36271858215332
 31
0.0
  0
LINE
  5
98
  8
0
 10
-48.135906457901001
 20
12.481689453125
 30
0.0
 11
-46.1350530385971
 21
12.3600959777832
 31
0.0
  0
LINE
  5
99
  8
0
 10
-48.135906457901001
 20
12.481689453125
 30
0.0
 11
-58.560267090797417
 21
2.0601749420166011
 31
0.0
  0
LINE
  5
9A
  8
0
 10
-58.5004836320877
 20
-0.0011920928955078
 30
0.0
 11
-58.559730648994439
 21
2.0611286163330069
 31
0.0
  0
LINE
  5
9B
  8
0
 39
1.477894722484052
 10
-53.348332643508911
 20
7.2712898254394531
 30
0.0
 11
-52.319079637527459
 21
6.1802864074707031
 31
0.0
  0
LINE
  5
9C
  8
0
 10
-46.136751770973198
 20
12.361764907836911
 30
0.0
 11
-58.4995150566101
 21
0.0
 31
0.0
  0
LINE
  5
9D
  8
0
 10
-50.662055611610413
 20
-29.249787330627441
 30
0.0
 11
-33.774957060813897
 21
-33.775091171264648
 31
0.0
  0
LINE
  5
9E
  8
0
 10
-47.927737236022942
 20
-13.25857639312744
 30
0.0
 11
-46.1340844631195
 21
-12.363672256469719
 31
0.0
  0
LINE
  5
9F
  8
0
 10
-47.927737236022942
 20
-13.25857639312744
 30
0.0
 11
-51.744848489761353
 21
-27.495622634887692
 31
0.0
  0
LINE
  5
A0
  8
0
 10
-50.662308931350701
 20
-29.251217842102051
 30
0.0
 11
-51.74478888511657
 21
-27.494907379150391
 31
0.0
  0
LINE
  5
A1
  8
0
 39
1.477894722484052
 10
-49.836531281471252
 20
-20.37715911865234
 30
0.0
 11
-48.39974641799926
 21
-20.807266235351559
 31
0.0
  0
LINE
  5
A2
  8
0
 10
-46.136468648910522
 20
-12.362837791442869
 30
0.0
 11
-50.662055611610413
 21
-29.249787330627441
 31
0.0
  0
LINE
  5
A3
  8
0
 10
-29.24975752830505
 20
-50.662040710449212
 30
0.0
 11
-12.362301349639891
 21
-46.13757133483886
 31
0.0
  0
LINE
  5
A4
  8
0
 10
-34.877359867095947
 20
-35.445928573608398
 30
0.0
 11
-33.771470189094543
 21
-33.774137496948242
 31
0.0
  0
LINE
  5
A5
  8
0
 10
-34.877359867095947
 20
-35.445928573608398
 30
0.0
 11
-31.064420938491821
 21
-49.684405326843262
 31
0.0
  0
LINE
  5
A6
  8
0
 10
-29.249221086502072
 20
-50.663471221923821
 30
0.0
 11
-31.064853072166439
 21
-49.683451652526848
 31
0.0
  0
LINE
  5
A7
  8
0
 39
1.477894722484052
 10
-32.971039414405823
 20
-42.5654649734497
 30
0.0
 11
-31.511768698692318
 21
-42.219519615173333
 31
0.0
  0
LINE
  5
A8
  8
0
 10
-33.773943781852722
 20
-33.774733543396003
 30
0.0
 11
-29.24975752830505
 21
-50.662040710449212
 31
0.0
  0
INSERT
  5
A9
  8
0
  2
SIMPSON-STRONG-TIE
 10
13.782738284789049
 20
14.85594367960039
 30
0.0
  0
ENDSEC
  0
EOF
