  0
SECTION
  2
HEADER
  9
$ACADVER
  1
AC1012
  9
$DWGCODEPAGE
  3
ANSI_1252
  9
$INSBASE
 10
0.0
 20
0.0
 30
0.0
  9
$EXTMIN
 10
-514.85104731
 20
-932.93538664
  9
$EXTMAX
 10
178.05670565
 20
20.25243595
  9
$LIMMIN
 10
-514.85104731
 20
-932.93538664
  9
$LIMMAX
 10
178.05670565
 20
20.25243595
  9
$ORTHOMODE
 70
     0
  9
$REGENMODE
 70
     1
  9
$FILLMODE
 70
     1
  9
$QTEXTMODE
 70
     0
  9
$MIRRTEXT
 70
     1
  9
$DRAGMODE
 70
     2
  9
$LTSCALE
 40
1.0
  9
$OSMODE
 70
     0
  9
$ATTMODE
 70
     1
  9
$TEXTSIZE
 40
3.5
  9
$TRACEWID
 40
1.0
  9
$TEXTSTYLE
  7
STANDARD
  9
$CLAYER
  8
0
  9
$CELTYPE
  6
BYLAYER
  9
$CECOLOR
 62
   256
  9
$DIMSCALE
 40
1.0
  9
$DIMASZ
 40
2.0
  9
$DIMEXO
 40
5.0
  9
$DIMDLI
 40
10.0
  9
$DIMRND
 40
0.0
  9
$DIMDLE
 40
2.0
  9
$DIMEXE
 40
2.0
  9
$DIMTP
 40
0.0
  9
$DIMTM
 40
0.0
  9
$DIMTXT
 40
2.5
  9
$DIMCEN
 40
1.5
  9
$DIMTSZ
 40
0.0
  9
$DIMTOL
 70
     0
  9
$DIMLIM
 70
     0
  9
$DIMTIH
 70
     1
  9
$DIMTOH
 70
     0
  9
$DIMSE1
 70
     0
  9
$DIMSE2
 70
     0
  9
$DIMTAD
 70
     1
  9
$DIMZIN
 70
     8
  9
$DIMBLK
  1

  9
$DIMASO
 70
     1
  9
$DIMSHO
 70
     1
  9
$DIMPOST
  1

  9
$DIMAPOST
  1

  9
$DIMALT
 70
     0
  9
$DIMALTD
 70
     2
  9
$DIMALTF
 40
25.4
  9
$DIMLFAC
 40
1.0
  9
$DIMTOFL
 70
     0
  9
$DIMTVP
 40
0.0
  9
$DIMTIX
 70
     0
  9
$DIMSOXD
 70
     0
  9
$DIMSAH
 70
     0
  9
$DIMBLK1
  1

  9
$DIMBLK2
  1

  9
$DIMSTYLE
  2
*UNNAMED
  9
$DIMCLRD
 70
     9
  9
$DIMCLRE
 70
     9
  9
$DIMCLRT
 70
     7
  9
$DIMTFAC
 40
1.0
  9
$DIMGAP
 40
0.09
  9
$DIMUNIT
 70
     2
  9
$LUNITS
 70
     2
  9
$LUPREC
 70
     6
  9
$AXISMODE
 70
     0
  9
$AXISUNIT
 10
0.0
 20
0.0
  9
$SKETCHINC
 40
0.1
  9
$FILLETRAD
 40
0.0
  9
$AUNITS
 70
     0
  9
$AUPREC
 70
     0
  9
$MENU
  1
ACAD
  9
$ELEVATION
 40
0.0
  9
$PELEVATION
 40
0.0
  9
$THICKNESS
 40
0.0
  9
$LIMCHECK
 70
     0
  9
$BLIPMODE
 70
     1
  9
$CHAMFERA
 40
0.0
  9
$CHAMFERB
 40
0.0
  9
$SKPOLY
 70
     1
  9
$TDCREATE
 40
2456310.0000000000
  9
$TDUPDATE
 40
2456310.0000000000
  9
$TDINDWG
 40
0.0
  9
$TDUSRTIMER
 40
0.0
  9
$USRTIMER
 70
     1
  9
$ANGBASE
 50
0.0
  9
$ANGDIR
 70
     0
  9
$PDMODE
 70
     0
  9
$PDSIZE
 40
0.0
  9
$PLINEWID
 40
0.0
  9
$COORDS
 70
     2
  9
$SPLFRAME
 70
     0
  9
$SPLINETYPE
 70
     6
  9
$SPLINESEGS
 70
     8
  9
$ATTDIA
 70
     1
  9
$ATTREQ
 70
     1
  9
$HANDLING
 70
     1
  9
$HANDSEED
  5
     324
  9
$SURFTAB1
 70
     6
  9
$SURFTAB2
 70
     6
  9
$SURFTYPE
 70
     6
  9
$SURFU
 70
     6
  9
$SURFV
 70
     6
  9
$UCSNAME
  2

  9
$UCSORG
 10
0.0
 20
0.0
 30
0.0
  9
$UCSXDIR
 10
1.0
 20
0.0
 30
0.0
  9
$UCSYDIR
 10
0.0
 20
1.0
 30
0.0
  9
$PUCSNAME
  2

  9
$PUCSORG
 10
0.0
 20
0.0
 30
0.0
  9
$PUCSXDIR
 10
1.0
 20
0.0
 30
0.0
  9
$PUCSYDIR
 10
0.0
 20
1.0
 30
0.0
  9
$USERI1
 70
     0
  9
$USERI2
 70
     0
  9
$USERI3
 70
     0
  9
$USERI4
 70
     0
  9
$USERI5
 70
     0
  9
$USERR1
 40
0.0
  9
$USERR2
 40
0.0
  9
$USERR3
 40
0.0
  9
$USERR4
 40
0.0
  9
$USERR5
 40
0.0
  9
$WORLDVIEW
 70
     1
  9
$SHADEDGE
 70
     3
  9
$SHADEDIF
 70
    70
  9
$TILEMODE
 70
     1
  9
$MAXACTVP
 70
    16
  9
$PINSBASE
 10
0.0
 20
0.0
 30
0.0
  9
$PLIMCHECK
 70
     0
  9
$PEXTMIN
 10
1.0000000000000E+20
 20
1.0000000000000E+20
 30
1.0000000000000E+20
  9
$PEXTMAX
 10
-1.0000000000000E+20
 20
-1.0000000000000E+20
 30
-1.0000000000000E+20
  9
$PLIMMIN
 10
0.0
 20
0.0
  9
$UNITMODE
 70
     0
  9
$VISRETAIN
 70
     0
  9
$MEASUREMENT
 70
     1
  0
ENDSEC
  0
SECTION
  2
TABLES
  0
TABLE
  2
VPORT
  5
8A
100
AcDbSymbolTable
 70
     1
  0
ENDTAB
  0
TABLE
  2
STYLE
  5
8B
100
AcDbSymbolTable
 70
     4
  0
STYLE
  5
8C
100
AcDbSymbolTableRecord
100
AcDbTextStyleTableRecord
  2
STANDARD
 70
     0
 40
0.0
 41
1.0
 50
0.0
 71
     0
 42
3.5
  3
MONOTXT
  4

  0
STYLE
  5
8D
100
AcDbSymbolTableRecord
100
AcDbTextStyleTableRecord
  2
CADWORK1
 70
     0
 40
0.0
 41
1.0
 50
0.0
 71
     0
 42
3.5
  3
MONOTXT
  4

  0
STYLE
  5
8E
100
AcDbSymbolTableRecord
100
AcDbTextStyleTableRecord
  2
MONOTXT
 70
     0
 40
0.0
 41
1.0
 50
0.0
 71
     0
 42
3.5
  3
MONOTXT
  4

  0
STYLE
  5
8F
100
AcDbSymbolTableRecord
100
AcDbTextStyleTableRecord
  2
TAHOMA
 70
     0
 40
0.0
 41
1.0
 50
0.0
 71
     0
 42
3.5
  3

  4

1001
ACAD
1000
Tahoma
1071
        0
  0
STYLE
  5
90
100
AcDbSymbolTableRecord
100
AcDbTextStyleTableRecord
  2
ARIAL
 70
     0
 40
0.0
 41
1.0
 50
0.0
 71
     0
 42
3.5
  3

  4

1001
ACAD
1000
Arial
1071
        0
  0
ENDTAB
  0
TABLE
  2
LTYPE
  5
91
100
AcDbSymbolTable
 70
    12
  0
LTYPE
  5
92
100
AcDbSymbolTableRecord
100
AcDbLinetypeTableRecord
  2
BYBLOCK
 70
    64
  3

 72
    65
 73
     0
 40
0.0
  0
LTYPE
  5
93
100
AcDbSymbolTableRecord
100
AcDbLinetypeTableRecord
  2
BYLAYER
 70
    64
  3

 72
    65
 73
     0
 40
0.0
  0
LTYPE
  5
94
100
AcDbSymbolTableRecord
100
AcDbLinetypeTableRecord
  2
CONTINUOUS
 70
    64
  3
Solid line
 72
    65
 73
     0
 40
0.0
  0
LTYPE
  5
95
100
AcDbSymbolTableRecord
100
AcDbLinetypeTableRecord
  2
DOT
 70
    64
  3
. . . . . . . . . . . . . . . . . . . . . . . .
 72
    65
 73
     2
 40
2.5
 49
0.0
 74
     0
 49
-2.5
 74
     0
  0
LTYPE
  5
96
100
AcDbSymbolTableRecord
100
AcDbLinetypeTableRecord
  2
DASHED
 70
    64
  3
__ __ __ __ __ __ __ __ __ __ __ __ __ __ __ __
 72
    65
 73
     2
 40
7.5
 49
5.0
 74
     0
 49
-2.5
 74
     0
  0
LTYPE
  5
97
100
AcDbSymbolTableRecord
100
AcDbLinetypeTableRecord
  2
BORDER
 70
    64
  3
 __ __ . __ __ . __ __ . __ __ . __ __ . __ __ .
 72
    65
 73
     6
 40
17.0
 49
5.0
 74
     0
 49
-2.0
 74
     0
 49
5.0
 74
     0
 49
-2.0
 74
     0
 49
1.0
 74
     0
 49
-2.0
 74
     0
  0
LTYPE
  5
98
100
AcDbSymbolTableRecord
100
AcDbLinetypeTableRecord
  2
DAL
 70
    64
  3
Solid line (for MAPS)
 72
    65
 73
     0
 40
0.0
  0
LTYPE
  5
99
100
AcDbSymbolTableRecord
100
AcDbLinetypeTableRecord
  2
MUR
 70
    64
  3
Solid line (for MAPS)
 72
    65
 73
     0
 40
0.0
  0
LTYPE
  5
9A
100
AcDbSymbolTableRecord
100
AcDbLinetypeTableRecord
  2
SOM
 70
    64
  3
Solid line (for MAPS)
 72
    65
 73
     0
 40
0.0
  0
LTYPE
  5
9B
100
AcDbSymbolTableRecord
100
AcDbLinetypeTableRecord
  2
COL
 70
    64
  3
Solid line (for MAPS)
 72
    65
 73
     0
 40
0.0
  0
LTYPE
  5
9C
100
AcDbSymbolTableRecord
100
AcDbLinetypeTableRecord
  2
LGN
 70
    64
  3
Solid line (for MAPS)
 72
    65
 73
     0
 40
0.0
  0
LTYPE
  5
9D
100
AcDbSymbolTableRecord
100
AcDbLinetypeTableRecord
  2
PNT
 70
    64
  3
Solid line (for MAPS)
 72
    65
 73
     0
 40
0.0
  0
ENDTAB
  0
TABLE
  2
LAYER
  5
9E
100
AcDbSymbolTable
 70
     1
  0
LAYER
  5
9F
100
AcDbSymbolTableRecord
100
AcDbLayerTableRecord
  2
0
 70
     0
 62
     1
  6
CONTINUOUS
  0
LAYER
  5
A0
100
AcDbSymbolTableRecord
100
AcDbLayerTableRecord
  2
MST_1_1
 70
     0
 62
     7
  6
CONTINUOUS
  0
ENDTAB
  0
TABLE
  2
VIEW
  5
A1
100
AcDbSymbolTable
 70
     0
  0
ENDTAB
  0
TABLE
  2
UCS
  5
A2
100
AcDbSymbolTable
 70
     0
  0
ENDTAB
  0
TABLE
  2
APPID
  5
A3
100
AcDbSymbolTable
 70
     1
  0
APPID
  5
A4
100
AcDbSymbolTableRecord
100
AcDbRegAppTableRecord
  2
ACAD
 70
     0
  0
ENDTAB
  0
TABLE
  2
DIMSTYLE
  5
A5
100
AcDbSymbolTable
 70
     0
  0
ENDTAB
  0
TABLE
  2
BLOCK_RECORD
  5
A6
100
AcDbSymbolTable
 70
     0
  0
BLOCK_RECORD
  5
A7
100
AcDbSymbolTableRecord
100
AcDbBlockTableRecord
  2
*MODEL_SPACE
  0
BLOCK_RECORD
  5
A8
100
AcDbSymbolTableRecord
100
AcDbBlockTableRecord
  2
*PAPER_SPACE
  0
BLOCK_RECORD
  5
A9
100
AcDbSymbolTableRecord
100
AcDbBlockTableRecord
  2
CDWK_EXTR_0
  0
BLOCK_RECORD
  5
AA
100
AcDbSymbolTableRecord
100
AcDbBlockTableRecord
  2
CDWK_EXTR_1D
  0
BLOCK_RECORD
  5
AB
100
AcDbSymbolTableRecord
100
AcDbBlockTableRecord
  2
CDWK_EXTR_1G
  0
BLOCK_RECORD
  5
AC
100
AcDbSymbolTableRecord
100
AcDbBlockTableRecord
  2
CDWK_EXTR_2
  0
BLOCK_RECORD
  5
AD
100
AcDbSymbolTableRecord
100
AcDbBlockTableRecord
  2
CDWK_EXTR_3
  0
BLOCK_RECORD
  5
AE
100
AcDbSymbolTableRecord
100
AcDbBlockTableRecord
  2
CDWK_EXTR_4
  0
BLOCK_RECORD
  5
AF
100
AcDbSymbolTableRecord
100
AcDbBlockTableRecord
  2
CDWK_PTTYP0
  0
ENDTAB
  0
ENDSEC
  0
SECTION
  2
BLOCKS
  0
BLOCK
  5
B0
100
AcDbEntity
  8
0
100
AcDbBlockBegin
  2
*MODEL_SPACE
 70
     0
 10
0.0
 20
0.0
 30
0.0
  3
*MODEL_SPACE
  1

  0
ENDBLK
  5
B1
100
AcDbEntity
100
AcDbBlockEnd
  0
BLOCK
  5
B2
100
AcDbEntity
  8
0
100
AcDbBlockBegin
  2
*PAPER_SPACE
 70
     0
 10
0.0
 20
0.0
 30
0.0
  3
*PAPER_SPACE
  1

  0
ENDBLK
  5
B3
100
AcDbEntity
100
AcDbBlockEnd
  0
BLOCK
  5
B4
100
AcDbEntity
  8
0
100
AcDbBlockBegin
  2
CDWK_EXTR_0
 70
     0
 10
0.0
 20
0.0
 30
0.0
  3
CDWK_EXTR_0
  1

  4
Cadwork line-extremity
  0
LINE
  5
B5
100
AcDbEntity
  8
0
 62
     0
100
AcDbLine
 10
0.0
 20
0.0
 30
0.0
 11
2.0
 21
0.5
 31
0.0
  0
LINE
  5
B6
100
AcDbEntity
  8
0
 62
     0
100
AcDbLine
 10
0.0
 20
0.0
 30
0.0
 11
2.0
 21
-0.5
 31
0.0
  0
LINE
  5
B7
100
AcDbEntity
  8
0
 62
     0
100
AcDbLine
 10
2.0
 20
0.5
 30
0.0
 11
2.0
 21
-0.5
 31
0.0
  0
ENDBLK
  5
B8
100
AcDbEntity
100
AcDbBlockEnd
  0
BLOCK
  5
B9
100
AcDbEntity
  8
0
100
AcDbBlockBegin
  2
CDWK_EXTR_1D
 70
     0
 10
0.0
 20
0.0
 30
0.0
  3
CDWK_EXTR_1D
  1

  4
Cadwork line-extremity
  0
LINE
  5
BA
100
AcDbEntity
  8
0
 62
     0
100
AcDbLine
 10
0.0
 20
0.0
 30
0.0
 11
0.0
 21
1.0
 31
0.0
  0
LINE
  5
BB
100
AcDbEntity
  8
0
 62
     0
100
AcDbLine
 10
0.0
 20
1.0
 30
0.0
 11
0.5
 21
1.5
 31
0.0
  0
LINE
  5
BC
100
AcDbEntity
  8
0
 62
     0
100
AcDbLine
 10
0.5
 20
1.5
 30
0.0
 11
1.5
 21
1.5
 31
0.0
  0
ENDBLK
  5
BD
100
AcDbEntity
100
AcDbBlockEnd
  0
BLOCK
  5
BE
100
AcDbEntity
  8
0
100
AcDbBlockBegin
  2
CDWK_EXTR_1G
 70
     0
 10
0.0
 20
0.0
 30
0.0
  3
CDWK_EXTR_1G
  1

  4
Cadwork line-extremity
  0
LINE
  5
BF
100
AcDbEntity
  8
0
 62
     0
100
AcDbLine
 10
0.0
 20
0.0
 30
0.0
 11
0.0
 21
-1.0
 31
0.0
  0
LINE
  5
C0
100
AcDbEntity
  8
0
 62
     0
100
AcDbLine
 10
0.0
 20
-1.0
 30
0.0
 11
0.5
 21
-1.5
 31
0.0
  0
LINE
  5
C1
100
AcDbEntity
  8
0
 62
     0
100
AcDbLine
 10
0.5
 20
-1.5
 30
0.0
 11
1.5
 21
-1.5
 31
0.0
  0
ENDBLK
  5
C2
100
AcDbEntity
100
AcDbBlockEnd
  0
BLOCK
  5
C3
100
AcDbEntity
  8
0
100
AcDbBlockBegin
  2
CDWK_EXTR_2
 70
     0
 10
0.0
 20
0.0
 30
0.0
  3
CDWK_EXTR_2
  1

  4
Cadwork line-extremity
  0
SOLID
  5
C4
100
AcDbEntity
  8
0
 62
     0
100
AcDbTrace
 10
0.0
 20
0.0
 11
2.0
 21
0.5
 12
2.0
 22
-0.5
 13
2.0
 23
-0.5
  0
ENDBLK
  5
C5
100
AcDbEntity
100
AcDbBlockEnd
  0
BLOCK
  5
C6
100
AcDbEntity
  8
0
100
AcDbBlockBegin
  2
CDWK_EXTR_3
 70
     0
 10
0.0
 20
0.0
 30
0.0
  3
CDWK_EXTR_3
  1

  4
Cadwork line-extremity
  0
SOLID
  5
C7
100
AcDbEntity
  8
0
 62
     0
100
AcDbTrace
 10
0.0
 20
0.0
 11
2.0
 21
0.5
 12
2.0
 22
-0.5
 13
2.0
 23
-0.5
  0
LINE
  5
C8
100
AcDbEntity
  8
0
 62
     0
100
AcDbLine
 10
0.0
 20
1.0
 30
0.0
 11
0.0
 21
-1.0
 31
0.0
  0
ENDBLK
  5
C9
100
AcDbEntity
100
AcDbBlockEnd
  0
BLOCK
  5
CA
100
AcDbEntity
  8
0
100
AcDbBlockBegin
  2
CDWK_EXTR_4
 70
     0
 10
0.0
 20
0.0
 30
0.0
  3
CDWK_EXTR_4
  1

  4
Cadwork line-extremity
  0
POLYLINE
  5
CB
100
AcDbEntity
  8
0
 62
     0
100
AcDb2dPolyline
 70
     1
 66
     1
 10
0.0
 20
0.0
 30
0.0
 40
0.5
 41
0.5
  0
VERTEX
  5
CC
100
AcDbEntity
  8
0
100
AcDbVertex
100
AcDb2dVertex
 10
-0.25
 20
0.0
 30
0.0
 42
1.0
  0
VERTEX
  5
CD
100
AcDbEntity
  8
0
100
AcDbVertex
100
AcDb2dVertex
 10
0.25
 20
0.0
 30
0.0
 42
1.0
  0
SEQEND
  5
CE
100
AcDbEntity
  0
ENDBLK
  5
CF
100
AcDbEntity
100
AcDbBlockEnd
  0
BLOCK
  5
D0
100
AcDbEntity
  8
0
100
AcDbBlockBegin
  2
CDWK_PTTYP0
 70
     0
 10
0.0
 20
0.0
 30
0.0
  3
CDWK_PTTYP0
  1

  4
Cadwork point
  0
POINT
  5
D1
100
AcDbEntity
  8
0
 62
     0
100
AcDbPoint
 10
0.0
 20
0.0
 30
0.0
  0
ENDBLK
  5
D2
100
AcDbEntity
100
AcDbBlockEnd
  0
ENDSEC
  0
SECTION
  2
ENTITIES
  0
LINE
  5
D3
100
AcDbEntity
  8
MST_1_1
 62
     7
  6
DASHED
100
AcDbLine
 10
-327.67920562
 20
-146.04374264
 30
0.0
 11
-327.67920562
 21
-911.04374264
 31
0.0
  0
LINE
  5
D4
100
AcDbEntity
  8
MST_1_1
 62
     7
  6
DASHED
100
AcDbLine
 10
-216.67920562
 20
-146.04374264
 30
0.0
 11
-216.67920562
 21
-261.04374264
 31
0.0
  0
LINE
  5
D5
100
AcDbEntity
  8
MST_1_1
 62
     7
  6
DASHED
100
AcDbLine
 10
-196.67920562
 20
-146.04374264
 30
0.0
 11
-196.67920562
 21
-331.04374264
 31
0.0
  0
LINE
  5
D6
100
AcDbEntity
  8
MST_1_1
 62
     7
  6
DASHED
100
AcDbLine
 10
-236.67920562
 20
-146.04374264
 30
0.0
 11
-236.67920562
 21
-191.04374264
 31
0.0
  0
MTEXT
  5
D7
100
AcDbEntity
  8
MST_1_1
 62
   102
100
AcDbMText
 10
-484.4615282
 20
-0.73860568
 30
2500.0
 11
1.0
 21
0.0
 31
0.0
 40
20.0
 41
256.33522943
 71
     1
 72
     1
  1
\fTahoma|b0|i0|c0|p18;\H20;\W0.80000001;\C7;Universaldämmstoffhalter\PPROFIX PIU 8.0mm\P726
  0
LWPOLYLINE
  5
D8
102
{ACAD_REACTORS
330
D9
102
}
100
AcDbEntity
  8
MST_1_1
 62
    12
100
AcDbPolyline
 90
       46
 70
     1
 43
0.0
 10
167.65616096
 20
9.82714432
 10
167.52533962
 20
9.83778265
 10
167.40119029
 20
9.86857099
 10
167.28538496
 20
9.91781932
 10
167.17959562
 20
9.98383765
 10
167.08549429
 20
10.06493599
 10
167.00475296
 20
10.15942432
 10
166.93904362
 20
10.26561265
 10
166.89003829
 20
10.38181099
 10
166.85940896
 20
10.50632932
 10
166.84882762
 20
10.63747765
 10
166.84882762
 20
10.63747765
 10
166.85940896
 20
10.76868982
 10
166.89003829
 20
10.89329499
 10
166.93904362
 20
11.00959615
 10
167.00475296
 20
11.11589632
 10
167.08549429
 20
11.21049849
 10
167.17959562
 20
11.29170565
 10
167.28538496
 20
11.35782082
 10
167.40119029
 20
11.40714699
 10
167.52533962
 20
11.43798715
 10
167.65616096
 20
11.44864432
 10
167.65616096
 20
11.44864432
 10
167.78681562
 20
11.43798715
 10
167.91085829
 20
11.40714699
 10
168.02660696
 20
11.35782082
 10
168.13237962
 20
11.29170565
 10
168.22649429
 20
11.21049849
 10
168.30726896
 20
11.11589632
 10
168.37302162
 20
11.00959615
 10
168.42207029
 20
10.89329499
 10
168.45273296
 20
10.76868982
 10
168.46332762
 20
10.63747765
 10
168.46332762
 20
10.63747765
 10
168.45273296
 20
10.50632932
 10
168.42207029
 20
10.38181099
 10
168.37302162
 20
10.26561265
 10
168.30726896
 20
10.15942432
 10
168.22649429
 20
10.06493599
 10
168.13237962
 20
9.98383765
 10
168.02660696
 20
9.91781932
 10
167.91085829
 20
9.86857099
 10
167.78681562
 20
9.83778265
 10
167.65616096
 20
9.82714432
 10
167.65616096
 20
9.82714432
 10
167.65616096
 20
9.82714432
  0
HATCH
  5
D9
100
AcDbEntity
  8
MST_1_1
 62
    12
100
AcDbHatch
 10
0.0
 20
0.0
 30
0.0
210
0.0
220
0.0
230
1.0
  2
SOLID
 70
     1
 71
     1
 91
        1
 92
        7
 72
     0
 73
     1
 93
       40
 10
167.65616096
 20
9.82714432
 10
167.52533962
 20
9.83778265
 10
167.40119029
 20
9.86857099
 10
167.28538496
 20
9.91781932
 10
167.17959562
 20
9.98383765
 10
167.08549429
 20
10.06493599
 10
167.00475296
 20
10.15942432
 10
166.93904362
 20
10.26561265
 10
166.89003829
 20
10.38181099
 10
166.85940896
 20
10.50632932
 10
166.84882762
 20
10.63747765
 10
166.85940896
 20
10.76868982
 10
166.89003829
 20
10.89329499
 10
166.93904362
 20
11.00959615
 10
167.00475296
 20
11.11589632
 10
167.08549429
 20
11.21049849
 10
167.17959562
 20
11.29170565
 10
167.28538496
 20
11.35782082
 10
167.40119029
 20
11.40714699
 10
167.52533962
 20
11.43798715
 10
167.65616096
 20
11.44864432
 10
167.78681562
 20
11.43798715
 10
167.91085829
 20
11.40714699
 10
168.02660696
 20
11.35782082
 10
168.13237962
 20
11.29170565
 10
168.22649429
 20
11.21049849
 10
168.30726896
 20
11.11589632
 10
168.37302162
 20
11.00959615
 10
168.42207029
 20
10.89329499
 10
168.45273296
 20
10.76868982
 10
168.46332762
 20
10.63747765
 10
168.45273296
 20
10.50632932
 10
168.42207029
 20
10.38181099
 10
168.37302162
 20
10.26561265
 10
168.30726896
 20
10.15942432
 10
168.22649429
 20
10.06493599
 10
168.13237962
 20
9.98383765
 10
168.02660696
 20
9.91781932
 10
167.91085829
 20
9.86857099
 10
167.78681562
 20
9.83778265
 97
        1
330
D8
 75
     0
 76
     2
 47
0.775229
 98
        1
 10
0.0
 20
0.0
  0
LWPOLYLINE
  5
DA
102
{ACAD_REACTORS
330
DB
102
}
100
AcDbEntity
  8
MST_1_1
 62
    12
100
AcDbPolyline
 90
        8
 70
     1
 43
0.0
 10
100.19116096
 20
9.26139432
 10
166.15899429
 20
9.26139432
 10
166.15899429
 20
9.26139432
 10
166.15899429
 20
-7.31985568
 10
166.15899429
 20
-7.31985568
 10
100.19116096
 20
-7.31985568
 10
100.19116096
 20
-7.31985568
 10
100.19116096
 20
9.26139432
  0
HATCH
  5
DB
100
AcDbEntity
  8
MST_1_1
 62
    12
100
AcDbHatch
 10
0.0
 20
0.0
 30
0.0
210
0.0
220
0.0
230
1.0
  2
SOLID
 70
     1
 71
     1
 91
        1
 92
        7
 72
     0
 73
     1
 93
        4
 10
100.19116096
 20
9.26139432
 10
166.15899429
 20
9.26139432
 10
166.15899429
 20
-7.31985568
 10
100.19116096
 20
-7.31985568
 97
        1
330
DA
 75
     0
 76
     2
 47
0.775229
 98
        1
 10
0.0
 20
0.0
  0
LINE
  5
DC
100
AcDbEntity
  8
MST_1_1
100
AcDbLine
 10
100.19116096
 20
-7.31985568
 30
0.0
 11
100.19116096
 21
-7.31985568
 31
0.0
  0
LINE
  5
DD
100
AcDbEntity
  8
MST_1_1
100
AcDbLine
 10
100.19116096
 20
-7.31985568
 30
0.0
 11
100.19116096
 21
-7.31985568
 31
0.0
  0
LINE
  5
DE
100
AcDbEntity
  8
MST_1_1
100
AcDbLine
 10
100.19116096
 20
-7.31985568
 30
0.0
 11
100.19116096
 21
-7.31985568
 31
0.0
  0
LINE
  5
DF
100
AcDbEntity
  8
MST_1_1
100
AcDbLine
 10
100.19116096
 20
-7.31985568
 30
0.0
 11
100.19116096
 21
-7.31985568
 31
0.0
  0
LINE
  5
E0
100
AcDbEntity
  8
MST_1_1
100
AcDbLine
 10
100.19116096
 20
-7.31985568
 30
0.0
 11
100.19116096
 21
-7.31985568
 31
0.0
  0
LINE
  5
E1
100
AcDbEntity
  8
MST_1_1
100
AcDbLine
 10
100.19116096
 20
-7.31985568
 30
0.0
 11
100.19116096
 21
-7.31985568
 31
0.0
  0
LINE
  5
E2
100
AcDbEntity
  8
MST_1_1
100
AcDbLine
 10
100.19116096
 20
-7.31985568
 30
0.0
 11
100.19116096
 21
-7.31985568
 31
0.0
  0
LINE
  5
E3
100
AcDbEntity
  8
MST_1_1
100
AcDbLine
 10
100.19116096
 20
-7.31985568
 30
0.0
 11
100.19116096
 21
-7.31985568
 31
0.0
  0
LINE
  5
E4
100
AcDbEntity
  8
MST_1_1
100
AcDbLine
 10
100.19116096
 20
-7.31985568
 30
0.0
 11
100.19116096
 21
-7.31985568
 31
0.0
  0
LINE
  5
E5
100
AcDbEntity
  8
MST_1_1
100
AcDbLine
 10
100.19116096
 20
-7.31985568
 30
0.0
 11
100.19116096
 21
-7.31985568
 31
0.0
  0
LINE
  5
E6
100
AcDbEntity
  8
MST_1_1
100
AcDbLine
 10
100.19116096
 20
-7.31985568
 30
0.0
 11
100.19116096
 21
-7.31985568
 31
0.0
  0
LWPOLYLINE
  5
E7
102
{ACAD_REACTORS
330
E8
102
}
100
AcDbEntity
  8
MST_1_1
 62
   190
100
AcDbPolyline
 90
        8
 70
     1
 43
0.0
 10
132.99766096
 20
8.11172765
 10
165.01249429
 20
8.11172765
 10
165.01249429
 20
8.11172765
 10
165.01249429
 20
-6.17202401
 10
165.01249429
 20
-6.17202401
 10
132.99766096
 20
-6.17202401
 10
132.99766096
 20
-6.17202401
 10
132.99766096
 20
8.11172765
  0
HATCH
  5
E8
100
AcDbEntity
  8
MST_1_1
 62
   190
100
AcDbHatch
 10
0.0
 20
0.0
 30
0.0
210
0.0
220
0.0
230
1.0
  2
SOLID
 70
     1
 71
     1
 91
        1
 92
        7
 72
     0
 73
     1
 93
        4
 10
132.99766096
 20
8.11172765
 10
165.01249429
 20
8.11172765
 10
165.01249429
 20
-6.17202401
 10
132.99766096
 20
-6.17202401
 97
        1
330
E7
 75
     0
 76
     2
 47
0.775229
 98
        1
 10
0.0
 20
0.0
  0
LWPOLYLINE
  5
E9
102
{ACAD_REACTORS
330
EA
102
}
100
AcDbEntity
  8
MST_1_1
 62
    12
100
AcDbPolyline
 90
       22
 70
     1
 43
0.0
 10
134.91549429
 20
-3.87875568
 10
134.91549429
 20
5.20776099
 10
134.91549429
 20
5.20776099
 10
143.09482762
 20
5.20776099
 10
143.09482762
 20
5.20776099
 10
143.09482762
 20
2.74341099
 10
143.09482762
 20
2.74341099
 10
139.31882762
 20
2.74341099
 10
139.31882762
 20
2.74341099
 10
139.31882762
 20
1.68879432
 10
139.31882762
 20
1.68879432
 10
142.73649429
 20
1.68879432
 10
142.73649429
 20
1.68879432
 10
142.73649429
 20
-0.63900568
 10
142.73649429
 20
-0.63900568
 10
139.31882762
 20
-0.63900568
 10
139.31882762
 20
-0.63900568
 10
139.31882762
 20
-3.87875568
 10
139.31882762
 20
-3.87875568
 10
134.91549429
 20
-3.87875568
 10
134.91549429
 20
-3.87875568
 10
134.91549429
 20
-3.87875568
  0
HATCH
  5
EA
100
AcDbEntity
  8
MST_1_1
 62
    12
100
AcDbHatch
 10
0.0
 20
0.0
 30
0.0
210
0.0
220
0.0
230
1.0
  2
SOLID
 70
     1
 71
     1
 91
        1
 92
        7
 72
     0
 73
     1
 93
       10
 10
134.91549429
 20
-3.87875568
 10
134.91549429
 20
5.20776099
 10
143.09482762
 20
5.20776099
 10
143.09482762
 20
2.74341099
 10
139.31882762
 20
2.74341099
 10
139.31882762
 20
1.68879432
 10
142.73649429
 20
1.68879432
 10
142.73649429
 20
-0.63900568
 10
139.31882762
 20
-0.63900568
 10
139.31882762
 20
-3.87875568
 97
        1
330
E9
 75
     0
 76
     2
 47
0.775229
 98
        1
 10
0.0
 20
0.0
  0
LWPOLYLINE
  5
EB
102
{ACAD_REACTORS
330
EC
102
}
100
AcDbEntity
  8
MST_1_1
 62
   190
100
AcDbPolyline
 90
      178
 70
     1
 43
0.0
 10
131.14016096
 20
0.64639432
 10
131.13658896
 20
0.4482276
 10
131.12588496
 20
0.25276059
 10
131.10806696
 20
0.06001297
 10
131.08315296
 20
-0.12999555
 10
131.05116096
 20
-0.31724526
 10
131.01210896
 20
-0.50171648
 10
130.96601496
 20
-0.6833895
 10
130.91289696
 20
-0.86224461
 10
130.85277296
 20
-1.03826213
 10
130.78566096
 20
-1.21142235
 10
130.78566096
 20
-1.21142235
 10
130.71192796
 20
-1.38189621
 10
130.63153696
 20
-1.54864328
 10
130.54449996
 20
-1.71167175
 10
130.45082896
 20
-1.87098981
 10
130.35053596
 20
-2.02660568
 10
130.24363296
 20
-2.17852755
 10
130.13013196
 20
-2.32676361
 10
130.01004496
 20
-2.47132208
 10
129.88338396
 20
-2.61221115
 10
129.75016096
 20
-2.74943901
 10
129.75016096
 20
-2.74943901
 10
129.61142229
 20
-2.8792198
 10
129.46851162
 20
-3.00278728
 10
129.32143696
 20
-3.12013416
 10
129.17020629
 20
-3.23125315
 10
129.01482762
 20
-3.33613693
 10
128.85530896
 20
-3.43477821
 10
128.69165829
 20
-3.5271697
 10
128.52388362
 20
-3.61330408
 10
128.35199296
 20
-3.69317406
 10
128.17599429
 20
-3.76677235
 10
128.17599429
 20
-3.76677235
 10
127.99694629
 20
-3.83377048
 10
127.81543029
 20
-3.89382741
 10
127.63148829
 20
-3.94691695
 10
127.44516229
 20
-3.99301288
 10
127.25649429
 20
-4.03208901
 10
127.06552629
 20
-4.06411915
 10
126.87230029
 20
-4.08907708
 10
126.67685829
 20
-4.10693661
 10
126.47924229
 20
-4.11767155
 10
126.27949429
 20
-4.12125568
 10
126.27949429
 20
-4.12125568
 10
126.07757396
 20
-4.11767155
 10
125.87813162
 20
-4.10693661
 10
125.68119529
 20
-4.08907708
 10
125.48679296
 20
-4.06411915
 10
125.29495262
 20
-4.03208901
 10
125.10570229
 20
-3.99301288
 10
124.91906996
 20
-3.94691695
 10
124.73508362
 20
-3.89382741
 10
124.55377129
 20
-3.83377048
 10
124.37516096
 20
-3.76677235
 10
124.37516096
 20
-3.76677235
 10
124.19923446
 20
-3.69305671
 10
124.02734896
 20
-3.61283328
 10
123.85949546
 20
-3.52610725
 10
123.69566496
 20
-3.43288381
 10
123.53584846
 20
-3.33316818
 10
123.38003696
 20
-3.22696555
 10
123.22822146
 20
-3.11428111
 10
123.08039296
 20
-2.99512008
 10
122.93654246
 20
-2.86948765
 10
122.79666096
 20
-2.73738901
 10
122.79666096
 20
-2.73738901
 10
122.66510212
 20
-2.60361413
 10
122.53995029
 20
-2.46586995
 10
122.42124246
 20
-2.32417216
 10
122.30901562
 20
-2.17853648
 10
122.20330679
 20
-2.0289786
 10
122.10415296
 20
-1.87551421
 10
122.01159112
 20
-1.71815903
 10
121.92565829
 20
-1.55692875
 10
121.84639146
 20
-1.39183906
 10
121.77382762
 20
-1.22290568
 10
121.77382762
 20
-1.22290568
 10
121.70800979
 20
-1.04978303
 10
121.64906496
 20
-0.87357848
 10
121.59700612
 20
-0.69429713
 10
121.55184629
 20
-0.51194408
 10
121.51359846
 20
-0.32652443
 10
121.48227562
 20
-0.13804328
 10
121.45789079
 20
0.05349427
 10
121.44045696
 20
0.24808312
 10
121.42998712
 20
0.44571817
 10
121.42649429
 20
0.64639432
 10
121.42649429
 20
0.64639432
 10
121.42998712
 20
0.84706635
 10
121.44045696
 20
1.04478859
 10
121.45789079
 20
1.23957022
 10
121.48227562
 20
1.43142045
 10
121.51359846
 20
1.62034849
 10
121.55184629
 20
1.80636352
 10
121.59700612
 20
1.98947475
 10
121.64906496
 20
2.16969139
 10
121.70800979
 20
2.34702262
 10
121.77382762
 20
2.52147765
 10
121.77382762
 20
2.52147765
 10
121.84639146
 20
2.6915441
 10
121.92565829
 20
2.85771725
 10
122.01159112
 20
3.0199578
 10
122.10415296
 20
3.17822645
 10
122.20330679
 20
3.3324839
 10
122.30901562
 20
3.48269085
 10
122.42124246
 20
3.628808
 10
122.53995029
 20
3.77079605
 10
122.66510212
 20
3.9086157
 10
122.79666096
 20
4.04222765
 10
122.79666096
 20
4.04222765
 10
122.93546479
 20
4.17261949
 10
123.07829162
 20
4.29674232
 10
123.22516446
 20
4.41457715
 10
123.37610629
 20
4.52610499
 10
123.53114012
 20
4.63130682
 10
123.69028896
 20
4.73016365
 10
123.85357579
 20
4.82265649
 10
124.02102362
 20
4.90876632
 10
124.19265546
 20
4.98847415
 10
124.36849429
 20
5.06176099
 10
124.36849429
 20
5.06176099
 10
124.54740829
 20
5.12879257
 10
124.72904629
 20
5.18868965
 10
124.91340229
 20
5.24147074
 10
125.10047029
 20
5.28715432
 10
125.29024429
 20
5.3257589
 10
125.48271829
 20
5.35730299
 10
125.67788629
 20
5.38180507
 10
125.87574229
 20
5.39928365
 10
126.07628029
 20
5.40975724
 10
126.27949429
 20
5.41324432
 10
126.27949429
 20
5.41324432
 10
126.48286596
 20
5.40975724
 10
126.68356762
 20
5.39928365
 10
126.88157929
 20
5.38180507
 10
127.07688096
 20
5.35730299
 10
127.26945262
 20
5.3257589
 10
127.45927429
 20
5.28715432
 10
127.64632596
 20
5.24147074
 10
127.83058762
 20
5.18868965
 10
128.01203929
 20
5.12879257
 10
128.19066096
 20
5.06176099
 10
128.19066096
 20
5.06176099
 10
128.36666362
 20
4.98847415
 10
128.53858229
 20
4.90876632
 10
128.70643296
 20
4.82265649
 10
128.87023162
 20
4.73016365
 10
129.02999429
 20
4.63130682
 10
129.18573696
 20
4.52610499
 10
129.33747562
 20
4.41457715
 10
129.48522629
 20
4.29674232
 10
129.62900496
 20
4.17261949
 10
129.76882762
 20
4.04222765
 10
129.76882762
 20
4.04222765
 10
129.89917246
 20
3.90745314
 10
130.02328629
 20
3.76862552
 10
130.14113812
 20
3.6257687
 10
130.25269696
 20
3.47890659
 10
130.35793179
 20
3.32806307
 10
130.45681162
 20
3.17326205
 10
130.54930546
 20
3.01452744
 10
130.63538229
 20
2.85188312
 10
130.71501112
 20
2.685353
 10
130.78816096
 20
2.51496099
 10
130.78816096
 20
2.51496099
 10
130.85520296
 20
2.34066907
 10
130.91513696
 20
2.16359165
 10
130.96797496
 20
1.98372624
 10
131.01372896
 20
1.80107032
 10
131.05241096
 20
1.6156214
 10
131.08403296
 20
1.42737699
 10
131.10860696
 20
1.23633457
 10
131.12614496
 20
1.04249165
 10
131.13665896
 20
0.84584574
 10
131.14016096
 20
0.64639432
 10
131.14016096
 20
0.64639432
 10
131.14016096
 20
0.64639432
  0
HATCH
  5
EC
100
AcDbEntity
  8
MST_1_1
 62
   190
100
AcDbHatch
 10
0.0
 20
0.0
 30
0.0
210
0.0
220
0.0
230
1.0
  2
SOLID
 70
     1
 71
     1
 91
        1
 92
        7
 72
     0
 73
     1
 93
      160
 10
131.14016096
 20
0.64639432
 10
131.13658896
 20
0.4482276
 10
131.12588496
 20
0.25276059
 10
131.10806696
 20
0.06001297
 10
131.08315296
 20
-0.12999555
 10
131.05116096
 20
-0.31724526
 10
131.01210896
 20
-0.50171648
 10
130.96601496
 20
-0.6833895
 10
130.91289696
 20
-0.86224461
 10
130.85277296
 20
-1.03826213
 10
130.78566096
 20
-1.21142235
 10
130.71192796
 20
-1.38189621
 10
130.63153696
 20
-1.54864328
 10
130.54449996
 20
-1.71167175
 10
130.45082896
 20
-1.87098981
 10
130.35053596
 20
-2.02660568
 10
130.24363296
 20
-2.17852755
 10
130.13013196
 20
-2.32676361
 10
130.01004496
 20
-2.47132208
 10
129.88338396
 20
-2.61221115
 10
129.75016096
 20
-2.74943901
 10
129.61142229
 20
-2.8792198
 10
129.46851162
 20
-3.00278728
 10
129.32143696
 20
-3.12013416
 10
129.17020629
 20
-3.23125315
 10
129.01482762
 20
-3.33613693
 10
128.85530896
 20
-3.43477821
 10
128.69165829
 20
-3.5271697
 10
128.52388362
 20
-3.61330408
 10
128.35199296
 20
-3.69317406
 10
128.17599429
 20
-3.76677235
 10
127.99694629
 20
-3.83377048
 10
127.81543029
 20
-3.89382741
 10
127.63148829
 20
-3.94691695
 10
127.44516229
 20
-3.99301288
 10
127.25649429
 20
-4.03208901
 10
127.06552629
 20
-4.06411915
 10
126.87230029
 20
-4.08907708
 10
126.67685829
 20
-4.10693661
 10
126.47924229
 20
-4.11767155
 10
126.27949429
 20
-4.12125568
 10
126.07757396
 20
-4.11767155
 10
125.87813162
 20
-4.10693661
 10
125.68119529
 20
-4.08907708
 10
125.48679296
 20
-4.06411915
 10
125.29495262
 20
-4.03208901
 10
125.10570229
 20
-3.99301288
 10
124.91906996
 20
-3.94691695
 10
124.73508362
 20
-3.89382741
 10
124.55377129
 20
-3.83377048
 10
124.37516096
 20
-3.76677235
 10
124.19923446
 20
-3.69305671
 10
124.02734896
 20
-3.61283328
 10
123.85949546
 20
-3.52610725
 10
123.69566496
 20
-3.43288381
 10
123.53584846
 20
-3.33316818
 10
123.38003696
 20
-3.22696555
 10
123.22822146
 20
-3.11428111
 10
123.08039296
 20
-2.99512008
 10
122.93654246
 20
-2.86948765
 10
122.79666096
 20
-2.73738901
 10
122.66510212
 20
-2.60361413
 10
122.53995029
 20
-2.46586995
 10
122.42124246
 20
-2.32417216
 10
122.30901562
 20
-2.17853648
 10
122.20330679
 20
-2.0289786
 10
122.10415296
 20
-1.87551421
 10
122.01159112
 20
-1.71815903
 10
121.92565829
 20
-1.55692875
 10
121.84639146
 20
-1.39183906
 10
121.77382762
 20
-1.22290568
 10
121.70800979
 20
-1.04978303
 10
121.64906496
 20
-0.87357848
 10
121.59700612
 20
-0.69429713
 10
121.55184629
 20
-0.51194408
 10
121.51359846
 20
-0.32652443
 10
121.48227562
 20
-0.13804328
 10
121.45789079
 20
0.05349427
 10
121.44045696
 20
0.24808312
 10
121.42998712
 20
0.44571817
 10
121.42649429
 20
0.64639432
 10
121.42998712
 20
0.84706635
 10
121.44045696
 20
1.04478859
 10
121.45789079
 20
1.23957022
 10
121.48227562
 20
1.43142045
 10
121.51359846
 20
1.62034849
 10
121.55184629
 20
1.80636352
 10
121.59700612
 20
1.98947475
 10
121.64906496
 20
2.16969139
 10
121.70800979
 20
2.34702262
 10
121.77382762
 20
2.52147765
 10
121.84639146
 20
2.6915441
 10
121.92565829
 20
2.85771725
 10
122.01159112
 20
3.0199578
 10
122.10415296
 20
3.17822645
 10
122.20330679
 20
3.3324839
 10
122.30901562
 20
3.48269085
 10
122.42124246
 20
3.628808
 10
122.53995029
 20
3.77079605
 10
122.66510212
 20
3.9086157
 10
122.79666096
 20
4.04222765
 10
122.93546479
 20
4.17261949
 10
123.07829162
 20
4.29674232
 10
123.22516446
 20
4.41457715
 10
123.37610629
 20
4.52610499
 10
123.53114012
 20
4.63130682
 10
123.69028896
 20
4.73016365
 10
123.85357579
 20
4.82265649
 10
124.02102362
 20
4.90876632
 10
124.19265546
 20
4.98847415
 10
124.36849429
 20
5.06176099
 10
124.54740829
 20
5.12879257
 10
124.72904629
 20
5.18868965
 10
124.91340229
 20
5.24147074
 10
125.10047029
 20
5.28715432
 10
125.29024429
 20
5.3257589
 10
125.48271829
 20
5.35730299
 10
125.67788629
 20
5.38180507
 10
125.87574229
 20
5.39928365
 10
126.07628029
 20
5.40975724
 10
126.27949429
 20
5.41324432
 10
126.48286596
 20
5.40975724
 10
126.68356762
 20
5.39928365
 10
126.88157929
 20
5.38180507
 10
127.07688096
 20
5.35730299
 10
127.26945262
 20
5.3257589
 10
127.45927429
 20
5.28715432
 10
127.64632596
 20
5.24147074
 10
127.83058762
 20
5.18868965
 10
128.01203929
 20
5.12879257
 10
128.19066096
 20
5.06176099
 10
128.36666362
 20
4.98847415
 10
128.53858229
 20
4.90876632
 10
128.70643296
 20
4.82265649
 10
128.87023162
 20
4.73016365
 10
129.02999429
 20
4.63130682
 10
129.18573696
 20
4.52610499
 10
129.33747562
 20
4.41457715
 10
129.48522629
 20
4.29674232
 10
129.62900496
 20
4.17261949
 10
129.76882762
 20
4.04222765
 10
129.89917246
 20
3.90745314
 10
130.02328629
 20
3.76862552
 10
130.14113812
 20
3.6257687
 10
130.25269696
 20
3.47890659
 10
130.35793179
 20
3.32806307
 10
130.45681162
 20
3.17326205
 10
130.54930546
 20
3.01452744
 10
130.63538229
 20
2.85188312
 10
130.71501112
 20
2.685353
 10
130.78816096
 20
2.51496099
 10
130.85520296
 20
2.34066907
 10
130.91513696
 20
2.16359165
 10
130.96797496
 20
1.98372624
 10
131.01372896
 20
1.80107032
 10
131.05241096
 20
1.6156214
 10
131.08403296
 20
1.42737699
 10
131.10860696
 20
1.23633457
 10
131.12614496
 20
1.04249165
 10
131.13665896
 20
0.84584574
 97
        1
330
EB
 75
     0
 76
     2
 47
0.775229
 98
        1
 10
0.0
 20
0.0
  0
LWPOLYLINE
  5
ED
102
{ACAD_REACTORS
330
EE
102
}
100
AcDbEntity
  8
MST_1_1
 62
    12
100
AcDbPolyline
 90
       90
 70
     1
 43
0.0
 10
126.27949429
 20
-1.06778901
 10
126.41471146
 20
-1.0630537
 10
126.54447162
 20
-1.04887048
 10
126.66878779
 20
-1.02527346
 10
126.78767296
 20
-0.99229675
 10
126.90114012
 20
-0.94997443
 10
127.00920229
 20
-0.89834061
 10
127.11187246
 20
-0.8374294
 10
127.20916362
 20
-0.76727488
 10
127.30108879
 20
-0.68791116
 10
127.38766096
 20
-0.59937235
 10
127.38766096
 20
-0.59937235
 10
127.46735346
 20
-0.50224733
 10
127.53872096
 20
-0.39912621
 10
127.60174846
 20
-0.2899699
 10
127.65642096
 20
-0.17473928
 10
127.70272346
 20
-0.05339526
 10
127.74064096
 20
0.07410125
 10
127.77015846
 20
0.20778937
 10
127.79126096
 20
0.34770819
 10
127.80393346
 20
0.4938968
 10
127.80816096
 20
0.64639432
 10
127.80816096
 20
0.64639432
 10
127.80393346
 20
0.79963985
 10
127.79126096
 20
0.94664859
 10
127.77015846
 20
1.08745372
 10
127.74064096
 20
1.22208845
 10
127.70272346
 20
1.35058599
 10
127.65642096
 20
1.47297952
 10
127.60174846
 20
1.58930225
 10
127.53872096
 20
1.69958739
 10
127.46735346
 20
1.80386812
 10
127.38766096
 20
1.90217765
 10
127.38766096
 20
1.90217765
 10
127.30108879
 20
1.99220304
 10
127.20916362
 20
2.07281872
 10
127.11187246
 20
2.144009
 10
127.00920229
 20
2.20575819
 10
126.90114012
 20
2.25805057
 10
126.78767296
 20
2.30087045
 10
126.66878779
 20
2.33420214
 10
126.54447162
 20
2.35802992
 10
126.41471146
 20
2.3723381
 10
126.27949429
 20
2.37711099
 10
126.27949429
 20
2.37711099
 10
126.14434129
 20
2.37233404
 10
126.01449029
 20
2.35799739
 10
125.88995329
 20
2.33409234
 10
125.77074229
 20
2.30061019
 10
125.65686929
 20
2.25754224
 10
125.54834629
 20
2.20487979
 10
125.44518529
 20
2.14261414
 10
125.34739829
 20
2.07073659
 10
125.25499729
 20
1.98923844
 10
125.16799429
 20
1.89811099
 10
125.16799429
 20
1.89811099
 10
125.08764762
 20
1.79974702
 10
125.01580096
 20
1.69542525
 10
124.95244429
 20
1.58514589
 10
124.89756762
 20
1.46890912
 10
124.85116096
 20
1.34671515
 10
124.81321429
 20
1.21856419
 10
124.78371762
 20
1.08445642
 10
124.76266096
 20
0.94439205
 10
124.75003429
 20
0.79837129
 10
124.74582762
 20
0.64639432
 10
124.74582762
 20
0.64639432
 10
124.75003429
 20
0.4938968
 10
124.76266096
 20
0.34770819
 10
124.78371762
 20
0.20778937
 10
124.81321429
 20
0.07410125
 10
124.85116096
 20
-0.05339526
 10
124.89756762
 20
-0.17473928
 10
124.95244429
 20
-0.2899699
 10
125.01580096
 20
-0.39912621
 10
125.08764762
 20
-0.50224733
 10
125.16799429
 20
-0.59937235
 10
125.16799429
 20
-0.59937235
 10
125.25499729
 20
-0.68791116
 10
125.34739829
 20
-0.76727488
 10
125.44518529
 20
-0.8374294
 10
125.54834629
 20
-0.89834061
 10
125.65686929
 20
-0.94997443
 10
125.77074229
 20
-0.99229675
 10
125.88995329
 20
-1.02527346
 10
126.01449029
 20
-1.04887048
 10
126.14434129
 20
-1.0630537
 10
126.27949429
 20
-1.06778901
 10
126.27949429
 20
-1.06778901
 10
126.27949429
 20
-1.06778901
  0
HATCH
  5
EE
100
AcDbEntity
  8
MST_1_1
 62
    12
100
AcDbHatch
 10
0.0
 20
0.0
 30
0.0
210
0.0
220
0.0
230
1.0
  2
SOLID
 70
     1
 71
     1
 91
        1
 92
        7
 72
     0
 73
     1
 93
       80
 10
126.27949429
 20
-1.06778901
 10
126.41471146
 20
-1.0630537
 10
126.54447162
 20
-1.04887048
 10
126.66878779
 20
-1.02527346
 10
126.78767296
 20
-0.99229675
 10
126.90114012
 20
-0.94997443
 10
127.00920229
 20
-0.89834061
 10
127.11187246
 20
-0.8374294
 10
127.20916362
 20
-0.76727488
 10
127.30108879
 20
-0.68791116
 10
127.38766096
 20
-0.59937235
 10
127.46735346
 20
-0.50224733
 10
127.53872096
 20
-0.39912621
 10
127.60174846
 20
-0.2899699
 10
127.65642096
 20
-0.17473928
 10
127.70272346
 20
-0.05339526
 10
127.74064096
 20
0.07410125
 10
127.77015846
 20
0.20778937
 10
127.79126096
 20
0.34770819
 10
127.80393346
 20
0.4938968
 10
127.80816096
 20
0.64639432
 10
127.80393346
 20
0.79963985
 10
127.79126096
 20
0.94664859
 10
127.77015846
 20
1.08745372
 10
127.74064096
 20
1.22208845
 10
127.70272346
 20
1.35058599
 10
127.65642096
 20
1.47297952
 10
127.60174846
 20
1.58930225
 10
127.53872096
 20
1.69958739
 10
127.46735346
 20
1.80386812
 10
127.38766096
 20
1.90217765
 10
127.30108879
 20
1.99220304
 10
127.20916362
 20
2.07281872
 10
127.11187246
 20
2.144009
 10
127.00920229
 20
2.20575819
 10
126.90114012
 20
2.25805057
 10
126.78767296
 20
2.30087045
 10
126.66878779
 20
2.33420214
 10
126.54447162
 20
2.35802992
 10
126.41471146
 20
2.3723381
 10
126.27949429
 20
2.37711099
 10
126.14434129
 20
2.37233404
 10
126.01449029
 20
2.35799739
 10
125.88995329
 20
2.33409234
 10
125.77074229
 20
2.30061019
 10
125.65686929
 20
2.25754224
 10
125.54834629
 20
2.20487979
 10
125.44518529
 20
2.14261414
 10
125.34739829
 20
2.07073659
 10
125.25499729
 20
1.98923844
 10
125.16799429
 20
1.89811099
 10
125.08764762
 20
1.79974702
 10
125.01580096
 20
1.69542525
 10
124.95244429
 20
1.58514589
 10
124.89756762
 20
1.46890912
 10
124.85116096
 20
1.34671515
 10
124.81321429
 20
1.21856419
 10
124.78371762
 20
1.08445642
 10
124.76266096
 20
0.94439205
 10
124.75003429
 20
0.79837129
 10
124.74582762
 20
0.64639432
 10
124.75003429
 20
0.4938968
 10
124.76266096
 20
0.34770819
 10
124.78371762
 20
0.20778937
 10
124.81321429
 20
0.07410125
 10
124.85116096
 20
-0.05339526
 10
124.89756762
 20
-0.17473928
 10
124.95244429
 20
-0.2899699
 10
125.01580096
 20
-0.39912621
 10
125.08764762
 20
-0.50224733
 10
125.16799429
 20
-0.59937235
 10
125.25499729
 20
-0.68791116
 10
125.34739829
 20
-0.76727488
 10
125.44518529
 20
-0.8374294
 10
125.54834629
 20
-0.89834061
 10
125.65686929
 20
-0.94997443
 10
125.77074229
 20
-0.99229675
 10
125.88995329
 20
-1.02527346
 10
126.01449029
 20
-1.04887048
 10
126.14434129
 20
-1.0630537
 97
        1
330
ED
 75
     0
 76
     2
 47
0.775229
 98
        1
 10
0.0
 20
0.0
  0
LWPOLYLINE
  5
EF
102
{ACAD_REACTORS
330
F0
102
}
100
AcDbEntity
  8
MST_1_1
 62
   190
100
AcDbPolyline
 90
       60
 70
     1
 43
0.0
 10
112.64046096
 20
-3.87875568
 10
112.64046096
 20
5.20776099
 10
112.64046096
 20
5.20776099
 10
116.75072762
 20
5.20776099
 10
116.75072762
 20
5.20776099
 10
117.09946339
 20
5.19986035
 10
117.43140576
 20
5.17616792
 10
117.74654732
 20
5.13669789
 10
118.04488069
 20
5.08146445
 10
118.32639846
 20
5.01048182
 10
118.59109322
 20
4.92376419
 10
118.83895759
 20
4.82132575
 10
119.06998416
 20
4.70318072
 10
119.28416552
 20
4.56934329
 10
119.48149429
 20
4.41982765
 10
119.48149429
 20
4.41982765
 10
119.66070012
 20
4.2552386
 10
119.82102096
 20
4.07667325
 10
119.96246179
 20
3.8841643
 10
120.08502762
 20
3.67774445
 10
120.18872346
 20
3.4574464
 10
120.27355429
 20
3.22330285
 10
120.33952512
 20
2.9753465
 10
120.38664096
 20
2.71361005
 10
120.41490679
 20
2.4381262
 10
120.42432762
 20
2.14892765
 10
120.42432762
 20
2.14892765
 10
120.41954596
 20
1.95844309
 10
120.40521429
 20
1.77479712
 10
120.38135262
 20
1.59800135
 10
120.34798096
 20
1.42806739
 10
120.30511929
 20
1.26500682
 10
120.25278762
 20
1.10883125
 10
120.19100596
 20
0.95955229
 10
120.11979429
 20
0.81718152
 10
120.03917262
 20
0.68173055
 10
119.94916096
 20
0.55321099
 10
119.94916096
 20
0.55321099
 10
119.85071996
 20
0.43261874
 10
119.74577296
 20
0.32258299
 10
119.63428396
 20
0.22309024
 10
119.51621696
 20
0.13412699
 10
119.39153596
 20
0.05567974
 10
119.26020496
 20
-0.01226501
 10
119.12218796
 20
-0.06972076
 10
118.97744896
 20
-0.11670101
 10
118.82595196
 20
-0.15321926
 10
118.66766096
 20
-0.17928901
 10
118.66766096
 20
-0.17928901
 10
121.09399429
 20
-3.87875568
 10
121.09399429
 20
-3.87875568
 10
117.43349429
 20
-3.87875568
 10
117.43349429
 20
-3.87875568
 10
115.84351096
 20
-0.88143901
 10
115.84351096
 20
-0.88143901
 10
115.84351096
 20
-3.87875568
 10
115.84351096
 20
-3.87875568
 10
112.64046096
 20
-3.87875568
 10
112.64046096
 20
-3.87875568
 10
112.64046096
 20
-3.87875568
  0
HATCH
  5
F0
100
AcDbEntity
  8
MST_1_1
 62
   190
100
AcDbHatch
 10
0.0
 20
0.0
 30
0.0
210
0.0
220
0.0
230
1.0
  2
SOLID
 70
     1
 71
     1
 91
        1
 92
        7
 72
     0
 73
     1
 93
       47
 10
112.64046096
 20
-3.87875568
 10
112.64046096
 20
5.20776099
 10
116.75072762
 20
5.20776099
 10
117.09946339
 20
5.19986035
 10
117.43140576
 20
5.17616792
 10
117.74654732
 20
5.13669789
 10
118.04488069
 20
5.08146445
 10
118.32639846
 20
5.01048182
 10
118.59109322
 20
4.92376419
 10
118.83895759
 20
4.82132575
 10
119.06998416
 20
4.70318072
 10
119.28416552
 20
4.56934329
 10
119.48149429
 20
4.41982765
 10
119.66070012
 20
4.2552386
 10
119.82102096
 20
4.07667325
 10
119.96246179
 20
3.8841643
 10
120.08502762
 20
3.67774445
 10
120.18872346
 20
3.4574464
 10
120.27355429
 20
3.22330285
 10
120.33952512
 20
2.9753465
 10
120.38664096
 20
2.71361005
 10
120.41490679
 20
2.4381262
 10
120.42432762
 20
2.14892765
 10
120.41954596
 20
1.95844309
 10
120.40521429
 20
1.77479712
 10
120.38135262
 20
1.59800135
 10
120.34798096
 20
1.42806739
 10
120.30511929
 20
1.26500682
 10
120.25278762
 20
1.10883125
 10
120.19100596
 20
0.95955229
 10
120.11979429
 20
0.81718152
 10
120.03917262
 20
0.68173055
 10
119.94916096
 20
0.55321099
 10
119.85071996
 20
0.43261874
 10
119.74577296
 20
0.32258299
 10
119.63428396
 20
0.22309024
 10
119.51621696
 20
0.13412699
 10
119.39153596
 20
0.05567974
 10
119.26020496
 20
-0.01226501
 10
119.12218796
 20
-0.06972076
 10
118.97744896
 20
-0.11670101
 10
118.82595196
 20
-0.15321926
 10
118.66766096
 20
-0.17928901
 10
121.09399429
 20
-3.87875568
 10
117.43349429
 20
-3.87875568
 10
115.84351096
 20
-0.88143901
 10
115.84351096
 20
-3.87875568
 97
        1
330
EF
 75
     0
 76
     2
 47
0.775229
 98
        1
 10
0.0
 20
0.0
  0
LWPOLYLINE
  5
F1
102
{ACAD_REACTORS
330
F2
102
}
100
AcDbEntity
  8
MST_1_1
 62
    12
100
AcDbPolyline
 90
       52
 70
     1
 43
0.0
 10
115.84351096
 20
2.86912765
 10
115.84351096
 20
1.09407765
 10
115.84351096
 20
1.09407765
 10
116.35262762
 20
1.09407765
 10
116.35262762
 20
1.09407765
 10
116.44367407
 20
1.09634905
 10
116.53035322
 20
1.10315885
 10
116.61267977
 20
1.11450045
 10
116.69066842
 20
1.13036725
 10
116.76433387
 20
1.15075265
 10
116.83369082
 20
1.17565005
 10
116.89875397
 20
1.20505285
 10
116.95953802
 20
1.23895445
 10
117.01605767
 20
1.27734825
 10
117.06832762
 20
1.32022765
 10
117.06832762
 20
1.32022765
 10
117.11617179
 20
1.36731114
 10
117.15900096
 20
1.41833352
 10
117.19681012
 20
1.4732977
 10
117.22959429
 20
1.53220659
 10
117.25734846
 20
1.59506307
 10
117.28006762
 20
1.66187005
 10
117.29774679
 20
1.73263044
 10
117.31038096
 20
1.80734712
 10
117.31796512
 20
1.886023
 10
117.32049429
 20
1.96866099
 10
117.32049429
 20
1.96866099
 10
117.31796512
 20
2.05349979
 10
117.31038096
 20
2.13432939
 10
117.29774679
 20
2.21113959
 10
117.28006762
 20
2.28392019
 10
117.25734846
 20
2.35266099
 10
117.22959429
 20
2.41735179
 10
117.19681012
 20
2.47798239
 10
117.15900096
 20
2.53454259
 10
117.11617179
 20
2.58702219
 10
117.06832762
 20
2.63541099
 10
117.06832762
 20
2.63541099
 10
117.01605767
 20
2.67954715
 10
116.95953802
 20
2.71912232
 10
116.89875397
 20
2.75411649
 10
116.83369082
 20
2.78450965
 10
116.76433387
 20
2.81028182
 10
116.69066842
 20
2.83141299
 10
116.61267977
 20
2.84788315
 10
116.53035322
 20
2.85967232
 10
116.44367407
 20
2.86676049
 10
116.35262762
 20
2.86912765
 10
116.35262762
 20
2.86912765
 10
115.84351096
 20
2.86912765
 10
115.84351096
 20
2.86912765
 10
115.84351096
 20
2.86912765
  0
HATCH
  5
F2
100
AcDbEntity
  8
MST_1_1
 62
    12
100
AcDbHatch
 10
0.0
 20
0.0
 30
0.0
210
0.0
220
0.0
230
1.0
  2
SOLID
 70
     1
 71
     1
 91
        1
 92
        7
 72
     0
 73
     1
 93
       43
 10
115.84351096
 20
2.86912765
 10
115.84351096
 20
1.09407765
 10
116.35262762
 20
1.09407765
 10
116.44367407
 20
1.09634905
 10
116.53035322
 20
1.10315885
 10
116.61267977
 20
1.11450045
 10
116.69066842
 20
1.13036725
 10
116.76433387
 20
1.15075265
 10
116.83369082
 20
1.17565005
 10
116.89875397
 20
1.20505285
 10
116.95953802
 20
1.23895445
 10
117.01605767
 20
1.27734825
 10
117.06832762
 20
1.32022765
 10
117.11617179
 20
1.36731114
 10
117.15900096
 20
1.41833352
 10
117.19681012
 20
1.4732977
 10
117.22959429
 20
1.53220659
 10
117.25734846
 20
1.59506307
 10
117.28006762
 20
1.66187005
 10
117.29774679
 20
1.73263044
 10
117.31038096
 20
1.80734712
 10
117.31796512
 20
1.886023
 10
117.32049429
 20
1.96866099
 10
117.31796512
 20
2.05349979
 10
117.31038096
 20
2.13432939
 10
117.29774679
 20
2.21113959
 10
117.28006762
 20
2.28392019
 10
117.25734846
 20
2.35266099
 10
117.22959429
 20
2.41735179
 10
117.19681012
 20
2.47798239
 10
117.15900096
 20
2.53454259
 10
117.11617179
 20
2.58702219
 10
117.06832762
 20
2.63541099
 10
117.01605767
 20
2.67954715
 10
116.95953802
 20
2.71912232
 10
116.89875397
 20
2.75411649
 10
116.83369082
 20
2.78450965
 10
116.76433387
 20
2.81028182
 10
116.69066842
 20
2.83141299
 10
116.61267977
 20
2.84788315
 10
116.53035322
 20
2.85967232
 10
116.44367407
 20
2.86676049
 10
116.35262762
 20
2.86912765
 97
        1
330
F1
 75
     0
 76
     2
 47
0.775229
 98
        1
 10
0.0
 20
0.0
  0
LWPOLYLINE
  5
F3
102
{ACAD_REACTORS
330
F4
102
}
100
AcDbEntity
  8
MST_1_1
 62
   190
100
AcDbPolyline
 90
       56
 70
     1
 43
0.0
 10
103.64086096
 20
-3.87875568
 10
103.64086096
 20
5.20776099
 10
103.64086096
 20
5.20776099
 10
107.54557762
 20
5.20776099
 10
107.54557762
 20
5.20776099
 10
107.94635377
 20
5.19981232
 10
108.32500482
 20
5.17596965
 10
108.68153467
 20
5.13623799
 10
109.01594722
 20
5.08062232
 10
109.32824637
 20
5.00912765
 10
109.61843602
 20
4.92175899
 10
109.88652007
 20
4.81852132
 10
110.13250242
 20
4.69941965
 10
110.35638697
 20
4.56445899
 10
110.55817762
 20
4.41364432
 10
110.55817762
 20
4.41364432
 10
110.73923282
 20
4.24528299
 10
110.90123722
 20
4.05839565
 10
111.04418902
 20
3.85296232
 10
111.16808642
 20
3.62896299
 10
111.27292762
 20
3.38637765
 10
111.35871082
 20
3.12518632
 10
111.42543422
 20
2.84536899
 10
111.47309602
 20
2.54690565
 10
111.50169442
 20
2.22977632
 10
111.51122762
 20
1.89396099
 10
111.51122762
 20
1.89396099
 10
111.50265772
 20
1.58096897
 10
111.47695442
 20
1.28530685
 10
111.43412732
 20
1.00698054
 10
111.37418602
 20
0.74599592
 10
111.29714012
 20
0.5023589
 10
111.20299922
 20
0.27607539
 10
111.09177292
 20
0.06715127
 10
110.96347082
 20
-0.12440755
 10
110.81810252
 20
-0.29859516
 10
110.65567762
 20
-0.45540568
 10
110.65567762
 20
-0.45540568
 10
110.47392496
 20
-0.59596313
 10
110.27212229
 20
-0.72177728
 10
110.05026262
 20
-0.83283583
 10
109.80833896
 20
-0.92912648
 10
109.54634429
 20
-1.01063693
 10
109.26427162
 20
-1.07735488
 10
108.96211396
 20
-1.12926803
 10
108.63986429
 20
-1.16636408
 10
108.29751562
 20
-1.18863073
 10
107.93506096
 20
-1.19605568
 10
107.93506096
 20
-1.19605568
 10
106.91211096
 20
-1.19605568
 10
106.91211096
 20
-1.19605568
 10
106.91211096
 20
-3.87875568
 10
106.91211096
 20
-3.87875568
 10
103.64086096
 20
-3.87875568
 10
103.64086096
 20
-3.87875568
 10
103.64086096
 20
-3.87875568
  0
HATCH
  5
F4
100
AcDbEntity
  8
MST_1_1
 62
   190
100
AcDbHatch
 10
0.0
 20
0.0
 30
0.0
210
0.0
220
0.0
230
1.0
  2
SOLID
 70
     1
 71
     1
 91
        1
 92
        7
 72
     0
 73
     1
 93
       45
 10
103.64086096
 20
-3.87875568
 10
103.64086096
 20
5.20776099
 10
107.54557762
 20
5.20776099
 10
107.94635377
 20
5.19981232
 10
108.32500482
 20
5.17596965
 10
108.68153467
 20
5.13623799
 10
109.01594722
 20
5.08062232
 10
109.32824637
 20
5.00912765
 10
109.61843602
 20
4.92175899
 10
109.88652007
 20
4.81852132
 10
110.13250242
 20
4.69941965
 10
110.35638697
 20
4.56445899
 10
110.55817762
 20
4.41364432
 10
110.73923282
 20
4.24528299
 10
110.90123722
 20
4.05839565
 10
111.04418902
 20
3.85296232
 10
111.16808642
 20
3.62896299
 10
111.27292762
 20
3.38637765
 10
111.35871082
 20
3.12518632
 10
111.42543422
 20
2.84536899
 10
111.47309602
 20
2.54690565
 10
111.50169442
 20
2.22977632
 10
111.51122762
 20
1.89396099
 10
111.50265772
 20
1.58096897
 10
111.47695442
 20
1.28530685
 10
111.43412732
 20
1.00698054
 10
111.37418602
 20
0.74599592
 10
111.29714012
 20
0.5023589
 10
111.20299922
 20
0.27607539
 10
111.09177292
 20
0.06715127
 10
110.96347082
 20
-0.12440755
 10
110.81810252
 20
-0.29859516
 10
110.65567762
 20
-0.45540568
 10
110.47392496
 20
-0.59596313
 10
110.27212229
 20
-0.72177728
 10
110.05026262
 20
-0.83283583
 10
109.80833896
 20
-0.92912648
 10
109.54634429
 20
-1.01063693
 10
109.26427162
 20
-1.07735488
 10
108.96211396
 20
-1.12926803
 10
108.63986429
 20
-1.16636408
 10
108.29751562
 20
-1.18863073
 10
107.93506096
 20
-1.19605568
 10
106.91211096
 20
-1.19605568
 10
106.91211096
 20
-3.87875568
 97
        1
330
F3
 75
     0
 76
     2
 47
0.775229
 98
        1
 10
0.0
 20
0.0
  0
LWPOLYLINE
  5
F5
102
{ACAD_REACTORS
330
F6
102
}
100
AcDbEntity
  8
MST_1_1
 62
    12
100
AcDbPolyline
 90
       52
 70
     1
 43
0.0
 10
106.92487762
 20
2.68221099
 10
106.92487762
 20
1.16764432
 10
106.92487762
 20
1.16764432
 10
107.43252762
 20
1.16764432
 10
107.43252762
 20
1.16764432
 10
107.52336574
 20
1.16961262
 10
107.60997056
 20
1.17551072
 10
107.69231277
 20
1.18532842
 10
107.77036309
 20
1.19905552
 10
107.84409221
 20
1.21668182
 10
107.91347082
 20
1.23819712
 10
107.97846964
 20
1.26359122
 10
108.03905936
 20
1.29285392
 10
108.09521067
 20
1.32597502
 10
108.14689429
 20
1.36294432
 10
108.14689429
 20
1.36294432
 10
108.19396304
 20
1.40376169
 10
108.23609629
 20
1.44784925
 10
108.27328954
 20
1.49521522
 10
108.30553829
 20
1.54586779
 10
108.33283804
 20
1.59981515
 10
108.35518429
 20
1.65706552
 10
108.37257254
 20
1.71762709
 10
108.38499829
 20
1.78150805
 10
108.39245704
 20
1.84871662
 10
108.39494429
 20
1.91926099
 10
108.39494429
 20
1.91926099
 10
108.39241052
 20
1.98951867
 10
108.38480216
 20
2.05663445
 10
108.37210859
 20
2.12061244
 10
108.35431922
 20
2.18145672
 10
108.33142346
 20
2.2391714
 10
108.30341069
 20
2.29376059
 10
108.27027032
 20
2.34522837
 10
108.23199176
 20
2.39357885
 10
108.18856439
 20
2.43881614
 10
108.13997762
 20
2.48094432
 10
108.13997762
 20
2.48094432
 10
108.08723172
 20
2.51897574
 10
108.03050842
 20
2.55306965
 10
107.96979932
 20
2.58321057
 10
107.90509602
 20
2.60938299
 10
107.83639012
 20
2.6315714
 10
107.76367322
 20
2.64976032
 10
107.68693692
 20
2.66393424
 10
107.60617282
 20
2.67407765
 10
107.52137252
 20
2.68017507
 10
107.43252762
 20
2.68221099
 10
107.43252762
 20
2.68221099
 10
106.92487762
 20
2.68221099
 10
106.92487762
 20
2.68221099
 10
106.92487762
 20
2.68221099
  0
HATCH
  5
F6
100
AcDbEntity
  8
MST_1_1
 62
    12
100
AcDbHatch
 10
0.0
 20
0.0
 30
0.0
210
0.0
220
0.0
230
1.0
  2
SOLID
 70
     1
 71
     1
 91
        1
 92
        7
 72
     0
 73
     1
 93
       43
 10
106.92487762
 20
2.68221099
 10
106.92487762
 20
1.16764432
 10
107.43252762
 20
1.16764432
 10
107.52336574
 20
1.16961262
 10
107.60997056
 20
1.17551072
 10
107.69231277
 20
1.18532842
 10
107.77036309
 20
1.19905552
 10
107.84409221
 20
1.21668182
 10
107.91347082
 20
1.23819712
 10
107.97846964
 20
1.26359122
 10
108.03905936
 20
1.29285392
 10
108.09521067
 20
1.32597502
 10
108.14689429
 20
1.36294432
 10
108.19396304
 20
1.40376169
 10
108.23609629
 20
1.44784925
 10
108.27328954
 20
1.49521522
 10
108.30553829
 20
1.54586779
 10
108.33283804
 20
1.59981515
 10
108.35518429
 20
1.65706552
 10
108.37257254
 20
1.71762709
 10
108.38499829
 20
1.78150805
 10
108.39245704
 20
1.84871662
 10
108.39494429
 20
1.91926099
 10
108.39241052
 20
1.98951867
 10
108.38480216
 20
2.05663445
 10
108.37210859
 20
2.12061244
 10
108.35431922
 20
2.18145672
 10
108.33142346
 20
2.2391714
 10
108.30341069
 20
2.29376059
 10
108.27027032
 20
2.34522837
 10
108.23199176
 20
2.39357885
 10
108.18856439
 20
2.43881614
 10
108.13997762
 20
2.48094432
 10
108.08723172
 20
2.51897574
 10
108.03050842
 20
2.55306965
 10
107.96979932
 20
2.58321057
 10
107.90509602
 20
2.60938299
 10
107.83639012
 20
2.6315714
 10
107.76367322
 20
2.64976032
 10
107.68693692
 20
2.66393424
 10
107.60617282
 20
2.67407765
 10
107.52137252
 20
2.68017507
 10
107.43252762
 20
2.68221099
 97
        1
330
F5
 75
     0
 76
     2
 47
0.775229
 98
        1
 10
0.0
 20
0.0
  0
LWPOLYLINE
  5
F7
102
{ACAD_REACTORS
330
F8
102
}
100
AcDbEntity
  8
MST_1_1
 62
    12
100
AcDbPolyline
 90
       10
 70
     1
 43
0.0
 10
144.68732762
 20
-3.87875568
 10
144.68732762
 20
5.20776099
 10
144.68732762
 20
5.20776099
 10
149.15516096
 20
5.20776099
 10
149.15516096
 20
5.20776099
 10
149.15516096
 20
-3.87875568
 10
149.15516096
 20
-3.87875568
 10
144.68732762
 20
-3.87875568
 10
144.68732762
 20
-3.87875568
 10
144.68732762
 20
-3.87875568
  0
HATCH
  5
F8
100
AcDbEntity
  8
MST_1_1
 62
    12
100
AcDbHatch
 10
0.0
 20
0.0
 30
0.0
210
0.0
220
0.0
230
1.0
  2
SOLID
 70
     1
 71
     1
 91
        1
 92
        7
 72
     0
 73
     1
 93
        4
 10
144.68732762
 20
-3.87875568
 10
144.68732762
 20
5.20776099
 10
149.15516096
 20
5.20776099
 10
149.15516096
 20
-3.87875568
 97
        1
330
F7
 75
     0
 76
     2
 47
0.775229
 98
        1
 10
0.0
 20
0.0
  0
LWPOLYLINE
  5
F9
102
{ACAD_REACTORS
330
FA
102
}
100
AcDbEntity
  8
MST_1_1
 62
    12
100
AcDbPolyline
 90
      114
 70
     1
 43
0.0
 10
156.90449429
 20
-1.81763901
 10
156.87014029
 20
-1.76282066
 10
156.83758229
 20
-1.71027021
 10
156.80682629
 20
-1.65996456
 10
156.77787829
 20
-1.61188061
 10
156.75074429
 20
-1.56599526
 10
156.72543029
 20
-1.52228541
 10
156.70194229
 20
-1.48072796
 10
156.68028629
 20
-1.44129981
 10
156.66046829
 20
-1.40397786
 10
156.64249429
 20
-1.36873901
 10
156.64249429
 20
-1.36873901
 10
156.62519162
 20
-1.33478785
 10
156.60887296
 20
-1.30157768
 10
156.59352229
 20
-1.26909851
 10
156.57912362
 20
-1.23734035
 10
156.56566096
 20
-1.20629318
 10
156.55311829
 20
-1.17594701
 10
156.54147962
 20
-1.14629185
 10
156.53072896
 20
-1.11731768
 10
156.52085029
 20
-1.08901451
 10
156.51182762
 20
-1.06137235
 10
156.51182762
 20
-1.06137235
 10
156.50416329
 20
-1.08757633
 10
156.49573296
 20
-1.11434021
 10
156.48648062
 20
-1.1416669
 10
156.47635029
 20
-1.16955928
 10
156.46528596
 20
-1.19802026
 10
156.45323162
 20
-1.22705275
 10
156.44013129
 20
-1.25665963
 10
156.42592896
 20
-1.28684381
 10
156.41056862
 20
-1.3176082
 10
156.39399429
 20
-1.34895568
 10
156.39399429
 20
-1.34895568
 10
156.37665796
 20
-1.38236166
 10
156.35666362
 20
-1.41879955
 10
156.33403329
 20
-1.45825423
 10
156.30878896
 20
-1.50071061
 10
156.28095262
 20
-1.5461536
 10
156.25054629
 20
-1.59456808
 10
156.21759196
 20
-1.64593896
 10
156.18211162
 20
-1.70025115
 10
156.14412729
 20
-1.75748953
 10
156.10366096
 20
-1.81763901
 10
156.10366096
 20
-1.81763901
 10
154.71399429
 20
-3.87875568
 10
154.71399429
 20
-3.87875568
 10
149.68632762
 20
-3.87875568
 10
149.68632762
 20
-3.87875568
 10
154.02916096
 20
0.96126099
 10
154.02916096
 20
0.96126099
 10
150.19716096
 20
5.20776099
 10
150.19716096
 20
5.20776099
 10
155.21666096
 20
5.20776099
 10
155.21666096
 20
5.20776099
 10
156.11999429
 20
3.72467765
 10
156.11999429
 20
3.72467765
 10
156.12282029
 20
3.71916457
 10
156.12618229
 20
3.71306699
 10
156.13005629
 20
3.7063874
 10
156.13441829
 20
3.69912832
 10
156.13924429
 20
3.69129224
 10
156.14451029
 20
3.68288165
 10
156.15019229
 20
3.67389907
 10
156.15626629
 20
3.66434699
 10
156.16270829
 20
3.6542279
 10
156.16949429
 20
3.64354432
 10
156.16949429
 20
3.64354432
 10
156.21822962
 20
3.5608914
 10
156.26373696
 20
3.48164299
 10
156.30601829
 20
3.40581457
 10
156.34507562
 20
3.33342165
 10
156.38091096
 20
3.26447974
 10
156.41352629
 20
3.19900432
 10
156.44292362
 20
3.1370109
 10
156.46910496
 20
3.07851499
 10
156.49207229
 20
3.02353207
 10
156.51182762
 20
2.97207765
 10
156.51182762
 20
2.97207765
 10
156.52394129
 20
3.00472095
 10
156.53659696
 20
3.03747005
 10
156.54981662
 20
3.07033875
 10
156.56362229
 20
3.10334085
 10
156.57803596
 20
3.13649015
 10
156.59307962
 20
3.16980045
 10
156.60877529
 20
3.20328555
 10
156.62514496
 20
3.23695925
 10
156.64221062
 20
3.27083535
 10
156.65999429
 20
3.30492765
 10
156.65999429
 20
3.30492765
 10
156.67728062
 20
3.34001
 10
156.69590496
 20
3.37665045
 10
156.71581529
 20
3.4148391
 10
156.73695962
 20
3.45456605
 10
156.75928596
 20
3.4958214
 10
156.78274229
 20
3.53859525
 10
156.80727662
 20
3.5828777
 10
156.83283696
 20
3.62865885
 10
156.85937129
 20
3.6759288
 10
156.88682762
 20
3.72467765
 10
156.88682762
 20
3.72467765
 10
157.81432762
 20
5.20776099
 10
157.81432762
 20
5.20776099
 10
162.81099429
 20
5.20776099
 10
162.81099429
 20
5.20776099
 10
158.99166096
 20
0.96126099
 10
158.99166096
 20
0.96126099
 10
163.33932762
 20
-3.87875568
 10
163.33932762
 20
-3.87875568
 10
158.30716096
 20
-3.87875568
 10
158.30716096
 20
-3.87875568
 10
156.90449429
 20
-1.81763901
 10
156.90449429
 20
-1.81763901
 10
156.90449429
 20
-1.81763901
  0
HATCH
  5
FA
100
AcDbEntity
  8
MST_1_1
 62
    12
100
AcDbHatch
 10
0.0
 20
0.0
 30
0.0
210
0.0
220
0.0
230
1.0
  2
SOLID
 70
     1
 71
     1
 91
        1
 92
        7
 72
     0
 73
     1
 93
       92
 10
156.90449429
 20
-1.81763901
 10
156.87014029
 20
-1.76282066
 10
156.83758229
 20
-1.71027021
 10
156.80682629
 20
-1.65996456
 10
156.77787829
 20
-1.61188061
 10
156.75074429
 20
-1.56599526
 10
156.72543029
 20
-1.52228541
 10
156.70194229
 20
-1.48072796
 10
156.68028629
 20
-1.44129981
 10
156.66046829
 20
-1.40397786
 10
156.64249429
 20
-1.36873901
 10
156.62519162
 20
-1.33478785
 10
156.60887296
 20
-1.30157768
 10
156.59352229
 20
-1.26909851
 10
156.57912362
 20
-1.23734035
 10
156.56566096
 20
-1.20629318
 10
156.55311829
 20
-1.17594701
 10
156.54147962
 20
-1.14629185
 10
156.53072896
 20
-1.11731768
 10
156.52085029
 20
-1.08901451
 10
156.51182762
 20
-1.06137235
 10
156.50416329
 20
-1.08757633
 10
156.49573296
 20
-1.11434021
 10
156.48648062
 20
-1.1416669
 10
156.47635029
 20
-1.16955928
 10
156.46528596
 20
-1.19802026
 10
156.45323162
 20
-1.22705275
 10
156.44013129
 20
-1.25665963
 10
156.42592896
 20
-1.28684381
 10
156.41056862
 20
-1.3176082
 10
156.39399429
 20
-1.34895568
 10
156.37665796
 20
-1.38236166
 10
156.35666362
 20
-1.41879955
 10
156.33403329
 20
-1.45825423
 10
156.30878896
 20
-1.50071061
 10
156.28095262
 20
-1.5461536
 10
156.25054629
 20
-1.59456808
 10
156.21759196
 20
-1.64593896
 10
156.18211162
 20
-1.70025115
 10
156.14412729
 20
-1.75748953
 10
156.10366096
 20
-1.81763901
 10
154.71399429
 20
-3.87875568
 10
149.68632762
 20
-3.87875568
 10
154.02916096
 20
0.96126099
 10
150.19716096
 20
5.20776099
 10
155.21666096
 20
5.20776099
 10
156.11999429
 20
3.72467765
 10
156.12282029
 20
3.71916457
 10
156.12618229
 20
3.71306699
 10
156.13005629
 20
3.7063874
 10
156.13441829
 20
3.69912832
 10
156.13924429
 20
3.69129224
 10
156.14451029
 20
3.68288165
 10
156.15019229
 20
3.67389907
 10
156.15626629
 20
3.66434699
 10
156.16270829
 20
3.6542279
 10
156.16949429
 20
3.64354432
 10
156.21822962
 20
3.5608914
 10
156.26373696
 20
3.48164299
 10
156.30601829
 20
3.40581457
 10
156.34507562
 20
3.33342165
 10
156.38091096
 20
3.26447974
 10
156.41352629
 20
3.19900432
 10
156.44292362
 20
3.1370109
 10
156.46910496
 20
3.07851499
 10
156.49207229
 20
3.02353207
 10
156.51182762
 20
2.97207765
 10
156.52394129
 20
3.00472095
 10
156.53659696
 20
3.03747005
 10
156.54981662
 20
3.07033875
 10
156.56362229
 20
3.10334085
 10
156.57803596
 20
3.13649015
 10
156.59307962
 20
3.16980045
 10
156.60877529
 20
3.20328555
 10
156.62514496
 20
3.23695925
 10
156.64221062
 20
3.27083535
 10
156.65999429
 20
3.30492765
 10
156.67728062
 20
3.34001
 10
156.69590496
 20
3.37665045
 10
156.71581529
 20
3.4148391
 10
156.73695962
 20
3.45456605
 10
156.75928596
 20
3.4958214
 10
156.78274229
 20
3.53859525
 10
156.80727662
 20
3.5828777
 10
156.83283696
 20
3.62865885
 10
156.85937129
 20
3.6759288
 10
156.88682762
 20
3.72467765
 10
157.81432762
 20
5.20776099
 10
162.81099429
 20
5.20776099
 10
158.99166096
 20
0.96126099
 10
163.33932762
 20
-3.87875568
 10
158.30716096
 20
-3.87875568
 97
        1
330
F9
 75
     0
 76
     2
 47
0.775229
 98
        1
 10
0.0
 20
0.0
  0
LWPOLYLINE
  5
FB
102
{ACAD_REACTORS
330
FC
102
}
100
AcDbEntity
  8
MST_1_1
 62
     7
100
AcDbPolyline
 90
       46
 70
     1
 43
0.0
 10
167.65449429
 20
11.33381099
 10
167.76702479
 20
11.32469749
 10
167.87393829
 20
11.29832299
 10
167.97376779
 20
11.25613649
 10
168.06504629
 20
11.19958699
 10
168.14630679
 20
11.13012349
 10
168.21608229
 20
11.04919499
 10
168.27290579
 20
10.95825049
 10
168.31531029
 20
10.85873899
 10
168.34182879
 20
10.75210949
 10
168.35099429
 20
10.63981099
 10
168.35099429
 20
10.63981099
 10
168.34182879
 20
10.52765732
 10
168.31531029
 20
10.42116165
 10
168.27290579
 20
10.32177199
 10
168.21608229
 20
10.23093632
 10
168.14630679
 20
10.15010265
 10
168.06504629
 20
10.08071899
 10
167.97376779
 20
10.02423332
 10
167.87393829
 20
9.98209365
 10
167.76702479
 20
9.95574799
 10
167.65449429
 20
9.94664432
 10
167.65449429
 20
9.94664432
 10
167.54137346
 20
9.95574799
 10
167.43406762
 20
9.98209365
 10
167.33401179
 20
10.02423332
 10
167.24264096
 20
10.08071899
 10
167.16139012
 20
10.15010265
 10
167.09169429
 20
10.23093632
 10
167.03498846
 20
10.32177199
 10
166.99270762
 20
10.42116165
 10
166.96628679
 20
10.52765732
 10
166.95716096
 20
10.63981099
 10
166.95716096
 20
10.63981099
 10
166.96628679
 20
10.75210949
 10
166.99270762
 20
10.85873899
 10
167.03498846
 20
10.95825049
 10
167.09169429
 20
11.04919499
 10
167.16139012
 20
11.13012349
 10
167.24264096
 20
11.19958699
 10
167.33401179
 20
11.25613649
 10
167.43406762
 20
11.29832299
 10
167.54137346
 20
11.32469749
 10
167.65449429
 20
11.33381099
 10
167.65449429
 20
11.33381099
 10
167.65449429
 20
11.33381099
  0
HATCH
  5
FC
100
AcDbEntity
  8
MST_1_1
 62
     7
100
AcDbHatch
 10
0.0
 20
0.0
 30
0.0
210
0.0
220
0.0
230
1.0
  2
SOLID
 70
     1
 71
     1
 91
        1
 92
        7
 72
     0
 73
     1
 93
       40
 10
167.65449429
 20
11.33381099
 10
167.76702479
 20
11.32469749
 10
167.87393829
 20
11.29832299
 10
167.97376779
 20
11.25613649
 10
168.06504629
 20
11.19958699
 10
168.14630679
 20
11.13012349
 10
168.21608229
 20
11.04919499
 10
168.27290579
 20
10.95825049
 10
168.31531029
 20
10.85873899
 10
168.34182879
 20
10.75210949
 10
168.35099429
 20
10.63981099
 10
168.34182879
 20
10.52765732
 10
168.31531029
 20
10.42116165
 10
168.27290579
 20
10.32177199
 10
168.21608229
 20
10.23093632
 10
168.14630679
 20
10.15010265
 10
168.06504629
 20
10.08071899
 10
167.97376779
 20
10.02423332
 10
167.87393829
 20
9.98209365
 10
167.76702479
 20
9.95574799
 10
167.65449429
 20
9.94664432
 10
167.54137346
 20
9.95574799
 10
167.43406762
 20
9.98209365
 10
167.33401179
 20
10.02423332
 10
167.24264096
 20
10.08071899
 10
167.16139012
 20
10.15010265
 10
167.09169429
 20
10.23093632
 10
167.03498846
 20
10.32177199
 10
166.99270762
 20
10.42116165
 10
166.96628679
 20
10.52765732
 10
166.95716096
 20
10.63981099
 10
166.96628679
 20
10.75210949
 10
166.99270762
 20
10.85873899
 10
167.03498846
 20
10.95825049
 10
167.09169429
 20
11.04919499
 10
167.16139012
 20
11.13012349
 10
167.24264096
 20
11.19958699
 10
167.33401179
 20
11.25613649
 10
167.43406762
 20
11.29832299
 10
167.54137346
 20
11.32469749
 97
        1
330
FB
 75
     0
 76
     2
 47
0.775229
 98
        1
 10
0.0
 20
0.0
  0
LWPOLYLINE
  5
FD
102
{ACAD_REACTORS
330
FE
102
}
100
AcDbEntity
  8
MST_1_1
 62
    12
100
AcDbPolyline
 90
       29
 70
     1
 43
0.0
 10
167.33482762
 20
11.12181099
 10
167.33482762
 20
10.21514432
 10
167.33482762
 20
10.21514432
 10
167.46899429
 20
10.21514432
 10
167.46899429
 20
10.21514432
 10
167.46899429
 20
10.62214432
 10
167.46899429
 20
10.62214432
 10
167.64732762
 20
10.62214432
 10
167.64732762
 20
10.62214432
 10
167.90666096
 20
10.22114432
 10
167.90666096
 20
10.22114432
 10
168.04282762
 20
10.22114432
 10
168.04282762
 20
10.22114432
 10
167.78399429
 20
10.62947765
 10
167.78399429
 20
10.62947765
 10
167.87258129
 20
10.64789932
 10
167.94225029
 20
10.68805099
 10
167.99271329
 20
10.74436265
 10
168.02368229
 20
10.81126432
 10
168.03486929
 20
10.88318599
 10
168.02598629
 20
10.95455765
 10
167.99674529
 20
11.01980932
 10
167.94685829
 20
11.07337099
 10
167.87603729
 20
11.10967265
 10
167.78399429
 20
11.12314432
 10
167.78399429
 20
11.12314432
 10
167.33482762
 20
11.12181099
 10
167.33482762
 20
11.12181099
 10
167.33482762
 20
11.12181099
  0
HATCH
  5
FE
100
AcDbEntity
  8
MST_1_1
 62
    12
100
AcDbHatch
 10
0.0
 20
0.0
 30
0.0
210
0.0
220
0.0
230
1.0
  2
SOLID
 70
     1
 71
     1
 91
        1
 92
        7
 72
     0
 73
     1
 93
       18
 10
167.33482762
 20
11.12181099
 10
167.33482762
 20
10.21514432
 10
167.46899429
 20
10.21514432
 10
167.46899429
 20
10.62214432
 10
167.64732762
 20
10.62214432
 10
167.90666096
 20
10.22114432
 10
168.04282762
 20
10.22114432
 10
167.78399429
 20
10.62947765
 10
167.87258129
 20
10.64789932
 10
167.94225029
 20
10.68805099
 10
167.99271329
 20
10.74436265
 10
168.02368229
 20
10.81126432
 10
168.03486929
 20
10.88318599
 10
168.02598629
 20
10.95455765
 10
167.99674529
 20
11.01980932
 10
167.94685829
 20
11.07337099
 10
167.87603729
 20
11.10967265
 10
167.78399429
 20
11.12314432
 97
        1
330
FD
 75
     0
 76
     2
 47
0.775229
 98
        1
 10
0.0
 20
0.0
  0
LWPOLYLINE
  5
FF
102
{ACAD_REACTORS
330
100
102
}
100
AcDbEntity
  8
MST_1_1
 62
     7
100
AcDbPolyline
 90
       19
 70
     1
 43
0.0
 10
167.46899429
 20
11.01864432
 10
167.46899429
 20
10.72797765
 10
167.46899429
 20
10.72797765
 10
167.77032762
 20
10.72881099
 10
167.77032762
 20
10.72881099
 10
167.82330612
 20
10.74066132
 10
167.86477562
 20
10.76503365
 10
167.89463712
 20
10.79865999
 10
167.91279162
 20
10.83827232
 10
167.91914012
 20
10.88060265
 10
167.91358362
 20
10.92238299
 10
167.89602312
 20
10.96034532
 10
167.86635962
 20
10.99122165
 10
167.82449412
 20
11.01174399
 10
167.77032762
 20
11.01864432
 10
167.77032762
 20
11.01864432
 10
167.46899429
 20
11.01864432
 10
167.46899429
 20
11.01864432
 10
167.46899429
 20
11.01864432
  0
HATCH
  5
100
100
AcDbEntity
  8
MST_1_1
 62
     7
100
AcDbHatch
 10
0.0
 20
0.0
 30
0.0
210
0.0
220
0.0
230
1.0
  2
SOLID
 70
     1
 71
     1
 91
        1
 92
        7
 72
     0
 73
     1
 93
       13
 10
167.46899429
 20
11.01864432
 10
167.46899429
 20
10.72797765
 10
167.77032762
 20
10.72881099
 10
167.82330612
 20
10.74066132
 10
167.86477562
 20
10.76503365
 10
167.89463712
 20
10.79865999
 10
167.91279162
 20
10.83827232
 10
167.91914012
 20
10.88060265
 10
167.91358362
 20
10.92238299
 10
167.89602312
 20
10.96034532
 10
167.86635962
 20
10.99122165
 10
167.82449412
 20
11.01174399
 10
167.77032762
 20
11.01864432
 97
        1
330
FF
 75
     0
 76
     2
 47
0.775229
 98
        1
 10
0.0
 20
0.0
  0
LINE
  5
101
100
AcDbEntity
  8
MST_1_1
 62
     1
  6
BORDER
100
AcDbLine
 10
-236.67920562
 20
-176.04374264
 30
0.0
 11
-333.99143991
 21
-176.04374264
 31
0.0
  0
LWPOLYLINE
  5
102
100
AcDbEntity
  8
MST_1_1
 62
   137
  6
CONTINUOUS
100
AcDbPolyline
 90
        7
 70
     0
 43
0.0
 38
1000.0
 10
-327.67920562
 20
-146.04374264
 10
-329.47920562
 20
-146.04374264
 10
-331.67920562
 20
-159.04374264
 10
-331.67920562
 20
-193.04374264
 10
-329.47920562
 20
-206.04374264
 10
-327.67920562
 20
-206.04374264
 10
-327.67920562
 20
-146.04374264
  0
LWPOLYLINE
  5
103
100
AcDbEntity
  8
MST_1_1
 62
   137
  6
CONTINUOUS
100
AcDbPolyline
 90
        3
 70
     0
 43
0.0
 38
1000.0
 10
-327.67920562
 20
-168.04374264
 10
-307.67920562
 20
-168.04374264
 10
-301.67920562
 20
-172.14374264
  0
LWPOLYLINE
  5
104
100
AcDbEntity
  8
MST_1_1
 62
   137
  6
CONTINUOUS
100
AcDbPolyline
 90
        3
 70
     0
 43
0.0
 38
1000.0
 10
-327.67920562
 20
-184.04374264
 10
-307.67920562
 20
-184.04374264
 10
-301.67920562
 20
-179.94374264
  0
LINE
  5
105
100
AcDbEntity
  8
MST_1_1
 62
   137
  6
CONTINUOUS
100
AcDbLine
 10
-327.67920562
 20
-162.04374264
 30
1000.0
 11
-318.67920562
 21
-168.04374264
 31
1000.0
  0
LINE
  5
106
100
AcDbEntity
  8
MST_1_1
 62
   137
  6
CONTINUOUS
100
AcDbLine
 10
-327.67920562
 20
-190.04374264
 30
1000.0
 11
-318.67920562
 21
-184.04374264
 31
1000.0
  0
LWPOLYLINE
  5
107
100
AcDbEntity
  8
MST_1_1
 62
   137
  6
CONTINUOUS
100
AcDbPolyline
 90
        3
 70
     0
 43
0.0
 38
1000.0
 10
-318.67920562
 20
-176.04374264
 10
-319.27920562
 20
-175.44374264
 10
-327.67920562
 20
-175.14374264
  0
LWPOLYLINE
  5
108
100
AcDbEntity
  8
MST_1_1
 62
   137
  6
CONTINUOUS
100
AcDbPolyline
 90
        3
 70
     0
 43
0.0
 38
1000.0
 10
-327.67920562
 20
-176.94374264
 10
-319.27920562
 20
-176.64374264
 10
-318.67920562
 20
-176.04374264
  0
LINE
  5
109
100
AcDbEntity
  8
MST_1_1
 62
   137
  6
CONTINUOUS
100
AcDbLine
 10
-319.27920562
 20
-176.64374264
 30
1000.0
 11
-327.67920562
 21
-176.64374264
 31
1000.0
  0
LINE
  5
10A
100
AcDbEntity
  8
MST_1_1
 62
   137
  6
CONTINUOUS
100
AcDbLine
 10
-319.27920562
 20
-175.44374264
 30
1000.0
 11
-327.67920562
 21
-175.44374264
 31
1000.0
  0
LINE
  5
10B
100
AcDbEntity
  8
MST_1_1
 62
   137
  6
CONTINUOUS
100
AcDbLine
 10
-301.67920562
 20
-172.14374264
 30
1000.0
 11
-297.67920562
 21
-172.14374264
 31
1000.0
  0
LINE
  5
10C
100
AcDbEntity
  8
MST_1_1
 62
   137
  6
CONTINUOUS
100
AcDbLine
 10
-296.87920562
 20
-172.14374264
 30
1000.0
 11
-295.37920562
 21
-172.14374264
 31
1000.0
  0
LINE
  5
10D
100
AcDbEntity
  8
MST_1_1
 62
   137
  6
CONTINUOUS
100
AcDbLine
 10
-294.57920562
 20
-172.14374264
 30
1000.0
 11
-293.07920562
 21
-172.14374264
 31
1000.0
  0
LWPOLYLINE
  5
10E
100
AcDbEntity
  8
MST_1_1
 62
   137
  6
CONTINUOUS
100
AcDbPolyline
 90
        3
 70
     0
 43
0.0
 38
1000.0
 10
-257.67920562
 20
-172.54374264
 10
-257.67920562
 20
-171.54374264
 10
-256.17920562
 20
-172.14374264
  0
LWPOLYLINE
  5
10F
100
AcDbEntity
  8
MST_1_1
 62
   137
  6
CONTINUOUS
100
AcDbPolyline
 90
        3
 70
     0
 43
0.0
 38
1000.0
 10
-292.27920562
 20
-172.14374264
 10
-261.67920562
 20
-172.14374264
 10
-257.67920562
 20
-172.54374264
  0
LWPOLYLINE
  5
110
100
AcDbEntity
  8
MST_1_1
 62
   137
  6
CONTINUOUS
100
AcDbPolyline
 90
       14
 70
     0
 43
0.0
 38
1000.0
 10
-256.17920562
 20
-172.14374264
 10
-252.17920562
 20
-172.54374264
 10
-252.17920562
 20
-171.54374264
 10
-250.67920562
 20
-172.14374264
 10
-246.67920562
 20
-172.54374264
 10
-246.67920562
 20
-171.54374264
 10
-245.17920562
 20
-172.14374264
 10
-241.27920562
 20
-172.54374264
 10
-241.27920562
 20
-172.14374264
 10
-239.47920562
 20
-172.14374264
 10
-236.67920562
 20
-172.94374264
 10
-236.67920562
 20
-179.14374264
 10
-239.47920562
 20
-179.94374264
 10
-241.27920562
 20
-179.94374264
  0
LWPOLYLINE
  5
111
100
AcDbEntity
  8
MST_1_1
 62
   137
  6
CONTINUOUS
100
AcDbPolyline
 90
       13
 70
     0
 43
0.0
 38
1000.0
 10
-241.27920562
 20
-179.94374264
 10
-241.27920562
 20
-179.54374264
 10
-245.17920562
 20
-179.94374264
 10
-246.67920562
 20
-180.54374264
 10
-246.67920562
 20
-179.54374264
 10
-250.67920562
 20
-179.94374264
 10
-252.17920562
 20
-180.54374264
 10
-252.17920562
 20
-179.54374264
 10
-256.17920562
 20
-179.94374264
 10
-257.67920562
 20
-180.54374264
 10
-257.67920562
 20
-179.54374264
 10
-261.67920562
 20
-179.94374264
 10
-292.27920562
 20
-179.94374264
  0
LINE
  5
112
100
AcDbEntity
  8
MST_1_1
 62
   137
  6
CONTINUOUS
100
AcDbLine
 10
-293.07920562
 20
-179.94374264
 30
1000.0
 11
-294.57920562
 21
-179.94374264
 31
1000.0
  0
LINE
  5
113
100
AcDbEntity
  8
MST_1_1
 62
   137
  6
CONTINUOUS
100
AcDbLine
 10
-295.37920562
 20
-179.94374264
 30
1000.0
 11
-296.87920562
 21
-179.94374264
 31
1000.0
  0
LINE
  5
114
100
AcDbEntity
  8
MST_1_1
 62
   137
  6
CONTINUOUS
100
AcDbLine
 10
-297.67920562
 20
-179.94374264
 30
1000.0
 11
-301.67920562
 21
-179.94374264
 31
1000.0
  0
LWPOLYLINE
  5
115
100
AcDbEntity
  8
MST_1_1
 62
   137
  6
CONTINUOUS
100
AcDbPolyline
 90
        5
 70
     0
 43
0.0
 38
1000.0
 10
-297.67920562
 20
-172.04374264
 10
-296.87920562
 20
-172.04374264
 10
-296.87920562
 20
-180.04374264
 10
-297.67920562
 20
-180.04374264
 10
-297.67920562
 20
-172.04374264
  0
LWPOLYLINE
  5
116
100
AcDbEntity
  8
MST_1_1
 62
   137
  6
CONTINUOUS
100
AcDbPolyline
 90
        5
 70
     0
 43
0.0
 38
1000.0
 10
-295.37920562
 20
-172.04374264
 10
-294.57920562
 20
-172.04374264
 10
-294.57920562
 20
-180.04374264
 10
-295.37920562
 20
-180.04374264
 10
-295.37920562
 20
-172.04374264
  0
LWPOLYLINE
  5
117
100
AcDbEntity
  8
MST_1_1
 62
   137
  6
CONTINUOUS
100
AcDbPolyline
 90
        5
 70
     0
 43
0.0
 38
1000.0
 10
-293.07920562
 20
-172.04374264
 10
-292.27920562
 20
-172.04374264
 10
-292.27920562
 20
-180.04374264
 10
-293.07920562
 20
-180.04374264
 10
-293.07920562
 20
-172.04374264
  0
LINE
  5
118
100
AcDbEntity
  8
MST_1_1
 62
   137
  6
CONTINUOUS
100
AcDbLine
 10
-252.17920562
 20
-172.54374264
 30
1000.0
 11
-252.17920562
 21
-175.14374264
 31
1000.0
  0
LINE
  5
119
100
AcDbEntity
  8
MST_1_1
 62
   137
  6
CONTINUOUS
100
AcDbLine
 10
-252.17920562
 20
-175.14374264
 30
1000.0
 11
-250.67920562
 21
-172.14374264
 31
1000.0
  0
LWPOLYLINE
  5
11A
100
AcDbEntity
  8
MST_1_1
 62
   137
  6
CONTINUOUS
100
AcDbPolyline
 90
        3
 70
     0
 43
0.0
 38
1000.0
 10
-246.67920562
 20
-172.54374264
 10
-246.67920562
 20
-175.14374264
 10
-245.17920562
 20
-172.14374264
  0
LWPOLYLINE
  5
11B
100
AcDbEntity
  8
MST_1_1
 62
   137
  6
CONTINUOUS
100
AcDbPolyline
 90
        3
 70
     0
 43
0.0
 38
1000.0
 10
-246.67920562
 20
-179.54374264
 10
-246.67920562
 20
-176.94374264
 10
-245.17920562
 20
-179.94374264
  0
LWPOLYLINE
  5
11C
100
AcDbEntity
  8
MST_1_1
 62
   137
  6
CONTINUOUS
100
AcDbPolyline
 90
        3
 70
     0
 43
0.0
 38
1000.0
 10
-252.17920562
 20
-179.54374264
 10
-252.17920562
 20
-176.94374264
 10
-250.67920562
 20
-179.94374264
  0
LWPOLYLINE
  5
11D
100
AcDbEntity
  8
MST_1_1
 62
   137
  6
CONTINUOUS
100
AcDbPolyline
 90
        3
 70
     0
 43
0.0
 38
1000.0
 10
-257.67920562
 20
-179.54374264
 10
-257.67920562
 20
-176.94374264
 10
-256.17920562
 20
-179.94374264
  0
LWPOLYLINE
  5
11E
100
AcDbEntity
  8
MST_1_1
 62
   137
  6
CONTINUOUS
100
AcDbPolyline
 90
        3
 70
     0
 43
0.0
 38
1000.0
 10
-257.67920562
 20
-172.54374264
 10
-257.67920562
 20
-175.14374264
 10
-256.17920562
 20
-172.14374264
  0
LWPOLYLINE
  5
11F
100
AcDbEntity
  8
MST_1_1
 62
   137
  6
CONTINUOUS
100
AcDbPolyline
 90
        4
 70
     0
 43
0.0
 38
1000.0
 10
-270.93087415
 20
-175.54374264
 42
0.25049165
 10
-271.67920562
 20
-175.14374264
 42
1.0
 10
-271.67920562
 20
-176.94374264
 42
0.25049165
 10
-270.93087415
 20
-176.54374264
  0
LWPOLYLINE
  5
120
100
AcDbEntity
  8
MST_1_1
 62
   137
  6
CONTINUOUS
100
AcDbPolyline
 90
        4
 70
     0
 43
0.0
 38
1000.0
 10
-270.93087415
 20
-175.54374264
 10
-237.67920562
 20
-175.54374264
 10
-237.67920562
 20
-176.54374264
 10
-270.93087415
 20
-176.54374264
  0
CIRCLE
  5
121
100
AcDbEntity
  8
MST_1_1
 62
   137
  6
CONTINUOUS
100
AcDbCircle
 39
-1000.0
 10
-448.46902141
 20
-176.04374264
 30
1000.0
 40
30.0
  0
CIRCLE
  5
122
100
AcDbEntity
  8
MST_1_1
 62
   137
  6
CONTINUOUS
100
AcDbCircle
 39
-1000.0
 10
-428.11742442
 20
-164.29374264
 30
1000.0
 40
3.25
  0
CIRCLE
  5
123
100
AcDbEntity
  8
MST_1_1
 62
   137
  6
CONTINUOUS
100
AcDbCircle
 39
-1000.0
 10
-439.27663326
 20
-166.85135449
 30
1000.0
 40
2.0
  0
CIRCLE
  5
124
100
AcDbEntity
  8
MST_1_1
 62
   137
  6
CONTINUOUS
100
AcDbCircle
 39
-1000.0
 10
-448.46902141
 20
-176.04374264
 30
1000.0
 40
6.0
  0
CIRCLE
  5
125
100
AcDbEntity
  8
MST_1_1
 62
   137
  6
CONTINUOUS
100
AcDbCircle
 39
-1000.0
 10
-457.66140957
 20
-166.85135449
 30
1000.0
 40
2.0
  0
CIRCLE
  5
126
100
AcDbEntity
  8
MST_1_1
 62
   137
  6
CONTINUOUS
100
AcDbCircle
 39
-1000.0
 10
-457.66140957
 20
-185.2361308
 30
1000.0
 40
2.0
  0
CIRCLE
  5
127
100
AcDbEntity
  8
MST_1_1
 62
   137
  6
CONTINUOUS
100
AcDbCircle
 39
-1000.0
 10
-439.27663326
 20
-185.2361308
 30
1000.0
 40
2.0
  0
CIRCLE
  5
128
100
AcDbEntity
  8
MST_1_1
 62
   137
  6
CONTINUOUS
100
AcDbCircle
 39
-1000.0
 10
-436.71902141
 20
-155.69214565
 30
1000.0
 40
3.25
  0
CIRCLE
  5
129
100
AcDbEntity
  8
MST_1_1
 62
   137
  6
CONTINUOUS
100
AcDbCircle
 39
-1000.0
 10
-460.21902141
 20
-155.69214565
 30
1000.0
 40
3.25
  0
CIRCLE
  5
12A
100
AcDbEntity
  8
MST_1_1
 62
   137
  6
CONTINUOUS
100
AcDbCircle
 39
-1000.0
 10
-468.8206184
 20
-164.29374264
 30
1000.0
 40
3.25
  0
CIRCLE
  5
12B
100
AcDbEntity
  8
MST_1_1
 62
   137
  6
CONTINUOUS
100
AcDbCircle
 39
-1000.0
 10
-471.96902141
 20
-176.04374264
 30
1000.0
 40
3.25
  0
CIRCLE
  5
12C
100
AcDbEntity
  8
MST_1_1
 62
   137
  6
CONTINUOUS
100
AcDbCircle
 39
-1000.0
 10
-468.8206184
 20
-187.79374264
 30
1000.0
 40
3.25
  0
CIRCLE
  5
12D
100
AcDbEntity
  8
MST_1_1
 62
   137
  6
CONTINUOUS
100
AcDbCircle
 39
-1000.0
 10
-428.11742442
 20
-187.79374264
 30
1000.0
 40
3.25
  0
CIRCLE
  5
12E
100
AcDbEntity
  8
MST_1_1
 62
   137
  6
CONTINUOUS
100
AcDbCircle
 39
-1000.0
 10
-424.96902141
 20
-176.04374264
 30
1000.0
 40
3.25
  0
LINE
  5
12F
100
AcDbEntity
  8
MST_1_1
 62
     7
  6
DASHED
100
AcDbLine
 10
-176.67920562
 20
-146.04374264
 30
0.0
 11
-176.67920562
 21
-401.04374264
 31
0.0
  0
LINE
  5
130
100
AcDbEntity
  8
MST_1_1
 62
     7
  6
DASHED
100
AcDbLine
 10
-156.67920562
 20
-146.04374264
 30
0.0
 11
-156.67920562
 21
-471.04374264
 31
0.0
  0
LINE
  5
131
100
AcDbEntity
  8
MST_1_1
 62
     7
  6
DASHED
100
AcDbLine
 10
-136.67920562
 20
-146.04374264
 30
0.0
 11
-136.67920562
 21
-541.04374264
 31
0.0
  0
LINE
  5
132
100
AcDbEntity
  8
MST_1_1
 62
     7
  6
DASHED
100
AcDbLine
 10
-116.67920562
 20
-146.04374264
 30
0.0
 11
-116.67920562
 21
-611.04374264
 31
0.0
  0
LINE
  5
133
100
AcDbEntity
  8
MST_1_1
 62
     7
  6
DASHED
100
AcDbLine
 10
-96.67920562
 20
-146.04374264
 30
0.0
 11
-96.67920562
 21
-681.04374264
 31
0.0
  0
LINE
  5
134
100
AcDbEntity
  8
MST_1_1
 62
     7
  6
DASHED
100
AcDbLine
 10
-76.67920562
 20
-146.04374264
 30
0.0
 11
-76.67920562
 21
-751.04374264
 31
0.0
  0
LINE
  5
135
100
AcDbEntity
  8
MST_1_1
 62
     7
  6
DASHED
100
AcDbLine
 10
-56.67920562
 20
-146.04374264
 30
0.0
 11
-56.67920562
 21
-821.04374264
 31
0.0
  0
LINE
  5
136
100
AcDbEntity
  8
MST_1_1
 62
     7
  6
DASHED
100
AcDbLine
 10
-36.67920562
 20
-146.04374264
 30
0.0
 11
-36.67920562
 21
-891.04374264
 31
0.0
  0
LINE
  5
137
100
AcDbEntity
  8
MST_1_1
 62
     1
  6
BORDER
100
AcDbLine
 10
-216.67920562
 20
-246.04374264
 30
0.0
 11
-333.99143991
 21
-246.04374264
 31
0.0
  0
LWPOLYLINE
  5
138
100
AcDbEntity
  8
MST_1_1
 62
   137
  6
CONTINUOUS
100
AcDbPolyline
 90
        7
 70
     0
 43
0.0
 38
1000.0
 10
-327.67920562
 20
-216.04374264
 10
-329.47920562
 20
-216.04374264
 10
-331.67920562
 20
-229.04374264
 10
-331.67920562
 20
-263.04374264
 10
-329.47920562
 20
-276.04374264
 10
-327.67920562
 20
-276.04374264
 10
-327.67920562
 20
-216.04374264
  0
LWPOLYLINE
  5
139
100
AcDbEntity
  8
MST_1_1
 62
   137
  6
CONTINUOUS
100
AcDbPolyline
 90
        3
 70
     0
 43
0.0
 38
1000.0
 10
-327.67920562
 20
-238.04374264
 10
-307.67920562
 20
-238.04374264
 10
-301.67920562
 20
-242.14374264
  0
LWPOLYLINE
  5
13A
100
AcDbEntity
  8
MST_1_1
 62
   137
  6
CONTINUOUS
100
AcDbPolyline
 90
        3
 70
     0
 43
0.0
 38
1000.0
 10
-327.67920562
 20
-254.04374264
 10
-307.67920562
 20
-254.04374264
 10
-301.67920562
 20
-249.94374264
  0
LINE
  5
13B
100
AcDbEntity
  8
MST_1_1
 62
   137
  6
CONTINUOUS
100
AcDbLine
 10
-327.67920562
 20
-232.04374264
 30
1000.0
 11
-318.67920562
 21
-238.04374264
 31
1000.0
  0
LINE
  5
13C
100
AcDbEntity
  8
MST_1_1
 62
   137
  6
CONTINUOUS
100
AcDbLine
 10
-327.67920562
 20
-260.04374264
 30
1000.0
 11
-318.67920562
 21
-254.04374264
 31
1000.0
  0
LWPOLYLINE
  5
13D
100
AcDbEntity
  8
MST_1_1
 62
   137
  6
CONTINUOUS
100
AcDbPolyline
 90
        3
 70
     0
 43
0.0
 38
1000.0
 10
-318.67920562
 20
-246.04374264
 10
-319.27920562
 20
-245.44374264
 10
-327.67920562
 20
-245.14374264
  0
LWPOLYLINE
  5
13E
100
AcDbEntity
  8
MST_1_1
 62
   137
  6
CONTINUOUS
100
AcDbPolyline
 90
        3
 70
     0
 43
0.0
 38
1000.0
 10
-327.67920562
 20
-246.94374264
 10
-319.27920562
 20
-246.64374264
 10
-318.67920562
 20
-246.04374264
  0
LINE
  5
13F
100
AcDbEntity
  8
MST_1_1
 62
   137
  6
CONTINUOUS
100
AcDbLine
 10
-319.27920562
 20
-246.64374264
 30
1000.0
 11
-327.67920562
 21
-246.64374264
 31
1000.0
  0
LINE
  5
140
100
AcDbEntity
  8
MST_1_1
 62
   137
  6
CONTINUOUS
100
AcDbLine
 10
-319.27920562
 20
-245.44374264
 30
1000.0
 11
-327.67920562
 21
-245.44374264
 31
1000.0
  0
LINE
  5
141
100
AcDbEntity
  8
MST_1_1
 62
   137
  6
CONTINUOUS
100
AcDbLine
 10
-301.67920562
 20
-242.14374264
 30
1000.0
 11
-297.67920562
 21
-242.14374264
 31
1000.0
  0
LINE
  5
142
100
AcDbEntity
  8
MST_1_1
 62
   137
  6
CONTINUOUS
100
AcDbLine
 10
-296.87920562
 20
-242.14374264
 30
1000.0
 11
-295.37920562
 21
-242.14374264
 31
1000.0
  0
LINE
  5
143
100
AcDbEntity
  8
MST_1_1
 62
   137
  6
CONTINUOUS
100
AcDbLine
 10
-294.57920562
 20
-242.14374264
 30
1000.0
 11
-293.07920562
 21
-242.14374264
 31
1000.0
  0
LWPOLYLINE
  5
144
100
AcDbEntity
  8
MST_1_1
 62
   137
  6
CONTINUOUS
100
AcDbPolyline
 90
        3
 70
     0
 43
0.0
 38
1000.0
 10
-237.67920562
 20
-242.54374264
 10
-237.67920562
 20
-241.54374264
 10
-236.17920562
 20
-242.14374264
  0
LWPOLYLINE
  5
145
100
AcDbEntity
  8
MST_1_1
 62
   137
  6
CONTINUOUS
100
AcDbPolyline
 90
        3
 70
     0
 43
0.0
 38
1000.0
 10
-292.27920562
 20
-242.14374264
 10
-241.67920562
 20
-242.14374264
 10
-237.67920562
 20
-242.54374264
  0
LWPOLYLINE
  5
146
100
AcDbEntity
  8
MST_1_1
 62
   137
  6
CONTINUOUS
100
AcDbPolyline
 90
       14
 70
     0
 43
0.0
 38
1000.0
 10
-236.17920562
 20
-242.14374264
 10
-232.17920562
 20
-242.54374264
 10
-232.17920562
 20
-241.54374264
 10
-230.67920562
 20
-242.14374264
 10
-226.67920562
 20
-242.54374264
 10
-226.67920562
 20
-241.54374264
 10
-225.17920562
 20
-242.14374264
 10
-221.27920562
 20
-242.54374264
 10
-221.27920562
 20
-242.14374264
 10
-219.47920562
 20
-242.14374264
 10
-216.67920562
 20
-242.94374264
 10
-216.67920562
 20
-249.14374264
 10
-219.47920562
 20
-249.94374264
 10
-221.27920562
 20
-249.94374264
  0
LWPOLYLINE
  5
147
100
AcDbEntity
  8
MST_1_1
 62
   137
  6
CONTINUOUS
100
AcDbPolyline
 90
       13
 70
     0
 43
0.0
 38
1000.0
 10
-221.27920562
 20
-249.94374264
 10
-221.27920562
 20
-249.54374264
 10
-225.17920562
 20
-249.94374264
 10
-226.67920562
 20
-250.54374264
 10
-226.67920562
 20
-249.54374264
 10
-230.67920562
 20
-249.94374264
 10
-232.17920562
 20
-250.54374264
 10
-232.17920562
 20
-249.54374264
 10
-236.17920562
 20
-249.94374264
 10
-237.67920562
 20
-250.54374264
 10
-237.67920562
 20
-249.54374264
 10
-241.67920562
 20
-249.94374264
 10
-292.27920562
 20
-249.94374264
  0
LINE
  5
148
100
AcDbEntity
  8
MST_1_1
 62
   137
  6
CONTINUOUS
100
AcDbLine
 10
-293.07920562
 20
-249.94374264
 30
1000.0
 11
-294.57920562
 21
-249.94374264
 31
1000.0
  0
LINE
  5
149
100
AcDbEntity
  8
MST_1_1
 62
   137
  6
CONTINUOUS
100
AcDbLine
 10
-295.37920562
 20
-249.94374264
 30
1000.0
 11
-296.87920562
 21
-249.94374264
 31
1000.0
  0
LINE
  5
14A
100
AcDbEntity
  8
MST_1_1
 62
   137
  6
CONTINUOUS
100
AcDbLine
 10
-297.67920562
 20
-249.94374264
 30
1000.0
 11
-301.67920562
 21
-249.94374264
 31
1000.0
  0
LWPOLYLINE
  5
14B
100
AcDbEntity
  8
MST_1_1
 62
   137
  6
CONTINUOUS
100
AcDbPolyline
 90
        5
 70
     0
 43
0.0
 38
1000.0
 10
-297.67920562
 20
-242.04374264
 10
-296.87920562
 20
-242.04374264
 10
-296.87920562
 20
-250.04374264
 10
-297.67920562
 20
-250.04374264
 10
-297.67920562
 20
-242.04374264
  0
LWPOLYLINE
  5
14C
100
AcDbEntity
  8
MST_1_1
 62
   137
  6
CONTINUOUS
100
AcDbPolyline
 90
        5
 70
     0
 43
0.0
 38
1000.0
 10
-295.37920562
 20
-242.04374264
 10
-294.57920562
 20
-242.04374264
 10
-294.57920562
 20
-250.04374264
 10
-295.37920562
 20
-250.04374264
 10
-295.37920562
 20
-242.04374264
  0
LWPOLYLINE
  5
14D
100
AcDbEntity
  8
MST_1_1
 62
   137
  6
CONTINUOUS
100
AcDbPolyline
 90
        5
 70
     0
 43
0.0
 38
1000.0
 10
-293.07920562
 20
-242.04374264
 10
-292.27920562
 20
-242.04374264
 10
-292.27920562
 20
-250.04374264
 10
-293.07920562
 20
-250.04374264
 10
-293.07920562
 20
-242.04374264
  0
LINE
  5
14E
100
AcDbEntity
  8
MST_1_1
 62
   137
  6
CONTINUOUS
100
AcDbLine
 10
-232.17920562
 20
-242.54374264
 30
1000.0
 11
-232.17920562
 21
-245.14374264
 31
1000.0
  0
LINE
  5
14F
100
AcDbEntity
  8
MST_1_1
 62
   137
  6
CONTINUOUS
100
AcDbLine
 10
-232.17920562
 20
-245.14374264
 30
1000.0
 11
-230.67920562
 21
-242.14374264
 31
1000.0
  0
LWPOLYLINE
  5
150
100
AcDbEntity
  8
MST_1_1
 62
   137
  6
CONTINUOUS
100
AcDbPolyline
 90
        3
 70
     0
 43
0.0
 38
1000.0
 10
-226.67920562
 20
-242.54374264
 10
-226.67920562
 20
-245.14374264
 10
-225.17920562
 20
-242.14374264
  0
LWPOLYLINE
  5
151
100
AcDbEntity
  8
MST_1_1
 62
   137
  6
CONTINUOUS
100
AcDbPolyline
 90
        3
 70
     0
 43
0.0
 38
1000.0
 10
-226.67920562
 20
-249.54374264
 10
-226.67920562
 20
-246.94374264
 10
-225.17920562
 20
-249.94374264
  0
LWPOLYLINE
  5
152
100
AcDbEntity
  8
MST_1_1
 62
   137
  6
CONTINUOUS
100
AcDbPolyline
 90
        3
 70
     0
 43
0.0
 38
1000.0
 10
-232.17920562
 20
-249.54374264
 10
-232.17920562
 20
-246.94374264
 10
-230.67920562
 20
-249.94374264
  0
LWPOLYLINE
  5
153
100
AcDbEntity
  8
MST_1_1
 62
   137
  6
CONTINUOUS
100
AcDbPolyline
 90
        3
 70
     0
 43
0.0
 38
1000.0
 10
-237.67920562
 20
-249.54374264
 10
-237.67920562
 20
-246.94374264
 10
-236.17920562
 20
-249.94374264
  0
LWPOLYLINE
  5
154
100
AcDbEntity
  8
MST_1_1
 62
   137
  6
CONTINUOUS
100
AcDbPolyline
 90
        3
 70
     0
 43
0.0
 38
1000.0
 10
-237.67920562
 20
-242.54374264
 10
-237.67920562
 20
-245.14374264
 10
-236.17920562
 20
-242.14374264
  0
LWPOLYLINE
  5
155
100
AcDbEntity
  8
MST_1_1
 62
   137
  6
CONTINUOUS
100
AcDbPolyline
 90
        4
 70
     0
 43
0.0
 38
1000.0
 10
-250.93087415
 20
-245.54374264
 42
0.25049165
 10
-251.67920562
 20
-245.14374264
 42
1.0
 10
-251.67920562
 20
-246.94374264
 42
0.25049165
 10
-250.93087415
 20
-246.54374264
  0
LWPOLYLINE
  5
156
100
AcDbEntity
  8
MST_1_1
 62
   137
  6
CONTINUOUS
100
AcDbPolyline
 90
        4
 70
     0
 43
0.0
 38
1000.0
 10
-250.93087415
 20
-245.54374264
 10
-217.67920562
 20
-245.54374264
 10
-217.67920562
 20
-246.54374264
 10
-250.93087415
 20
-246.54374264
  0
CIRCLE
  5
157
100
AcDbEntity
  8
MST_1_1
 62
   137
  6
CONTINUOUS
100
AcDbCircle
 39
-1000.0
 10
-448.46902141
 20
-246.04374264
 30
1000.0
 40
30.0
  0
CIRCLE
  5
158
100
AcDbEntity
  8
MST_1_1
 62
   137
  6
CONTINUOUS
100
AcDbCircle
 39
-1000.0
 10
-428.11742442
 20
-234.29374264
 30
1000.0
 40
3.25
  0
CIRCLE
  5
159
100
AcDbEntity
  8
MST_1_1
 62
   137
  6
CONTINUOUS
100
AcDbCircle
 39
-1000.0
 10
-439.27663326
 20
-236.85135449
 30
1000.0
 40
2.0
  0
CIRCLE
  5
15A
100
AcDbEntity
  8
MST_1_1
 62
   137
  6
CONTINUOUS
100
AcDbCircle
 39
-1000.0
 10
-448.46902141
 20
-246.04374264
 30
1000.0
 40
6.0
  0
CIRCLE
  5
15B
100
AcDbEntity
  8
MST_1_1
 62
   137
  6
CONTINUOUS
100
AcDbCircle
 39
-1000.0
 10
-457.66140957
 20
-236.85135449
 30
1000.0
 40
2.0
  0
CIRCLE
  5
15C
100
AcDbEntity
  8
MST_1_1
 62
   137
  6
CONTINUOUS
100
AcDbCircle
 39
-1000.0
 10
-457.66140957
 20
-255.2361308
 30
1000.0
 40
2.0
  0
CIRCLE
  5
15D
100
AcDbEntity
  8
MST_1_1
 62
   137
  6
CONTINUOUS
100
AcDbCircle
 39
-1000.0
 10
-439.27663326
 20
-255.2361308
 30
1000.0
 40
2.0
  0
CIRCLE
  5
15E
100
AcDbEntity
  8
MST_1_1
 62
   137
  6
CONTINUOUS
100
AcDbCircle
 39
-1000.0
 10
-436.71902141
 20
-225.69214565
 30
1000.0
 40
3.25
  0
CIRCLE
  5
15F
100
AcDbEntity
  8
MST_1_1
 62
   137
  6
CONTINUOUS
100
AcDbCircle
 39
-1000.0
 10
-460.21902141
 20
-225.69214565
 30
1000.0
 40
3.25
  0
CIRCLE
  5
160
100
AcDbEntity
  8
MST_1_1
 62
   137
  6
CONTINUOUS
100
AcDbCircle
 39
-1000.0
 10
-468.8206184
 20
-234.29374264
 30
1000.0
 40
3.25
  0
CIRCLE
  5
161
100
AcDbEntity
  8
MST_1_1
 62
   137
  6
CONTINUOUS
100
AcDbCircle
 39
-1000.0
 10
-471.96902141
 20
-246.04374264
 30
1000.0
 40
3.25
  0
CIRCLE
  5
162
100
AcDbEntity
  8
MST_1_1
 62
   137
  6
CONTINUOUS
100
AcDbCircle
 39
-1000.0
 10
-468.8206184
 20
-257.79374264
 30
1000.0
 40
3.25
  0
CIRCLE
  5
163
100
AcDbEntity
  8
MST_1_1
 62
   137
  6
CONTINUOUS
100
AcDbCircle
 39
-1000.0
 10
-428.11742442
 20
-257.79374264
 30
1000.0
 40
3.25
  0
CIRCLE
  5
164
100
AcDbEntity
  8
MST_1_1
 62
   137
  6
CONTINUOUS
100
AcDbCircle
 39
-1000.0
 10
-424.96902141
 20
-246.04374264
 30
1000.0
 40
3.25
  0
LINE
  5
165
100
AcDbEntity
  8
MST_1_1
 62
     1
  6
BORDER
100
AcDbLine
 10
-196.67920562
 20
-316.04374264
 30
0.0
 11
-333.99143991
 21
-316.04374264
 31
0.0
  0
LWPOLYLINE
  5
166
100
AcDbEntity
  8
MST_1_1
 62
   137
  6
CONTINUOUS
100
AcDbPolyline
 90
        7
 70
     0
 43
0.0
 38
1000.0
 10
-327.67920562
 20
-286.04374264
 10
-329.47920562
 20
-286.04374264
 10
-331.67920562
 20
-299.04374264
 10
-331.67920562
 20
-333.04374264
 10
-329.47920562
 20
-346.04374264
 10
-327.67920562
 20
-346.04374264
 10
-327.67920562
 20
-286.04374264
  0
LWPOLYLINE
  5
167
100
AcDbEntity
  8
MST_1_1
 62
   137
  6
CONTINUOUS
100
AcDbPolyline
 90
        3
 70
     0
 43
0.0
 38
1000.0
 10
-327.67920562
 20
-308.04374264
 10
-307.67920562
 20
-308.04374264
 10
-301.67920562
 20
-312.14374264
  0
LWPOLYLINE
  5
168
100
AcDbEntity
  8
MST_1_1
 62
   137
  6
CONTINUOUS
100
AcDbPolyline
 90
        3
 70
     0
 43
0.0
 38
1000.0
 10
-327.67920562
 20
-324.04374264
 10
-307.67920562
 20
-324.04374264
 10
-301.67920562
 20
-319.94374264
  0
LINE
  5
169
100
AcDbEntity
  8
MST_1_1
 62
   137
  6
CONTINUOUS
100
AcDbLine
 10
-327.67920562
 20
-302.04374264
 30
1000.0
 11
-318.67920562
 21
-308.04374264
 31
1000.0
  0
LINE
  5
16A
100
AcDbEntity
  8
MST_1_1
 62
   137
  6
CONTINUOUS
100
AcDbLine
 10
-327.67920562
 20
-330.04374264
 30
1000.0
 11
-318.67920562
 21
-324.04374264
 31
1000.0
  0
LWPOLYLINE
  5
16B
100
AcDbEntity
  8
MST_1_1
 62
   137
  6
CONTINUOUS
100
AcDbPolyline
 90
        3
 70
     0
 43
0.0
 38
1000.0
 10
-318.67920562
 20
-316.04374264
 10
-319.27920562
 20
-315.44374264
 10
-327.67920562
 20
-315.14374264
  0
LWPOLYLINE
  5
16C
100
AcDbEntity
  8
MST_1_1
 62
   137
  6
CONTINUOUS
100
AcDbPolyline
 90
        3
 70
     0
 43
0.0
 38
1000.0
 10
-327.67920562
 20
-316.94374264
 10
-319.27920562
 20
-316.64374264
 10
-318.67920562
 20
-316.04374264
  0
LINE
  5
16D
100
AcDbEntity
  8
MST_1_1
 62
   137
  6
CONTINUOUS
100
AcDbLine
 10
-319.27920562
 20
-316.64374264
 30
1000.0
 11
-327.67920562
 21
-316.64374264
 31
1000.0
  0
LINE
  5
16E
100
AcDbEntity
  8
MST_1_1
 62
   137
  6
CONTINUOUS
100
AcDbLine
 10
-319.27920562
 20
-315.44374264
 30
1000.0
 11
-327.67920562
 21
-315.44374264
 31
1000.0
  0
LINE
  5
16F
100
AcDbEntity
  8
MST_1_1
 62
   137
  6
CONTINUOUS
100
AcDbLine
 10
-301.67920562
 20
-312.14374264
 30
1000.0
 11
-297.67920562
 21
-312.14374264
 31
1000.0
  0
LINE
  5
170
100
AcDbEntity
  8
MST_1_1
 62
   137
  6
CONTINUOUS
100
AcDbLine
 10
-296.87920562
 20
-312.14374264
 30
1000.0
 11
-295.37920562
 21
-312.14374264
 31
1000.0
  0
LINE
  5
171
100
AcDbEntity
  8
MST_1_1
 62
   137
  6
CONTINUOUS
100
AcDbLine
 10
-294.57920562
 20
-312.14374264
 30
1000.0
 11
-293.07920562
 21
-312.14374264
 31
1000.0
  0
LWPOLYLINE
  5
172
100
AcDbEntity
  8
MST_1_1
 62
   137
  6
CONTINUOUS
100
AcDbPolyline
 90
        3
 70
     0
 43
0.0
 38
1000.0
 10
-217.67920562
 20
-312.54374264
 10
-217.67920562
 20
-311.54374264
 10
-216.17920562
 20
-312.14374264
  0
LWPOLYLINE
  5
173
100
AcDbEntity
  8
MST_1_1
 62
   137
  6
CONTINUOUS
100
AcDbPolyline
 90
        3
 70
     0
 43
0.0
 38
1000.0
 10
-292.27920562
 20
-312.14374264
 10
-221.67920562
 20
-312.14374264
 10
-217.67920562
 20
-312.54374264
  0
LWPOLYLINE
  5
174
100
AcDbEntity
  8
MST_1_1
 62
   137
  6
CONTINUOUS
100
AcDbPolyline
 90
       14
 70
     0
 43
0.0
 38
1000.0
 10
-216.17920562
 20
-312.14374264
 10
-212.17920562
 20
-312.54374264
 10
-212.17920562
 20
-311.54374264
 10
-210.67920562
 20
-312.14374264
 10
-206.67920562
 20
-312.54374264
 10
-206.67920562
 20
-311.54374264
 10
-205.17920562
 20
-312.14374264
 10
-201.27920562
 20
-312.54374264
 10
-201.27920562
 20
-312.14374264
 10
-199.47920562
 20
-312.14374264
 10
-196.67920562
 20
-312.94374264
 10
-196.67920562
 20
-319.14374264
 10
-199.47920562
 20
-319.94374264
 10
-201.27920562
 20
-319.94374264
  0
LWPOLYLINE
  5
175
100
AcDbEntity
  8
MST_1_1
 62
   137
  6
CONTINUOUS
100
AcDbPolyline
 90
       13
 70
     0
 43
0.0
 38
1000.0
 10
-201.27920562
 20
-319.94374264
 10
-201.27920562
 20
-319.54374264
 10
-205.17920562
 20
-319.94374264
 10
-206.67920562
 20
-320.54374264
 10
-206.67920562
 20
-319.54374264
 10
-210.67920562
 20
-319.94374264
 10
-212.17920562
 20
-320.54374264
 10
-212.17920562
 20
-319.54374264
 10
-216.17920562
 20
-319.94374264
 10
-217.67920562
 20
-320.54374264
 10
-217.67920562
 20
-319.54374264
 10
-221.67920562
 20
-319.94374264
 10
-292.27920562
 20
-319.94374264
  0
LINE
  5
176
100
AcDbEntity
  8
MST_1_1
 62
   137
  6
CONTINUOUS
100
AcDbLine
 10
-293.07920562
 20
-319.94374264
 30
1000.0
 11
-294.57920562
 21
-319.94374264
 31
1000.0
  0
LINE
  5
177
100
AcDbEntity
  8
MST_1_1
 62
   137
  6
CONTINUOUS
100
AcDbLine
 10
-295.37920562
 20
-319.94374264
 30
1000.0
 11
-296.87920562
 21
-319.94374264
 31
1000.0
  0
LINE
  5
178
100
AcDbEntity
  8
MST_1_1
 62
   137
  6
CONTINUOUS
100
AcDbLine
 10
-297.67920562
 20
-319.94374264
 30
1000.0
 11
-301.67920562
 21
-319.94374264
 31
1000.0
  0
LWPOLYLINE
  5
179
100
AcDbEntity
  8
MST_1_1
 62
   137
  6
CONTINUOUS
100
AcDbPolyline
 90
        5
 70
     0
 43
0.0
 38
1000.0
 10
-297.67920562
 20
-312.04374264
 10
-296.87920562
 20
-312.04374264
 10
-296.87920562
 20
-320.04374264
 10
-297.67920562
 20
-320.04374264
 10
-297.67920562
 20
-312.04374264
  0
LWPOLYLINE
  5
17A
100
AcDbEntity
  8
MST_1_1
 62
   137
  6
CONTINUOUS
100
AcDbPolyline
 90
        5
 70
     0
 43
0.0
 38
1000.0
 10
-295.37920562
 20
-312.04374264
 10
-294.57920562
 20
-312.04374264
 10
-294.57920562
 20
-320.04374264
 10
-295.37920562
 20
-320.04374264
 10
-295.37920562
 20
-312.04374264
  0
LWPOLYLINE
  5
17B
100
AcDbEntity
  8
MST_1_1
 62
   137
  6
CONTINUOUS
100
AcDbPolyline
 90
        5
 70
     0
 43
0.0
 38
1000.0
 10
-293.07920562
 20
-312.04374264
 10
-292.27920562
 20
-312.04374264
 10
-292.27920562
 20
-320.04374264
 10
-293.07920562
 20
-320.04374264
 10
-293.07920562
 20
-312.04374264
  0
LINE
  5
17C
100
AcDbEntity
  8
MST_1_1
 62
   137
  6
CONTINUOUS
100
AcDbLine
 10
-212.17920562
 20
-312.54374264
 30
1000.0
 11
-212.17920562
 21
-315.14374264
 31
1000.0
  0
LINE
  5
17D
100
AcDbEntity
  8
MST_1_1
 62
   137
  6
CONTINUOUS
100
AcDbLine
 10
-212.17920562
 20
-315.14374264
 30
1000.0
 11
-210.67920562
 21
-312.14374264
 31
1000.0
  0
LWPOLYLINE
  5
17E
100
AcDbEntity
  8
MST_1_1
 62
   137
  6
CONTINUOUS
100
AcDbPolyline
 90
        3
 70
     0
 43
0.0
 38
1000.0
 10
-206.67920562
 20
-312.54374264
 10
-206.67920562
 20
-315.14374264
 10
-205.17920562
 20
-312.14374264
  0
LWPOLYLINE
  5
17F
100
AcDbEntity
  8
MST_1_1
 62
   137
  6
CONTINUOUS
100
AcDbPolyline
 90
        3
 70
     0
 43
0.0
 38
1000.0
 10
-206.67920562
 20
-319.54374264
 10
-206.67920562
 20
-316.94374264
 10
-205.17920562
 20
-319.94374264
  0
LWPOLYLINE
  5
180
100
AcDbEntity
  8
MST_1_1
 62
   137
  6
CONTINUOUS
100
AcDbPolyline
 90
        3
 70
     0
 43
0.0
 38
1000.0
 10
-212.17920562
 20
-319.54374264
 10
-212.17920562
 20
-316.94374264
 10
-210.67920562
 20
-319.94374264
  0
LWPOLYLINE
  5
181
100
AcDbEntity
  8
MST_1_1
 62
   137
  6
CONTINUOUS
100
AcDbPolyline
 90
        3
 70
     0
 43
0.0
 38
1000.0
 10
-217.67920562
 20
-319.54374264
 10
-217.67920562
 20
-316.94374264
 10
-216.17920562
 20
-319.94374264
  0
LWPOLYLINE
  5
182
100
AcDbEntity
  8
MST_1_1
 62
   137
  6
CONTINUOUS
100
AcDbPolyline
 90
        3
 70
     0
 43
0.0
 38
1000.0
 10
-217.67920562
 20
-312.54374264
 10
-217.67920562
 20
-315.14374264
 10
-216.17920562
 20
-312.14374264
  0
LWPOLYLINE
  5
183
100
AcDbEntity
  8
MST_1_1
 62
   137
  6
CONTINUOUS
100
AcDbPolyline
 90
        4
 70
     0
 43
0.0
 38
1000.0
 10
-230.93087415
 20
-315.54374264
 42
0.25049165
 10
-231.67920562
 20
-315.14374264
 42
1.0
 10
-231.67920562
 20
-316.94374264
 42
0.25049165
 10
-230.93087415
 20
-316.54374264
  0
LWPOLYLINE
  5
184
100
AcDbEntity
  8
MST_1_1
 62
   137
  6
CONTINUOUS
100
AcDbPolyline
 90
        4
 70
     0
 43
0.0
 38
1000.0
 10
-230.93087415
 20
-315.54374264
 10
-197.67920562
 20
-315.54374264
 10
-197.67920562
 20
-316.54374264
 10
-230.93087415
 20
-316.54374264
  0
CIRCLE
  5
185
100
AcDbEntity
  8
MST_1_1
 62
   137
  6
CONTINUOUS
100
AcDbCircle
 39
-1000.0
 10
-448.46902141
 20
-316.04374264
 30
1000.0
 40
30.0
  0
CIRCLE
  5
186
100
AcDbEntity
  8
MST_1_1
 62
   137
  6
CONTINUOUS
100
AcDbCircle
 39
-1000.0
 10
-428.11742442
 20
-304.29374264
 30
1000.0
 40
3.25
  0
CIRCLE
  5
187
100
AcDbEntity
  8
MST_1_1
 62
   137
  6
CONTINUOUS
100
AcDbCircle
 39
-1000.0
 10
-439.27663326
 20
-306.85135449
 30
1000.0
 40
2.0
  0
CIRCLE
  5
188
100
AcDbEntity
  8
MST_1_1
 62
   137
  6
CONTINUOUS
100
AcDbCircle
 39
-1000.0
 10
-448.46902141
 20
-316.04374264
 30
1000.0
 40
6.0
  0
CIRCLE
  5
189
100
AcDbEntity
  8
MST_1_1
 62
   137
  6
CONTINUOUS
100
AcDbCircle
 39
-1000.0
 10
-457.66140957
 20
-306.85135449
 30
1000.0
 40
2.0
  0
CIRCLE
  5
18A
100
AcDbEntity
  8
MST_1_1
 62
   137
  6
CONTINUOUS
100
AcDbCircle
 39
-1000.0
 10
-457.66140957
 20
-325.2361308
 30
1000.0
 40
2.0
  0
CIRCLE
  5
18B
100
AcDbEntity
  8
MST_1_1
 62
   137
  6
CONTINUOUS
100
AcDbCircle
 39
-1000.0
 10
-439.27663326
 20
-325.2361308
 30
1000.0
 40
2.0
  0
CIRCLE
  5
18C
100
AcDbEntity
  8
MST_1_1
 62
   137
  6
CONTINUOUS
100
AcDbCircle
 39
-1000.0
 10
-436.71902141
 20
-295.69214565
 30
1000.0
 40
3.25
  0
CIRCLE
  5
18D
100
AcDbEntity
  8
MST_1_1
 62
   137
  6
CONTINUOUS
100
AcDbCircle
 39
-1000.0
 10
-460.21902141
 20
-295.69214565
 30
1000.0
 40
3.25
  0
CIRCLE
  5
18E
100
AcDbEntity
  8
MST_1_1
 62
   137
  6
CONTINUOUS
100
AcDbCircle
 39
-1000.0
 10
-468.8206184
 20
-304.29374264
 30
1000.0
 40
3.25
  0
CIRCLE
  5
18F
100
AcDbEntity
  8
MST_1_1
 62
   137
  6
CONTINUOUS
100
AcDbCircle
 39
-1000.0
 10
-471.96902141
 20
-316.04374264
 30
1000.0
 40
3.25
  0
CIRCLE
  5
190
100
AcDbEntity
  8
MST_1_1
 62
   137
  6
CONTINUOUS
100
AcDbCircle
 39
-1000.0
 10
-468.8206184
 20
-327.79374264
 30
1000.0
 40
3.25
  0
CIRCLE
  5
191
100
AcDbEntity
  8
MST_1_1
 62
   137
  6
CONTINUOUS
100
AcDbCircle
 39
-1000.0
 10
-428.11742442
 20
-327.79374264
 30
1000.0
 40
3.25
  0
CIRCLE
  5
192
100
AcDbEntity
  8
MST_1_1
 62
   137
  6
CONTINUOUS
100
AcDbCircle
 39
-1000.0
 10
-424.96902141
 20
-316.04374264
 30
1000.0
 40
3.25
  0
LINE
  5
193
100
AcDbEntity
  8
MST_1_1
 62
     1
  6
BORDER
100
AcDbLine
 10
-176.67920562
 20
-386.04374264
 30
0.0
 11
-333.99143991
 21
-386.04374264
 31
0.0
  0
LWPOLYLINE
  5
194
100
AcDbEntity
  8
MST_1_1
 62
   137
  6
CONTINUOUS
100
AcDbPolyline
 90
        7
 70
     0
 43
0.0
 38
1000.0
 10
-327.67920562
 20
-356.04374264
 10
-329.47920562
 20
-356.04374264
 10
-331.67920562
 20
-369.04374264
 10
-331.67920562
 20
-403.04374264
 10
-329.47920562
 20
-416.04374264
 10
-327.67920562
 20
-416.04374264
 10
-327.67920562
 20
-356.04374264
  0
LWPOLYLINE
  5
195
100
AcDbEntity
  8
MST_1_1
 62
   137
  6
CONTINUOUS
100
AcDbPolyline
 90
        3
 70
     0
 43
0.0
 38
1000.0
 10
-327.67920562
 20
-378.04374264
 10
-307.67920562
 20
-378.04374264
 10
-301.67920562
 20
-382.14374264
  0
LWPOLYLINE
  5
196
100
AcDbEntity
  8
MST_1_1
 62
   137
  6
CONTINUOUS
100
AcDbPolyline
 90
        3
 70
     0
 43
0.0
 38
1000.0
 10
-327.67920562
 20
-394.04374264
 10
-307.67920562
 20
-394.04374264
 10
-301.67920562
 20
-389.94374264
  0
LINE
  5
197
100
AcDbEntity
  8
MST_1_1
 62
   137
  6
CONTINUOUS
100
AcDbLine
 10
-327.67920562
 20
-372.04374264
 30
1000.0
 11
-318.67920562
 21
-378.04374264
 31
1000.0
  0
LINE
  5
198
100
AcDbEntity
  8
MST_1_1
 62
   137
  6
CONTINUOUS
100
AcDbLine
 10
-327.67920562
 20
-400.04374264
 30
1000.0
 11
-318.67920562
 21
-394.04374264
 31
1000.0
  0
LWPOLYLINE
  5
199
100
AcDbEntity
  8
MST_1_1
 62
   137
  6
CONTINUOUS
100
AcDbPolyline
 90
        3
 70
     0
 43
0.0
 38
1000.0
 10
-318.67920562
 20
-386.04374264
 10
-319.27920562
 20
-385.44374264
 10
-327.67920562
 20
-385.14374264
  0
LWPOLYLINE
  5
19A
100
AcDbEntity
  8
MST_1_1
 62
   137
  6
CONTINUOUS
100
AcDbPolyline
 90
        3
 70
     0
 43
0.0
 38
1000.0
 10
-327.67920562
 20
-386.94374264
 10
-319.27920562
 20
-386.64374264
 10
-318.67920562
 20
-386.04374264
  0
LINE
  5
19B
100
AcDbEntity
  8
MST_1_1
 62
   137
  6
CONTINUOUS
100
AcDbLine
 10
-319.27920562
 20
-386.64374264
 30
1000.0
 11
-327.67920562
 21
-386.64374264
 31
1000.0
  0
LINE
  5
19C
100
AcDbEntity
  8
MST_1_1
 62
   137
  6
CONTINUOUS
100
AcDbLine
 10
-319.27920562
 20
-385.44374264
 30
1000.0
 11
-327.67920562
 21
-385.44374264
 31
1000.0
  0
LINE
  5
19D
100
AcDbEntity
  8
MST_1_1
 62
   137
  6
CONTINUOUS
100
AcDbLine
 10
-301.67920562
 20
-382.14374264
 30
1000.0
 11
-297.67920562
 21
-382.14374264
 31
1000.0
  0
LINE
  5
19E
100
AcDbEntity
  8
MST_1_1
 62
   137
  6
CONTINUOUS
100
AcDbLine
 10
-296.87920562
 20
-382.14374264
 30
1000.0
 11
-295.37920562
 21
-382.14374264
 31
1000.0
  0
LINE
  5
19F
100
AcDbEntity
  8
MST_1_1
 62
   137
  6
CONTINUOUS
100
AcDbLine
 10
-294.57920562
 20
-382.14374264
 30
1000.0
 11
-293.07920562
 21
-382.14374264
 31
1000.0
  0
LWPOLYLINE
  5
1A0
100
AcDbEntity
  8
MST_1_1
 62
   137
  6
CONTINUOUS
100
AcDbPolyline
 90
        3
 70
     0
 43
0.0
 38
1000.0
 10
-197.67920562
 20
-382.54374264
 10
-197.67920562
 20
-381.54374264
 10
-196.17920562
 20
-382.14374264
  0
LWPOLYLINE
  5
1A1
100
AcDbEntity
  8
MST_1_1
 62
   137
  6
CONTINUOUS
100
AcDbPolyline
 90
        3
 70
     0
 43
0.0
 38
1000.0
 10
-292.27920562
 20
-382.14374264
 10
-201.67920562
 20
-382.14374264
 10
-197.67920562
 20
-382.54374264
  0
LWPOLYLINE
  5
1A2
100
AcDbEntity
  8
MST_1_1
 62
   137
  6
CONTINUOUS
100
AcDbPolyline
 90
       14
 70
     0
 43
0.0
 38
1000.0
 10
-196.17920562
 20
-382.14374264
 10
-192.17920562
 20
-382.54374264
 10
-192.17920562
 20
-381.54374264
 10
-190.67920562
 20
-382.14374264
 10
-186.67920562
 20
-382.54374264
 10
-186.67920562
 20
-381.54374264
 10
-185.17920562
 20
-382.14374264
 10
-181.27920562
 20
-382.54374264
 10
-181.27920562
 20
-382.14374264
 10
-179.47920562
 20
-382.14374264
 10
-176.67920562
 20
-382.94374264
 10
-176.67920562
 20
-389.14374264
 10
-179.47920562
 20
-389.94374264
 10
-181.27920562
 20
-389.94374264
  0
LWPOLYLINE
  5
1A3
100
AcDbEntity
  8
MST_1_1
 62
   137
  6
CONTINUOUS
100
AcDbPolyline
 90
       13
 70
     0
 43
0.0
 38
1000.0
 10
-181.27920562
 20
-389.94374264
 10
-181.27920562
 20
-389.54374264
 10
-185.17920562
 20
-389.94374264
 10
-186.67920562
 20
-390.54374264
 10
-186.67920562
 20
-389.54374264
 10
-190.67920562
 20
-389.94374264
 10
-192.17920562
 20
-390.54374264
 10
-192.17920562
 20
-389.54374264
 10
-196.17920562
 20
-389.94374264
 10
-197.67920562
 20
-390.54374264
 10
-197.67920562
 20
-389.54374264
 10
-201.67920562
 20
-389.94374264
 10
-292.27920562
 20
-389.94374264
  0
LINE
  5
1A4
100
AcDbEntity
  8
MST_1_1
 62
   137
  6
CONTINUOUS
100
AcDbLine
 10
-293.07920562
 20
-389.94374264
 30
1000.0
 11
-294.57920562
 21
-389.94374264
 31
1000.0
  0
LINE
  5
1A5
100
AcDbEntity
  8
MST_1_1
 62
   137
  6
CONTINUOUS
100
AcDbLine
 10
-295.37920562
 20
-389.94374264
 30
1000.0
 11
-296.87920562
 21
-389.94374264
 31
1000.0
  0
LINE
  5
1A6
100
AcDbEntity
  8
MST_1_1
 62
   137
  6
CONTINUOUS
100
AcDbLine
 10
-297.67920562
 20
-389.94374264
 30
1000.0
 11
-301.67920562
 21
-389.94374264
 31
1000.0
  0
LWPOLYLINE
  5
1A7
100
AcDbEntity
  8
MST_1_1
 62
   137
  6
CONTINUOUS
100
AcDbPolyline
 90
        5
 70
     0
 43
0.0
 38
1000.0
 10
-297.67920562
 20
-382.04374264
 10
-296.87920562
 20
-382.04374264
 10
-296.87920562
 20
-390.04374264
 10
-297.67920562
 20
-390.04374264
 10
-297.67920562
 20
-382.04374264
  0
LWPOLYLINE
  5
1A8
100
AcDbEntity
  8
MST_1_1
 62
   137
  6
CONTINUOUS
100
AcDbPolyline
 90
        5
 70
     0
 43
0.0
 38
1000.0
 10
-295.37920562
 20
-382.04374264
 10
-294.57920562
 20
-382.04374264
 10
-294.57920562
 20
-390.04374264
 10
-295.37920562
 20
-390.04374264
 10
-295.37920562
 20
-382.04374264
  0
LWPOLYLINE
  5
1A9
100
AcDbEntity
  8
MST_1_1
 62
   137
  6
CONTINUOUS
100
AcDbPolyline
 90
        5
 70
     0
 43
0.0
 38
1000.0
 10
-293.07920562
 20
-382.04374264
 10
-292.27920562
 20
-382.04374264
 10
-292.27920562
 20
-390.04374264
 10
-293.07920562
 20
-390.04374264
 10
-293.07920562
 20
-382.04374264
  0
LINE
  5
1AA
100
AcDbEntity
  8
MST_1_1
 62
   137
  6
CONTINUOUS
100
AcDbLine
 10
-192.17920562
 20
-382.54374264
 30
1000.0
 11
-192.17920562
 21
-385.14374264
 31
1000.0
  0
LINE
  5
1AB
100
AcDbEntity
  8
MST_1_1
 62
   137
  6
CONTINUOUS
100
AcDbLine
 10
-192.17920562
 20
-385.14374264
 30
1000.0
 11
-190.67920562
 21
-382.14374264
 31
1000.0
  0
LWPOLYLINE
  5
1AC
100
AcDbEntity
  8
MST_1_1
 62
   137
  6
CONTINUOUS
100
AcDbPolyline
 90
        3
 70
     0
 43
0.0
 38
1000.0
 10
-186.67920562
 20
-382.54374264
 10
-186.67920562
 20
-385.14374264
 10
-185.17920562
 20
-382.14374264
  0
LWPOLYLINE
  5
1AD
100
AcDbEntity
  8
MST_1_1
 62
   137
  6
CONTINUOUS
100
AcDbPolyline
 90
        3
 70
     0
 43
0.0
 38
1000.0
 10
-186.67920562
 20
-389.54374264
 10
-186.67920562
 20
-386.94374264
 10
-185.17920562
 20
-389.94374264
  0
LWPOLYLINE
  5
1AE
100
AcDbEntity
  8
MST_1_1
 62
   137
  6
CONTINUOUS
100
AcDbPolyline
 90
        3
 70
     0
 43
0.0
 38
1000.0
 10
-192.17920562
 20
-389.54374264
 10
-192.17920562
 20
-386.94374264
 10
-190.67920562
 20
-389.94374264
  0
LWPOLYLINE
  5
1AF
100
AcDbEntity
  8
MST_1_1
 62
   137
  6
CONTINUOUS
100
AcDbPolyline
 90
        3
 70
     0
 43
0.0
 38
1000.0
 10
-197.67920562
 20
-389.54374264
 10
-197.67920562
 20
-386.94374264
 10
-196.17920562
 20
-389.94374264
  0
LWPOLYLINE
  5
1B0
100
AcDbEntity
  8
MST_1_1
 62
   137
  6
CONTINUOUS
100
AcDbPolyline
 90
        3
 70
     0
 43
0.0
 38
1000.0
 10
-197.67920562
 20
-382.54374264
 10
-197.67920562
 20
-385.14374264
 10
-196.17920562
 20
-382.14374264
  0
LWPOLYLINE
  5
1B1
100
AcDbEntity
  8
MST_1_1
 62
   137
  6
CONTINUOUS
100
AcDbPolyline
 90
        4
 70
     0
 43
0.0
 38
1000.0
 10
-210.93087415
 20
-385.54374264
 42
0.25049165
 10
-211.67920562
 20
-385.14374264
 42
1.0
 10
-211.67920562
 20
-386.94374264
 42
0.25049165
 10
-210.93087415
 20
-386.54374264
  0
LWPOLYLINE
  5
1B2
100
AcDbEntity
  8
MST_1_1
 62
   137
  6
CONTINUOUS
100
AcDbPolyline
 90
        4
 70
     0
 43
0.0
 38
1000.0
 10
-210.93087415
 20
-385.54374264
 10
-177.67920562
 20
-385.54374264
 10
-177.67920562
 20
-386.54374264
 10
-210.93087415
 20
-386.54374264
  0
CIRCLE
  5
1B3
100
AcDbEntity
  8
MST_1_1
 62
   137
  6
CONTINUOUS
100
AcDbCircle
 39
-1000.0
 10
-448.46902141
 20
-386.04374264
 30
1000.0
 40
30.0
  0
CIRCLE
  5
1B4
100
AcDbEntity
  8
MST_1_1
 62
   137
  6
CONTINUOUS
100
AcDbCircle
 39
-1000.0
 10
-428.11742442
 20
-374.29374264
 30
1000.0
 40
3.25
  0
CIRCLE
  5
1B5
100
AcDbEntity
  8
MST_1_1
 62
   137
  6
CONTINUOUS
100
AcDbCircle
 39
-1000.0
 10
-439.27663326
 20
-376.85135449
 30
1000.0
 40
2.0
  0
CIRCLE
  5
1B6
100
AcDbEntity
  8
MST_1_1
 62
   137
  6
CONTINUOUS
100
AcDbCircle
 39
-1000.0
 10
-448.46902141
 20
-386.04374264
 30
1000.0
 40
6.0
  0
CIRCLE
  5
1B7
100
AcDbEntity
  8
MST_1_1
 62
   137
  6
CONTINUOUS
100
AcDbCircle
 39
-1000.0
 10
-457.66140957
 20
-376.85135449
 30
1000.0
 40
2.0
  0
CIRCLE
  5
1B8
100
AcDbEntity
  8
MST_1_1
 62
   137
  6
CONTINUOUS
100
AcDbCircle
 39
-1000.0
 10
-457.66140957
 20
-395.2361308
 30
1000.0
 40
2.0
  0
CIRCLE
  5
1B9
100
AcDbEntity
  8
MST_1_1
 62
   137
  6
CONTINUOUS
100
AcDbCircle
 39
-1000.0
 10
-439.27663326
 20
-395.2361308
 30
1000.0
 40
2.0
  0
CIRCLE
  5
1BA
100
AcDbEntity
  8
MST_1_1
 62
   137
  6
CONTINUOUS
100
AcDbCircle
 39
-1000.0
 10
-436.71902141
 20
-365.69214565
 30
1000.0
 40
3.25
  0
CIRCLE
  5
1BB
100
AcDbEntity
  8
MST_1_1
 62
   137
  6
CONTINUOUS
100
AcDbCircle
 39
-1000.0
 10
-460.21902141
 20
-365.69214565
 30
1000.0
 40
3.25
  0
CIRCLE
  5
1BC
100
AcDbEntity
  8
MST_1_1
 62
   137
  6
CONTINUOUS
100
AcDbCircle
 39
-1000.0
 10
-468.8206184
 20
-374.29374264
 30
1000.0
 40
3.25
  0
CIRCLE
  5
1BD
100
AcDbEntity
  8
MST_1_1
 62
   137
  6
CONTINUOUS
100
AcDbCircle
 39
-1000.0
 10
-471.96902141
 20
-386.04374264
 30
1000.0
 40
3.25
  0
CIRCLE
  5
1BE
100
AcDbEntity
  8
MST_1_1
 62
   137
  6
CONTINUOUS
100
AcDbCircle
 39
-1000.0
 10
-468.8206184
 20
-397.79374264
 30
1000.0
 40
3.25
  0
CIRCLE
  5
1BF
100
AcDbEntity
  8
MST_1_1
 62
   137
  6
CONTINUOUS
100
AcDbCircle
 39
-1000.0
 10
-428.11742442
 20
-397.79374264
 30
1000.0
 40
3.25
  0
CIRCLE
  5
1C0
100
AcDbEntity
  8
MST_1_1
 62
   137
  6
CONTINUOUS
100
AcDbCircle
 39
-1000.0
 10
-424.96902141
 20
-386.04374264
 30
1000.0
 40
3.25
  0
LINE
  5
1C1
100
AcDbEntity
  8
MST_1_1
 62
     1
  6
BORDER
100
AcDbLine
 10
-156.67920562
 20
-456.04374264
 30
0.0
 11
-333.99143991
 21
-456.04374264
 31
0.0
  0
LWPOLYLINE
  5
1C2
100
AcDbEntity
  8
MST_1_1
 62
   137
  6
CONTINUOUS
100
AcDbPolyline
 90
        7
 70
     0
 43
0.0
 38
1000.0
 10
-327.67920562
 20
-426.04374264
 10
-329.47920562
 20
-426.04374264
 10
-331.67920562
 20
-439.04374264
 10
-331.67920562
 20
-473.04374264
 10
-329.47920562
 20
-486.04374264
 10
-327.67920562
 20
-486.04374264
 10
-327.67920562
 20
-426.04374264
  0
LWPOLYLINE
  5
1C3
100
AcDbEntity
  8
MST_1_1
 62
   137
  6
CONTINUOUS
100
AcDbPolyline
 90
        3
 70
     0
 43
0.0
 38
1000.0
 10
-327.67920562
 20
-448.04374264
 10
-307.67920562
 20
-448.04374264
 10
-301.67920562
 20
-452.14374264
  0
LWPOLYLINE
  5
1C4
100
AcDbEntity
  8
MST_1_1
 62
   137
  6
CONTINUOUS
100
AcDbPolyline
 90
        3
 70
     0
 43
0.0
 38
1000.0
 10
-327.67920562
 20
-464.04374264
 10
-307.67920562
 20
-464.04374264
 10
-301.67920562
 20
-459.94374264
  0
LINE
  5
1C5
100
AcDbEntity
  8
MST_1_1
 62
   137
  6
CONTINUOUS
100
AcDbLine
 10
-327.67920562
 20
-442.04374264
 30
1000.0
 11
-318.67920562
 21
-448.04374264
 31
1000.0
  0
LINE
  5
1C6
100
AcDbEntity
  8
MST_1_1
 62
   137
  6
CONTINUOUS
100
AcDbLine
 10
-327.67920562
 20
-470.04374264
 30
1000.0
 11
-318.67920562
 21
-464.04374264
 31
1000.0
  0
LWPOLYLINE
  5
1C7
100
AcDbEntity
  8
MST_1_1
 62
   137
  6
CONTINUOUS
100
AcDbPolyline
 90
        3
 70
     0
 43
0.0
 38
1000.0
 10
-318.67920562
 20
-456.04374264
 10
-319.27920562
 20
-455.44374264
 10
-327.67920562
 20
-455.14374264
  0
LWPOLYLINE
  5
1C8
100
AcDbEntity
  8
MST_1_1
 62
   137
  6
CONTINUOUS
100
AcDbPolyline
 90
        3
 70
     0
 43
0.0
 38
1000.0
 10
-327.67920562
 20
-456.94374264
 10
-319.27920562
 20
-456.64374264
 10
-318.67920562
 20
-456.04374264
  0
LINE
  5
1C9
100
AcDbEntity
  8
MST_1_1
 62
   137
  6
CONTINUOUS
100
AcDbLine
 10
-319.27920562
 20
-456.64374264
 30
1000.0
 11
-327.67920562
 21
-456.64374264
 31
1000.0
  0
LINE
  5
1CA
100
AcDbEntity
  8
MST_1_1
 62
   137
  6
CONTINUOUS
100
AcDbLine
 10
-319.27920562
 20
-455.44374264
 30
1000.0
 11
-327.67920562
 21
-455.44374264
 31
1000.0
  0
LINE
  5
1CB
100
AcDbEntity
  8
MST_1_1
 62
   137
  6
CONTINUOUS
100
AcDbLine
 10
-301.67920562
 20
-452.14374264
 30
1000.0
 11
-297.67920562
 21
-452.14374264
 31
1000.0
  0
LINE
  5
1CC
100
AcDbEntity
  8
MST_1_1
 62
   137
  6
CONTINUOUS
100
AcDbLine
 10
-296.87920562
 20
-452.14374264
 30
1000.0
 11
-295.37920562
 21
-452.14374264
 31
1000.0
  0
LINE
  5
1CD
100
AcDbEntity
  8
MST_1_1
 62
   137
  6
CONTINUOUS
100
AcDbLine
 10
-294.57920562
 20
-452.14374264
 30
1000.0
 11
-293.07920562
 21
-452.14374264
 31
1000.0
  0
LWPOLYLINE
  5
1CE
100
AcDbEntity
  8
MST_1_1
 62
   137
  6
CONTINUOUS
100
AcDbPolyline
 90
        3
 70
     0
 43
0.0
 38
1000.0
 10
-177.67920562
 20
-452.54374264
 10
-177.67920562
 20
-451.54374264
 10
-176.17920562
 20
-452.14374264
  0
LWPOLYLINE
  5
1CF
100
AcDbEntity
  8
MST_1_1
 62
   137
  6
CONTINUOUS
100
AcDbPolyline
 90
        3
 70
     0
 43
0.0
 38
1000.0
 10
-292.27920562
 20
-452.14374264
 10
-181.67920562
 20
-452.14374264
 10
-177.67920562
 20
-452.54374264
  0
LWPOLYLINE
  5
1D0
100
AcDbEntity
  8
MST_1_1
 62
   137
  6
CONTINUOUS
100
AcDbPolyline
 90
       14
 70
     0
 43
0.0
 38
1000.0
 10
-176.17920562
 20
-452.14374264
 10
-172.17920562
 20
-452.54374264
 10
-172.17920562
 20
-451.54374264
 10
-170.67920562
 20
-452.14374264
 10
-166.67920562
 20
-452.54374264
 10
-166.67920562
 20
-451.54374264
 10
-165.17920562
 20
-452.14374264
 10
-161.27920562
 20
-452.54374264
 10
-161.27920562
 20
-452.14374264
 10
-159.47920562
 20
-452.14374264
 10
-156.67920562
 20
-452.94374264
 10
-156.67920562
 20
-459.14374264
 10
-159.47920562
 20
-459.94374264
 10
-161.27920562
 20
-459.94374264
  0
LWPOLYLINE
  5
1D1
100
AcDbEntity
  8
MST_1_1
 62
   137
  6
CONTINUOUS
100
AcDbPolyline
 90
       13
 70
     0
 43
0.0
 38
1000.0
 10
-161.27920562
 20
-459.94374264
 10
-161.27920562
 20
-459.54374264
 10
-165.17920562
 20
-459.94374264
 10
-166.67920562
 20
-460.54374264
 10
-166.67920562
 20
-459.54374264
 10
-170.67920562
 20
-459.94374264
 10
-172.17920562
 20
-460.54374264
 10
-172.17920562
 20
-459.54374264
 10
-176.17920562
 20
-459.94374264
 10
-177.67920562
 20
-460.54374264
 10
-177.67920562
 20
-459.54374264
 10
-181.67920562
 20
-459.94374264
 10
-292.27920562
 20
-459.94374264
  0
LINE
  5
1D2
100
AcDbEntity
  8
MST_1_1
 62
   137
  6
CONTINUOUS
100
AcDbLine
 10
-293.07920562
 20
-459.94374264
 30
1000.0
 11
-294.57920562
 21
-459.94374264
 31
1000.0
  0
LINE
  5
1D3
100
AcDbEntity
  8
MST_1_1
 62
   137
  6
CONTINUOUS
100
AcDbLine
 10
-295.37920562
 20
-459.94374264
 30
1000.0
 11
-296.87920562
 21
-459.94374264
 31
1000.0
  0
LINE
  5
1D4
100
AcDbEntity
  8
MST_1_1
 62
   137
  6
CONTINUOUS
100
AcDbLine
 10
-297.67920562
 20
-459.94374264
 30
1000.0
 11
-301.67920562
 21
-459.94374264
 31
1000.0
  0
LWPOLYLINE
  5
1D5
100
AcDbEntity
  8
MST_1_1
 62
   137
  6
CONTINUOUS
100
AcDbPolyline
 90
        5
 70
     0
 43
0.0
 38
1000.0
 10
-297.67920562
 20
-452.04374264
 10
-296.87920562
 20
-452.04374264
 10
-296.87920562
 20
-460.04374264
 10
-297.67920562
 20
-460.04374264
 10
-297.67920562
 20
-452.04374264
  0
LWPOLYLINE
  5
1D6
100
AcDbEntity
  8
MST_1_1
 62
   137
  6
CONTINUOUS
100
AcDbPolyline
 90
        5
 70
     0
 43
0.0
 38
1000.0
 10
-295.37920562
 20
-452.04374264
 10
-294.57920562
 20
-452.04374264
 10
-294.57920562
 20
-460.04374264
 10
-295.37920562
 20
-460.04374264
 10
-295.37920562
 20
-452.04374264
  0
LWPOLYLINE
  5
1D7
100
AcDbEntity
  8
MST_1_1
 62
   137
  6
CONTINUOUS
100
AcDbPolyline
 90
        5
 70
     0
 43
0.0
 38
1000.0
 10
-293.07920562
 20
-452.04374264
 10
-292.27920562
 20
-452.04374264
 10
-292.27920562
 20
-460.04374264
 10
-293.07920562
 20
-460.04374264
 10
-293.07920562
 20
-452.04374264
  0
LINE
  5
1D8
100
AcDbEntity
  8
MST_1_1
 62
   137
  6
CONTINUOUS
100
AcDbLine
 10
-172.17920562
 20
-452.54374264
 30
1000.0
 11
-172.17920562
 21
-455.14374264
 31
1000.0
  0
LINE
  5
1D9
100
AcDbEntity
  8
MST_1_1
 62
   137
  6
CONTINUOUS
100
AcDbLine
 10
-172.17920562
 20
-455.14374264
 30
1000.0
 11
-170.67920562
 21
-452.14374264
 31
1000.0
  0
LWPOLYLINE
  5
1DA
100
AcDbEntity
  8
MST_1_1
 62
   137
  6
CONTINUOUS
100
AcDbPolyline
 90
        3
 70
     0
 43
0.0
 38
1000.0
 10
-166.67920562
 20
-452.54374264
 10
-166.67920562
 20
-455.14374264
 10
-165.17920562
 20
-452.14374264
  0
LWPOLYLINE
  5
1DB
100
AcDbEntity
  8
MST_1_1
 62
   137
  6
CONTINUOUS
100
AcDbPolyline
 90
        3
 70
     0
 43
0.0
 38
1000.0
 10
-166.67920562
 20
-459.54374264
 10
-166.67920562
 20
-456.94374264
 10
-165.17920562
 20
-459.94374264
  0
LWPOLYLINE
  5
1DC
100
AcDbEntity
  8
MST_1_1
 62
   137
  6
CONTINUOUS
100
AcDbPolyline
 90
        3
 70
     0
 43
0.0
 38
1000.0
 10
-172.17920562
 20
-459.54374264
 10
-172.17920562
 20
-456.94374264
 10
-170.67920562
 20
-459.94374264
  0
LWPOLYLINE
  5
1DD
100
AcDbEntity
  8
MST_1_1
 62
   137
  6
CONTINUOUS
100
AcDbPolyline
 90
        3
 70
     0
 43
0.0
 38
1000.0
 10
-177.67920562
 20
-459.54374264
 10
-177.67920562
 20
-456.94374264
 10
-176.17920562
 20
-459.94374264
  0
LWPOLYLINE
  5
1DE
100
AcDbEntity
  8
MST_1_1
 62
   137
  6
CONTINUOUS
100
AcDbPolyline
 90
        3
 70
     0
 43
0.0
 38
1000.0
 10
-177.67920562
 20
-452.54374264
 10
-177.67920562
 20
-455.14374264
 10
-176.17920562
 20
-452.14374264
  0
LWPOLYLINE
  5
1DF
100
AcDbEntity
  8
MST_1_1
 62
   137
  6
CONTINUOUS
100
AcDbPolyline
 90
        4
 70
     0
 43
0.0
 38
1000.0
 10
-190.93087415
 20
-455.54374264
 42
0.25049165
 10
-191.67920562
 20
-455.14374264
 42
1.0
 10
-191.67920562
 20
-456.94374264
 42
0.25049165
 10
-190.93087415
 20
-456.54374264
  0
LWPOLYLINE
  5
1E0
100
AcDbEntity
  8
MST_1_1
 62
   137
  6
CONTINUOUS
100
AcDbPolyline
 90
        4
 70
     0
 43
0.0
 38
1000.0
 10
-190.93087415
 20
-455.54374264
 10
-157.67920562
 20
-455.54374264
 10
-157.67920562
 20
-456.54374264
 10
-190.93087415
 20
-456.54374264
  0
CIRCLE
  5
1E1
100
AcDbEntity
  8
MST_1_1
 62
   137
  6
CONTINUOUS
100
AcDbCircle
 39
-1000.0
 10
-448.46902141
 20
-456.04374264
 30
1000.0
 40
30.0
  0
CIRCLE
  5
1E2
100
AcDbEntity
  8
MST_1_1
 62
   137
  6
CONTINUOUS
100
AcDbCircle
 39
-1000.0
 10
-428.11742442
 20
-444.29374264
 30
1000.0
 40
3.25
  0
CIRCLE
  5
1E3
100
AcDbEntity
  8
MST_1_1
 62
   137
  6
CONTINUOUS
100
AcDbCircle
 39
-1000.0
 10
-439.27663326
 20
-446.85135449
 30
1000.0
 40
2.0
  0
CIRCLE
  5
1E4
100
AcDbEntity
  8
MST_1_1
 62
   137
  6
CONTINUOUS
100
AcDbCircle
 39
-1000.0
 10
-448.46902141
 20
-456.04374264
 30
1000.0
 40
6.0
  0
CIRCLE
  5
1E5
100
AcDbEntity
  8
MST_1_1
 62
   137
  6
CONTINUOUS
100
AcDbCircle
 39
-1000.0
 10
-457.66140957
 20
-446.85135449
 30
1000.0
 40
2.0
  0
CIRCLE
  5
1E6
100
AcDbEntity
  8
MST_1_1
 62
   137
  6
CONTINUOUS
100
AcDbCircle
 39
-1000.0
 10
-457.66140957
 20
-465.2361308
 30
1000.0
 40
2.0
  0
CIRCLE
  5
1E7
100
AcDbEntity
  8
MST_1_1
 62
   137
  6
CONTINUOUS
100
AcDbCircle
 39
-1000.0
 10
-439.27663326
 20
-465.2361308
 30
1000.0
 40
2.0
  0
CIRCLE
  5
1E8
100
AcDbEntity
  8
MST_1_1
 62
   137
  6
CONTINUOUS
100
AcDbCircle
 39
-1000.0
 10
-436.71902141
 20
-435.69214565
 30
1000.0
 40
3.25
  0
CIRCLE
  5
1E9
100
AcDbEntity
  8
MST_1_1
 62
   137
  6
CONTINUOUS
100
AcDbCircle
 39
-1000.0
 10
-460.21902141
 20
-435.69214565
 30
1000.0
 40
3.25
  0
CIRCLE
  5
1EA
100
AcDbEntity
  8
MST_1_1
 62
   137
  6
CONTINUOUS
100
AcDbCircle
 39
-1000.0
 10
-468.8206184
 20
-444.29374264
 30
1000.0
 40
3.25
  0
CIRCLE
  5
1EB
100
AcDbEntity
  8
MST_1_1
 62
   137
  6
CONTINUOUS
100
AcDbCircle
 39
-1000.0
 10
-471.96902141
 20
-456.04374264
 30
1000.0
 40
3.25
  0
CIRCLE
  5
1EC
100
AcDbEntity
  8
MST_1_1
 62
   137
  6
CONTINUOUS
100
AcDbCircle
 39
-1000.0
 10
-468.8206184
 20
-467.79374264
 30
1000.0
 40
3.25
  0
CIRCLE
  5
1ED
100
AcDbEntity
  8
MST_1_1
 62
   137
  6
CONTINUOUS
100
AcDbCircle
 39
-1000.0
 10
-428.11742442
 20
-467.79374264
 30
1000.0
 40
3.25
  0
CIRCLE
  5
1EE
100
AcDbEntity
  8
MST_1_1
 62
   137
  6
CONTINUOUS
100
AcDbCircle
 39
-1000.0
 10
-424.96902141
 20
-456.04374264
 30
1000.0
 40
3.25
  0
LINE
  5
1EF
100
AcDbEntity
  8
MST_1_1
 62
     1
  6
BORDER
100
AcDbLine
 10
-136.67920562
 20
-526.04374264
 30
0.0
 11
-333.99143991
 21
-526.04374264
 31
0.0
  0
LWPOLYLINE
  5
1F0
100
AcDbEntity
  8
MST_1_1
 62
   137
  6
CONTINUOUS
100
AcDbPolyline
 90
        7
 70
     0
 43
0.0
 38
1000.0
 10
-327.67920562
 20
-496.04374264
 10
-329.47920562
 20
-496.04374264
 10
-331.67920562
 20
-509.04374264
 10
-331.67920562
 20
-543.04374264
 10
-329.47920562
 20
-556.04374264
 10
-327.67920562
 20
-556.04374264
 10
-327.67920562
 20
-496.04374264
  0
LWPOLYLINE
  5
1F1
100
AcDbEntity
  8
MST_1_1
 62
   137
  6
CONTINUOUS
100
AcDbPolyline
 90
        3
 70
     0
 43
0.0
 38
1000.0
 10
-327.67920562
 20
-518.04374264
 10
-307.67920562
 20
-518.04374264
 10
-301.67920562
 20
-522.14374264
  0
LWPOLYLINE
  5
1F2
100
AcDbEntity
  8
MST_1_1
 62
   137
  6
CONTINUOUS
100
AcDbPolyline
 90
        3
 70
     0
 43
0.0
 38
1000.0
 10
-327.67920562
 20
-534.04374264
 10
-307.67920562
 20
-534.04374264
 10
-301.67920562
 20
-529.94374264
  0
LINE
  5
1F3
100
AcDbEntity
  8
MST_1_1
 62
   137
  6
CONTINUOUS
100
AcDbLine
 10
-327.67920562
 20
-512.04374264
 30
1000.0
 11
-318.67920562
 21
-518.04374264
 31
1000.0
  0
LINE
  5
1F4
100
AcDbEntity
  8
MST_1_1
 62
   137
  6
CONTINUOUS
100
AcDbLine
 10
-327.67920562
 20
-540.04374264
 30
1000.0
 11
-318.67920562
 21
-534.04374264
 31
1000.0
  0
LWPOLYLINE
  5
1F5
100
AcDbEntity
  8
MST_1_1
 62
   137
  6
CONTINUOUS
100
AcDbPolyline
 90
        3
 70
     0
 43
0.0
 38
1000.0
 10
-318.67920562
 20
-526.04374264
 10
-319.27920562
 20
-525.44374264
 10
-327.67920562
 20
-525.14374264
  0
LWPOLYLINE
  5
1F6
100
AcDbEntity
  8
MST_1_1
 62
   137
  6
CONTINUOUS
100
AcDbPolyline
 90
        3
 70
     0
 43
0.0
 38
1000.0
 10
-327.67920562
 20
-526.94374264
 10
-319.27920562
 20
-526.64374264
 10
-318.67920562
 20
-526.04374264
  0
LINE
  5
1F7
100
AcDbEntity
  8
MST_1_1
 62
   137
  6
CONTINUOUS
100
AcDbLine
 10
-319.27920562
 20
-526.64374264
 30
1000.0
 11
-327.67920562
 21
-526.64374264
 31
1000.0
  0
LINE
  5
1F8
100
AcDbEntity
  8
MST_1_1
 62
   137
  6
CONTINUOUS
100
AcDbLine
 10
-319.27920562
 20
-525.44374264
 30
1000.0
 11
-327.67920562
 21
-525.44374264
 31
1000.0
  0
LINE
  5
1F9
100
AcDbEntity
  8
MST_1_1
 62
   137
  6
CONTINUOUS
100
AcDbLine
 10
-301.67920562
 20
-522.14374264
 30
1000.0
 11
-297.67920562
 21
-522.14374264
 31
1000.0
  0
LINE
  5
1FA
100
AcDbEntity
  8
MST_1_1
 62
   137
  6
CONTINUOUS
100
AcDbLine
 10
-296.87920562
 20
-522.14374264
 30
1000.0
 11
-295.37920562
 21
-522.14374264
 31
1000.0
  0
LINE
  5
1FB
100
AcDbEntity
  8
MST_1_1
 62
   137
  6
CONTINUOUS
100
AcDbLine
 10
-294.57920562
 20
-522.14374264
 30
1000.0
 11
-293.07920562
 21
-522.14374264
 31
1000.0
  0
LWPOLYLINE
  5
1FC
100
AcDbEntity
  8
MST_1_1
 62
   137
  6
CONTINUOUS
100
AcDbPolyline
 90
        3
 70
     0
 43
0.0
 38
1000.0
 10
-157.67920562
 20
-522.54374264
 10
-157.67920562
 20
-521.54374264
 10
-156.17920562
 20
-522.14374264
  0
LWPOLYLINE
  5
1FD
100
AcDbEntity
  8
MST_1_1
 62
   137
  6
CONTINUOUS
100
AcDbPolyline
 90
        3
 70
     0
 43
0.0
 38
1000.0
 10
-292.27920562
 20
-522.14374264
 10
-161.67920562
 20
-522.14374264
 10
-157.67920562
 20
-522.54374264
  0
LWPOLYLINE
  5
1FE
100
AcDbEntity
  8
MST_1_1
 62
   137
  6
CONTINUOUS
100
AcDbPolyline
 90
       14
 70
     0
 43
0.0
 38
1000.0
 10
-156.17920562
 20
-522.14374264
 10
-152.17920562
 20
-522.54374264
 10
-152.17920562
 20
-521.54374264
 10
-150.67920562
 20
-522.14374264
 10
-146.67920562
 20
-522.54374264
 10
-146.67920562
 20
-521.54374264
 10
-145.17920562
 20
-522.14374264
 10
-141.27920562
 20
-522.54374264
 10
-141.27920562
 20
-522.14374264
 10
-139.47920562
 20
-522.14374264
 10
-136.67920562
 20
-522.94374264
 10
-136.67920562
 20
-529.14374264
 10
-139.47920562
 20
-529.94374264
 10
-141.27920562
 20
-529.94374264
  0
LWPOLYLINE
  5
1FF
100
AcDbEntity
  8
MST_1_1
 62
   137
  6
CONTINUOUS
100
AcDbPolyline
 90
       13
 70
     0
 43
0.0
 38
1000.0
 10
-141.27920562
 20
-529.94374264
 10
-141.27920562
 20
-529.54374264
 10
-145.17920562
 20
-529.94374264
 10
-146.67920562
 20
-530.54374264
 10
-146.67920562
 20
-529.54374264
 10
-150.67920562
 20
-529.94374264
 10
-152.17920562
 20
-530.54374264
 10
-152.17920562
 20
-529.54374264
 10
-156.17920562
 20
-529.94374264
 10
-157.67920562
 20
-530.54374264
 10
-157.67920562
 20
-529.54374264
 10
-161.67920562
 20
-529.94374264
 10
-292.27920562
 20
-529.94374264
  0
LINE
  5
200
100
AcDbEntity
  8
MST_1_1
 62
   137
  6
CONTINUOUS
100
AcDbLine
 10
-293.07920562
 20
-529.94374264
 30
1000.0
 11
-294.57920562
 21
-529.94374264
 31
1000.0
  0
LINE
  5
201
100
AcDbEntity
  8
MST_1_1
 62
   137
  6
CONTINUOUS
100
AcDbLine
 10
-295.37920562
 20
-529.94374264
 30
1000.0
 11
-296.87920562
 21
-529.94374264
 31
1000.0
  0
LINE
  5
202
100
AcDbEntity
  8
MST_1_1
 62
   137
  6
CONTINUOUS
100
AcDbLine
 10
-297.67920562
 20
-529.94374264
 30
1000.0
 11
-301.67920562
 21
-529.94374264
 31
1000.0
  0
LWPOLYLINE
  5
203
100
AcDbEntity
  8
MST_1_1
 62
   137
  6
CONTINUOUS
100
AcDbPolyline
 90
        5
 70
     0
 43
0.0
 38
1000.0
 10
-297.67920562
 20
-522.04374264
 10
-296.87920562
 20
-522.04374264
 10
-296.87920562
 20
-530.04374264
 10
-297.67920562
 20
-530.04374264
 10
-297.67920562
 20
-522.04374264
  0
LWPOLYLINE
  5
204
100
AcDbEntity
  8
MST_1_1
 62
   137
  6
CONTINUOUS
100
AcDbPolyline
 90
        5
 70
     0
 43
0.0
 38
1000.0
 10
-295.37920562
 20
-522.04374264
 10
-294.57920562
 20
-522.04374264
 10
-294.57920562
 20
-530.04374264
 10
-295.37920562
 20
-530.04374264
 10
-295.37920562
 20
-522.04374264
  0
LWPOLYLINE
  5
205
100
AcDbEntity
  8
MST_1_1
 62
   137
  6
CONTINUOUS
100
AcDbPolyline
 90
        5
 70
     0
 43
0.0
 38
1000.0
 10
-293.07920562
 20
-522.04374264
 10
-292.27920562
 20
-522.04374264
 10
-292.27920562
 20
-530.04374264
 10
-293.07920562
 20
-530.04374264
 10
-293.07920562
 20
-522.04374264
  0
LINE
  5
206
100
AcDbEntity
  8
MST_1_1
 62
   137
  6
CONTINUOUS
100
AcDbLine
 10
-152.17920562
 20
-522.54374264
 30
1000.0
 11
-152.17920562
 21
-525.14374264
 31
1000.0
  0
LINE
  5
207
100
AcDbEntity
  8
MST_1_1
 62
   137
  6
CONTINUOUS
100
AcDbLine
 10
-152.17920562
 20
-525.14374264
 30
1000.0
 11
-150.67920562
 21
-522.14374264
 31
1000.0
  0
LWPOLYLINE
  5
208
100
AcDbEntity
  8
MST_1_1
 62
   137
  6
CONTINUOUS
100
AcDbPolyline
 90
        3
 70
     0
 43
0.0
 38
1000.0
 10
-146.67920562
 20
-522.54374264
 10
-146.67920562
 20
-525.14374264
 10
-145.17920562
 20
-522.14374264
  0
LWPOLYLINE
  5
209
100
AcDbEntity
  8
MST_1_1
 62
   137
  6
CONTINUOUS
100
AcDbPolyline
 90
        3
 70
     0
 43
0.0
 38
1000.0
 10
-146.67920562
 20
-529.54374264
 10
-146.67920562
 20
-526.94374264
 10
-145.17920562
 20
-529.94374264
  0
LWPOLYLINE
  5
20A
100
AcDbEntity
  8
MST_1_1
 62
   137
  6
CONTINUOUS
100
AcDbPolyline
 90
        3
 70
     0
 43
0.0
 38
1000.0
 10
-152.17920562
 20
-529.54374264
 10
-152.17920562
 20
-526.94374264
 10
-150.67920562
 20
-529.94374264
  0
LWPOLYLINE
  5
20B
100
AcDbEntity
  8
MST_1_1
 62
   137
  6
CONTINUOUS
100
AcDbPolyline
 90
        3
 70
     0
 43
0.0
 38
1000.0
 10
-157.67920562
 20
-529.54374264
 10
-157.67920562
 20
-526.94374264
 10
-156.17920562
 20
-529.94374264
  0
LWPOLYLINE
  5
20C
100
AcDbEntity
  8
MST_1_1
 62
   137
  6
CONTINUOUS
100
AcDbPolyline
 90
        3
 70
     0
 43
0.0
 38
1000.0
 10
-157.67920562
 20
-522.54374264
 10
-157.67920562
 20
-525.14374264
 10
-156.17920562
 20
-522.14374264
  0
LWPOLYLINE
  5
20D
100
AcDbEntity
  8
MST_1_1
 62
   137
  6
CONTINUOUS
100
AcDbPolyline
 90
        4
 70
     0
 43
0.0
 38
1000.0
 10
-170.93087415
 20
-525.54374264
 42
0.25049165
 10
-171.67920562
 20
-525.14374264
 42
1.0
 10
-171.67920562
 20
-526.94374264
 42
0.25049165
 10
-170.93087415
 20
-526.54374264
  0
LWPOLYLINE
  5
20E
100
AcDbEntity
  8
MST_1_1
 62
   137
  6
CONTINUOUS
100
AcDbPolyline
 90
        4
 70
     0
 43
0.0
 38
1000.0
 10
-170.93087415
 20
-525.54374264
 10
-137.67920562
 20
-525.54374264
 10
-137.67920562
 20
-526.54374264
 10
-170.93087415
 20
-526.54374264
  0
CIRCLE
  5
20F
100
AcDbEntity
  8
MST_1_1
 62
   137
  6
CONTINUOUS
100
AcDbCircle
 39
-1000.0
 10
-448.46902141
 20
-526.04374264
 30
1000.0
 40
30.0
  0
CIRCLE
  5
210
100
AcDbEntity
  8
MST_1_1
 62
   137
  6
CONTINUOUS
100
AcDbCircle
 39
-1000.0
 10
-428.11742442
 20
-514.29374264
 30
1000.0
 40
3.25
  0
CIRCLE
  5
211
100
AcDbEntity
  8
MST_1_1
 62
   137
  6
CONTINUOUS
100
AcDbCircle
 39
-1000.0
 10
-439.27663326
 20
-516.85135449
 30
1000.0
 40
2.0
  0
CIRCLE
  5
212
100
AcDbEntity
  8
MST_1_1
 62
   137
  6
CONTINUOUS
100
AcDbCircle
 39
-1000.0
 10
-448.46902141
 20
-526.04374264
 30
1000.0
 40
6.0
  0
CIRCLE
  5
213
100
AcDbEntity
  8
MST_1_1
 62
   137
  6
CONTINUOUS
100
AcDbCircle
 39
-1000.0
 10
-457.66140957
 20
-516.85135449
 30
1000.0
 40
2.0
  0
CIRCLE
  5
214
100
AcDbEntity
  8
MST_1_1
 62
   137
  6
CONTINUOUS
100
AcDbCircle
 39
-1000.0
 10
-457.66140957
 20
-535.2361308
 30
1000.0
 40
2.0
  0
CIRCLE
  5
215
100
AcDbEntity
  8
MST_1_1
 62
   137
  6
CONTINUOUS
100
AcDbCircle
 39
-1000.0
 10
-439.27663326
 20
-535.2361308
 30
1000.0
 40
2.0
  0
CIRCLE
  5
216
100
AcDbEntity
  8
MST_1_1
 62
   137
  6
CONTINUOUS
100
AcDbCircle
 39
-1000.0
 10
-436.71902141
 20
-505.69214565
 30
1000.0
 40
3.25
  0
CIRCLE
  5
217
100
AcDbEntity
  8
MST_1_1
 62
   137
  6
CONTINUOUS
100
AcDbCircle
 39
-1000.0
 10
-460.21902141
 20
-505.69214565
 30
1000.0
 40
3.25
  0
CIRCLE
  5
218
100
AcDbEntity
  8
MST_1_1
 62
   137
  6
CONTINUOUS
100
AcDbCircle
 39
-1000.0
 10
-468.8206184
 20
-514.29374264
 30
1000.0
 40
3.25
  0
CIRCLE
  5
219
100
AcDbEntity
  8
MST_1_1
 62
   137
  6
CONTINUOUS
100
AcDbCircle
 39
-1000.0
 10
-471.96902141
 20
-526.04374264
 30
1000.0
 40
3.25
  0
CIRCLE
  5
21A
100
AcDbEntity
  8
MST_1_1
 62
   137
  6
CONTINUOUS
100
AcDbCircle
 39
-1000.0
 10
-468.8206184
 20
-537.79374264
 30
1000.0
 40
3.25
  0
CIRCLE
  5
21B
100
AcDbEntity
  8
MST_1_1
 62
   137
  6
CONTINUOUS
100
AcDbCircle
 39
-1000.0
 10
-428.11742442
 20
-537.79374264
 30
1000.0
 40
3.25
  0
CIRCLE
  5
21C
100
AcDbEntity
  8
MST_1_1
 62
   137
  6
CONTINUOUS
100
AcDbCircle
 39
-1000.0
 10
-424.96902141
 20
-526.04374264
 30
1000.0
 40
3.25
  0
LINE
  5
21D
100
AcDbEntity
  8
MST_1_1
 62
     1
  6
BORDER
100
AcDbLine
 10
-116.67920562
 20
-596.04374264
 30
0.0
 11
-333.99143991
 21
-596.04374264
 31
0.0
  0
LWPOLYLINE
  5
21E
100
AcDbEntity
  8
MST_1_1
 62
   137
  6
CONTINUOUS
100
AcDbPolyline
 90
        7
 70
     0
 43
0.0
 38
1000.0
 10
-327.67920562
 20
-566.04374264
 10
-329.47920562
 20
-566.04374264
 10
-331.67920562
 20
-579.04374264
 10
-331.67920562
 20
-613.04374264
 10
-329.47920562
 20
-626.04374264
 10
-327.67920562
 20
-626.04374264
 10
-327.67920562
 20
-566.04374264
  0
LWPOLYLINE
  5
21F
100
AcDbEntity
  8
MST_1_1
 62
   137
  6
CONTINUOUS
100
AcDbPolyline
 90
        3
 70
     0
 43
0.0
 38
1000.0
 10
-327.67920562
 20
-588.04374264
 10
-307.67920562
 20
-588.04374264
 10
-301.67920562
 20
-592.14374264
  0
LWPOLYLINE
  5
220
100
AcDbEntity
  8
MST_1_1
 62
   137
  6
CONTINUOUS
100
AcDbPolyline
 90
        3
 70
     0
 43
0.0
 38
1000.0
 10
-327.67920562
 20
-604.04374264
 10
-307.67920562
 20
-604.04374264
 10
-301.67920562
 20
-599.94374264
  0
LINE
  5
221
100
AcDbEntity
  8
MST_1_1
 62
   137
  6
CONTINUOUS
100
AcDbLine
 10
-327.67920562
 20
-582.04374264
 30
1000.0
 11
-318.67920562
 21
-588.04374264
 31
1000.0
  0
LINE
  5
222
100
AcDbEntity
  8
MST_1_1
 62
   137
  6
CONTINUOUS
100
AcDbLine
 10
-327.67920562
 20
-610.04374264
 30
1000.0
 11
-318.67920562
 21
-604.04374264
 31
1000.0
  0
LWPOLYLINE
  5
223
100
AcDbEntity
  8
MST_1_1
 62
   137
  6
CONTINUOUS
100
AcDbPolyline
 90
        3
 70
     0
 43
0.0
 38
1000.0
 10
-318.67920562
 20
-596.04374264
 10
-319.27920562
 20
-595.44374264
 10
-327.67920562
 20
-595.14374264
  0
LWPOLYLINE
  5
224
100
AcDbEntity
  8
MST_1_1
 62
   137
  6
CONTINUOUS
100
AcDbPolyline
 90
        3
 70
     0
 43
0.0
 38
1000.0
 10
-327.67920562
 20
-596.94374264
 10
-319.27920562
 20
-596.64374264
 10
-318.67920562
 20
-596.04374264
  0
LINE
  5
225
100
AcDbEntity
  8
MST_1_1
 62
   137
  6
CONTINUOUS
100
AcDbLine
 10
-319.27920562
 20
-596.64374264
 30
1000.0
 11
-327.67920562
 21
-596.64374264
 31
1000.0
  0
LINE
  5
226
100
AcDbEntity
  8
MST_1_1
 62
   137
  6
CONTINUOUS
100
AcDbLine
 10
-319.27920562
 20
-595.44374264
 30
1000.0
 11
-327.67920562
 21
-595.44374264
 31
1000.0
  0
LINE
  5
227
100
AcDbEntity
  8
MST_1_1
 62
   137
  6
CONTINUOUS
100
AcDbLine
 10
-301.67920562
 20
-592.14374264
 30
1000.0
 11
-297.67920562
 21
-592.14374264
 31
1000.0
  0
LINE
  5
228
100
AcDbEntity
  8
MST_1_1
 62
   137
  6
CONTINUOUS
100
AcDbLine
 10
-296.87920562
 20
-592.14374264
 30
1000.0
 11
-295.37920562
 21
-592.14374264
 31
1000.0
  0
LINE
  5
229
100
AcDbEntity
  8
MST_1_1
 62
   137
  6
CONTINUOUS
100
AcDbLine
 10
-294.57920562
 20
-592.14374264
 30
1000.0
 11
-293.07920562
 21
-592.14374264
 31
1000.0
  0
LWPOLYLINE
  5
22A
100
AcDbEntity
  8
MST_1_1
 62
   137
  6
CONTINUOUS
100
AcDbPolyline
 90
        3
 70
     0
 43
0.0
 38
1000.0
 10
-137.67920562
 20
-592.54374264
 10
-137.67920562
 20
-591.54374264
 10
-136.17920562
 20
-592.14374264
  0
LWPOLYLINE
  5
22B
100
AcDbEntity
  8
MST_1_1
 62
   137
  6
CONTINUOUS
100
AcDbPolyline
 90
        3
 70
     0
 43
0.0
 38
1000.0
 10
-292.27920562
 20
-592.14374264
 10
-141.67920562
 20
-592.14374264
 10
-137.67920562
 20
-592.54374264
  0
LWPOLYLINE
  5
22C
100
AcDbEntity
  8
MST_1_1
 62
   137
  6
CONTINUOUS
100
AcDbPolyline
 90
       14
 70
     0
 43
0.0
 38
1000.0
 10
-136.17920562
 20
-592.14374264
 10
-132.17920562
 20
-592.54374264
 10
-132.17920562
 20
-591.54374264
 10
-130.67920562
 20
-592.14374264
 10
-126.67920562
 20
-592.54374264
 10
-126.67920562
 20
-591.54374264
 10
-125.17920562
 20
-592.14374264
 10
-121.27920562
 20
-592.54374264
 10
-121.27920562
 20
-592.14374264
 10
-119.47920562
 20
-592.14374264
 10
-116.67920562
 20
-592.94374264
 10
-116.67920562
 20
-599.14374264
 10
-119.47920562
 20
-599.94374264
 10
-121.27920562
 20
-599.94374264
  0
LWPOLYLINE
  5
22D
100
AcDbEntity
  8
MST_1_1
 62
   137
  6
CONTINUOUS
100
AcDbPolyline
 90
       13
 70
     0
 43
0.0
 38
1000.0
 10
-121.27920562
 20
-599.94374264
 10
-121.27920562
 20
-599.54374264
 10
-125.17920562
 20
-599.94374264
 10
-126.67920562
 20
-600.54374264
 10
-126.67920562
 20
-599.54374264
 10
-130.67920562
 20
-599.94374264
 10
-132.17920562
 20
-600.54374264
 10
-132.17920562
 20
-599.54374264
 10
-136.17920562
 20
-599.94374264
 10
-137.67920562
 20
-600.54374264
 10
-137.67920562
 20
-599.54374264
 10
-141.67920562
 20
-599.94374264
 10
-292.27920562
 20
-599.94374264
  0
LINE
  5
22E
100
AcDbEntity
  8
MST_1_1
 62
   137
  6
CONTINUOUS
100
AcDbLine
 10
-293.07920562
 20
-599.94374264
 30
1000.0
 11
-294.57920562
 21
-599.94374264
 31
1000.0
  0
LINE
  5
22F
100
AcDbEntity
  8
MST_1_1
 62
   137
  6
CONTINUOUS
100
AcDbLine
 10
-295.37920562
 20
-599.94374264
 30
1000.0
 11
-296.87920562
 21
-599.94374264
 31
1000.0
  0
LINE
  5
230
100
AcDbEntity
  8
MST_1_1
 62
   137
  6
CONTINUOUS
100
AcDbLine
 10
-297.67920562
 20
-599.94374264
 30
1000.0
 11
-301.67920562
 21
-599.94374264
 31
1000.0
  0
LWPOLYLINE
  5
231
100
AcDbEntity
  8
MST_1_1
 62
   137
  6
CONTINUOUS
100
AcDbPolyline
 90
        5
 70
     0
 43
0.0
 38
1000.0
 10
-297.67920562
 20
-592.04374264
 10
-296.87920562
 20
-592.04374264
 10
-296.87920562
 20
-600.04374264
 10
-297.67920562
 20
-600.04374264
 10
-297.67920562
 20
-592.04374264
  0
LWPOLYLINE
  5
232
100
AcDbEntity
  8
MST_1_1
 62
   137
  6
CONTINUOUS
100
AcDbPolyline
 90
        5
 70
     0
 43
0.0
 38
1000.0
 10
-295.37920562
 20
-592.04374264
 10
-294.57920562
 20
-592.04374264
 10
-294.57920562
 20
-600.04374264
 10
-295.37920562
 20
-600.04374264
 10
-295.37920562
 20
-592.04374264
  0
LWPOLYLINE
  5
233
100
AcDbEntity
  8
MST_1_1
 62
   137
  6
CONTINUOUS
100
AcDbPolyline
 90
        5
 70
     0
 43
0.0
 38
1000.0
 10
-293.07920562
 20
-592.04374264
 10
-292.27920562
 20
-592.04374264
 10
-292.27920562
 20
-600.04374264
 10
-293.07920562
 20
-600.04374264
 10
-293.07920562
 20
-592.04374264
  0
LINE
  5
234
100
AcDbEntity
  8
MST_1_1
 62
   137
  6
CONTINUOUS
100
AcDbLine
 10
-132.17920562
 20
-592.54374264
 30
1000.0
 11
-132.17920562
 21
-595.14374264
 31
1000.0
  0
LINE
  5
235
100
AcDbEntity
  8
MST_1_1
 62
   137
  6
CONTINUOUS
100
AcDbLine
 10
-132.17920562
 20
-595.14374264
 30
1000.0
 11
-130.67920562
 21
-592.14374264
 31
1000.0
  0
LWPOLYLINE
  5
236
100
AcDbEntity
  8
MST_1_1
 62
   137
  6
CONTINUOUS
100
AcDbPolyline
 90
        3
 70
     0
 43
0.0
 38
1000.0
 10
-126.67920562
 20
-592.54374264
 10
-126.67920562
 20
-595.14374264
 10
-125.17920562
 20
-592.14374264
  0
LWPOLYLINE
  5
237
100
AcDbEntity
  8
MST_1_1
 62
   137
  6
CONTINUOUS
100
AcDbPolyline
 90
        3
 70
     0
 43
0.0
 38
1000.0
 10
-126.67920562
 20
-599.54374264
 10
-126.67920562
 20
-596.94374264
 10
-125.17920562
 20
-599.94374264
  0
LWPOLYLINE
  5
238
100
AcDbEntity
  8
MST_1_1
 62
   137
  6
CONTINUOUS
100
AcDbPolyline
 90
        3
 70
     0
 43
0.0
 38
1000.0
 10
-132.17920562
 20
-599.54374264
 10
-132.17920562
 20
-596.94374264
 10
-130.67920562
 20
-599.94374264
  0
LWPOLYLINE
  5
239
100
AcDbEntity
  8
MST_1_1
 62
   137
  6
CONTINUOUS
100
AcDbPolyline
 90
        3
 70
     0
 43
0.0
 38
1000.0
 10
-137.67920562
 20
-599.54374264
 10
-137.67920562
 20
-596.94374264
 10
-136.17920562
 20
-599.94374264
  0
LWPOLYLINE
  5
23A
100
AcDbEntity
  8
MST_1_1
 62
   137
  6
CONTINUOUS
100
AcDbPolyline
 90
        3
 70
     0
 43
0.0
 38
1000.0
 10
-137.67920562
 20
-592.54374264
 10
-137.67920562
 20
-595.14374264
 10
-136.17920562
 20
-592.14374264
  0
LWPOLYLINE
  5
23B
100
AcDbEntity
  8
MST_1_1
 62
   137
  6
CONTINUOUS
100
AcDbPolyline
 90
        4
 70
     0
 43
0.0
 38
1000.0
 10
-150.93087415
 20
-595.54374264
 42
0.25049165
 10
-151.67920562
 20
-595.14374264
 42
1.0
 10
-151.67920562
 20
-596.94374264
 42
0.25049165
 10
-150.93087415
 20
-596.54374264
  0
LWPOLYLINE
  5
23C
100
AcDbEntity
  8
MST_1_1
 62
   137
  6
CONTINUOUS
100
AcDbPolyline
 90
        4
 70
     0
 43
0.0
 38
1000.0
 10
-150.93087415
 20
-595.54374264
 10
-117.67920562
 20
-595.54374264
 10
-117.67920562
 20
-596.54374264
 10
-150.93087415
 20
-596.54374264
  0
CIRCLE
  5
23D
100
AcDbEntity
  8
MST_1_1
 62
   137
  6
CONTINUOUS
100
AcDbCircle
 39
-1000.0
 10
-448.46902141
 20
-596.04374264
 30
1000.0
 40
30.0
  0
CIRCLE
  5
23E
100
AcDbEntity
  8
MST_1_1
 62
   137
  6
CONTINUOUS
100
AcDbCircle
 39
-1000.0
 10
-428.11742442
 20
-584.29374264
 30
1000.0
 40
3.25
  0
CIRCLE
  5
23F
100
AcDbEntity
  8
MST_1_1
 62
   137
  6
CONTINUOUS
100
AcDbCircle
 39
-1000.0
 10
-439.27663326
 20
-586.85135449
 30
1000.0
 40
2.0
  0
CIRCLE
  5
240
100
AcDbEntity
  8
MST_1_1
 62
   137
  6
CONTINUOUS
100
AcDbCircle
 39
-1000.0
 10
-448.46902141
 20
-596.04374264
 30
1000.0
 40
6.0
  0
CIRCLE
  5
241
100
AcDbEntity
  8
MST_1_1
 62
   137
  6
CONTINUOUS
100
AcDbCircle
 39
-1000.0
 10
-457.66140957
 20
-586.85135449
 30
1000.0
 40
2.0
  0
CIRCLE
  5
242
100
AcDbEntity
  8
MST_1_1
 62
   137
  6
CONTINUOUS
100
AcDbCircle
 39
-1000.0
 10
-457.66140957
 20
-605.2361308
 30
1000.0
 40
2.0
  0
CIRCLE
  5
243
100
AcDbEntity
  8
MST_1_1
 62
   137
  6
CONTINUOUS
100
AcDbCircle
 39
-1000.0
 10
-439.27663326
 20
-605.2361308
 30
1000.0
 40
2.0
  0
CIRCLE
  5
244
100
AcDbEntity
  8
MST_1_1
 62
   137
  6
CONTINUOUS
100
AcDbCircle
 39
-1000.0
 10
-436.71902141
 20
-575.69214565
 30
1000.0
 40
3.25
  0
CIRCLE
  5
245
100
AcDbEntity
  8
MST_1_1
 62
   137
  6
CONTINUOUS
100
AcDbCircle
 39
-1000.0
 10
-460.21902141
 20
-575.69214565
 30
1000.0
 40
3.25
  0
CIRCLE
  5
246
100
AcDbEntity
  8
MST_1_1
 62
   137
  6
CONTINUOUS
100
AcDbCircle
 39
-1000.0
 10
-468.8206184
 20
-584.29374264
 30
1000.0
 40
3.25
  0
CIRCLE
  5
247
100
AcDbEntity
  8
MST_1_1
 62
   137
  6
CONTINUOUS
100
AcDbCircle
 39
-1000.0
 10
-471.96902141
 20
-596.04374264
 30
1000.0
 40
3.25
  0
CIRCLE
  5
248
100
AcDbEntity
  8
MST_1_1
 62
   137
  6
CONTINUOUS
100
AcDbCircle
 39
-1000.0
 10
-468.8206184
 20
-607.79374264
 30
1000.0
 40
3.25
  0
CIRCLE
  5
249
100
AcDbEntity
  8
MST_1_1
 62
   137
  6
CONTINUOUS
100
AcDbCircle
 39
-1000.0
 10
-428.11742442
 20
-607.79374264
 30
1000.0
 40
3.25
  0
CIRCLE
  5
24A
100
AcDbEntity
  8
MST_1_1
 62
   137
  6
CONTINUOUS
100
AcDbCircle
 39
-1000.0
 10
-424.96902141
 20
-596.04374264
 30
1000.0
 40
3.25
  0
LINE
  5
24B
100
AcDbEntity
  8
MST_1_1
 62
     1
  6
BORDER
100
AcDbLine
 10
-96.67920562
 20
-666.04374264
 30
0.0
 11
-333.99143991
 21
-666.04374264
 31
0.0
  0
LWPOLYLINE
  5
24C
100
AcDbEntity
  8
MST_1_1
 62
   137
  6
CONTINUOUS
100
AcDbPolyline
 90
        7
 70
     0
 43
0.0
 38
1000.0
 10
-327.67920562
 20
-636.04374264
 10
-329.47920562
 20
-636.04374264
 10
-331.67920562
 20
-649.04374264
 10
-331.67920562
 20
-683.04374264
 10
-329.47920562
 20
-696.04374264
 10
-327.67920562
 20
-696.04374264
 10
-327.67920562
 20
-636.04374264
  0
LWPOLYLINE
  5
24D
100
AcDbEntity
  8
MST_1_1
 62
   137
  6
CONTINUOUS
100
AcDbPolyline
 90
        3
 70
     0
 43
0.0
 38
1000.0
 10
-327.67920562
 20
-658.04374264
 10
-307.67920562
 20
-658.04374264
 10
-301.67920562
 20
-662.14374264
  0
LWPOLYLINE
  5
24E
100
AcDbEntity
  8
MST_1_1
 62
   137
  6
CONTINUOUS
100
AcDbPolyline
 90
        3
 70
     0
 43
0.0
 38
1000.0
 10
-327.67920562
 20
-674.04374264
 10
-307.67920562
 20
-674.04374264
 10
-301.67920562
 20
-669.94374264
  0
LINE
  5
24F
100
AcDbEntity
  8
MST_1_1
 62
   137
  6
CONTINUOUS
100
AcDbLine
 10
-327.67920562
 20
-652.04374264
 30
1000.0
 11
-318.67920562
 21
-658.04374264
 31
1000.0
  0
LINE
  5
250
100
AcDbEntity
  8
MST_1_1
 62
   137
  6
CONTINUOUS
100
AcDbLine
 10
-327.67920562
 20
-680.04374264
 30
1000.0
 11
-318.67920562
 21
-674.04374264
 31
1000.0
  0
LWPOLYLINE
  5
251
100
AcDbEntity
  8
MST_1_1
 62
   137
  6
CONTINUOUS
100
AcDbPolyline
 90
        3
 70
     0
 43
0.0
 38
1000.0
 10
-318.67920562
 20
-666.04374264
 10
-319.27920562
 20
-665.44374264
 10
-327.67920562
 20
-665.14374264
  0
LWPOLYLINE
  5
252
100
AcDbEntity
  8
MST_1_1
 62
   137
  6
CONTINUOUS
100
AcDbPolyline
 90
        3
 70
     0
 43
0.0
 38
1000.0
 10
-327.67920562
 20
-666.94374264
 10
-319.27920562
 20
-666.64374264
 10
-318.67920562
 20
-666.04374264
  0
LINE
  5
253
100
AcDbEntity
  8
MST_1_1
 62
   137
  6
CONTINUOUS
100
AcDbLine
 10
-319.27920562
 20
-666.64374264
 30
1000.0
 11
-327.67920562
 21
-666.64374264
 31
1000.0
  0
LINE
  5
254
100
AcDbEntity
  8
MST_1_1
 62
   137
  6
CONTINUOUS
100
AcDbLine
 10
-319.27920562
 20
-665.44374264
 30
1000.0
 11
-327.67920562
 21
-665.44374264
 31
1000.0
  0
LINE
  5
255
100
AcDbEntity
  8
MST_1_1
 62
   137
  6
CONTINUOUS
100
AcDbLine
 10
-301.67920562
 20
-662.14374264
 30
1000.0
 11
-297.67920562
 21
-662.14374264
 31
1000.0
  0
LINE
  5
256
100
AcDbEntity
  8
MST_1_1
 62
   137
  6
CONTINUOUS
100
AcDbLine
 10
-296.87920562
 20
-662.14374264
 30
1000.0
 11
-295.37920562
 21
-662.14374264
 31
1000.0
  0
LINE
  5
257
100
AcDbEntity
  8
MST_1_1
 62
   137
  6
CONTINUOUS
100
AcDbLine
 10
-294.57920562
 20
-662.14374264
 30
1000.0
 11
-293.07920562
 21
-662.14374264
 31
1000.0
  0
LWPOLYLINE
  5
258
100
AcDbEntity
  8
MST_1_1
 62
   137
  6
CONTINUOUS
100
AcDbPolyline
 90
        3
 70
     0
 43
0.0
 38
1000.0
 10
-117.67920562
 20
-662.54374264
 10
-117.67920562
 20
-661.54374264
 10
-116.17920562
 20
-662.14374264
  0
LWPOLYLINE
  5
259
100
AcDbEntity
  8
MST_1_1
 62
   137
  6
CONTINUOUS
100
AcDbPolyline
 90
        3
 70
     0
 43
0.0
 38
1000.0
 10
-292.27920562
 20
-662.14374264
 10
-121.67920562
 20
-662.14374264
 10
-117.67920562
 20
-662.54374264
  0
LWPOLYLINE
  5
25A
100
AcDbEntity
  8
MST_1_1
 62
   137
  6
CONTINUOUS
100
AcDbPolyline
 90
       14
 70
     0
 43
0.0
 38
1000.0
 10
-116.17920562
 20
-662.14374264
 10
-112.17920562
 20
-662.54374264
 10
-112.17920562
 20
-661.54374264
 10
-110.67920562
 20
-662.14374264
 10
-106.67920562
 20
-662.54374264
 10
-106.67920562
 20
-661.54374264
 10
-105.17920562
 20
-662.14374264
 10
-101.27920562
 20
-662.54374264
 10
-101.27920562
 20
-662.14374264
 10
-99.47920562
 20
-662.14374264
 10
-96.67920562
 20
-662.94374264
 10
-96.67920562
 20
-669.14374264
 10
-99.47920562
 20
-669.94374264
 10
-101.27920562
 20
-669.94374264
  0
LWPOLYLINE
  5
25B
100
AcDbEntity
  8
MST_1_1
 62
   137
  6
CONTINUOUS
100
AcDbPolyline
 90
       13
 70
     0
 43
0.0
 38
1000.0
 10
-101.27920562
 20
-669.94374264
 10
-101.27920562
 20
-669.54374264
 10
-105.17920562
 20
-669.94374264
 10
-106.67920562
 20
-670.54374264
 10
-106.67920562
 20
-669.54374264
 10
-110.67920562
 20
-669.94374264
 10
-112.17920562
 20
-670.54374264
 10
-112.17920562
 20
-669.54374264
 10
-116.17920562
 20
-669.94374264
 10
-117.67920562
 20
-670.54374264
 10
-117.67920562
 20
-669.54374264
 10
-121.67920562
 20
-669.94374264
 10
-292.27920562
 20
-669.94374264
  0
LINE
  5
25C
100
AcDbEntity
  8
MST_1_1
 62
   137
  6
CONTINUOUS
100
AcDbLine
 10
-293.07920562
 20
-669.94374264
 30
1000.0
 11
-294.57920562
 21
-669.94374264
 31
1000.0
  0
LINE
  5
25D
100
AcDbEntity
  8
MST_1_1
 62
   137
  6
CONTINUOUS
100
AcDbLine
 10
-295.37920562
 20
-669.94374264
 30
1000.0
 11
-296.87920562
 21
-669.94374264
 31
1000.0
  0
LINE
  5
25E
100
AcDbEntity
  8
MST_1_1
 62
   137
  6
CONTINUOUS
100
AcDbLine
 10
-297.67920562
 20
-669.94374264
 30
1000.0
 11
-301.67920562
 21
-669.94374264
 31
1000.0
  0
LWPOLYLINE
  5
25F
100
AcDbEntity
  8
MST_1_1
 62
   137
  6
CONTINUOUS
100
AcDbPolyline
 90
        5
 70
     0
 43
0.0
 38
1000.0
 10
-297.67920562
 20
-662.04374264
 10
-296.87920562
 20
-662.04374264
 10
-296.87920562
 20
-670.04374264
 10
-297.67920562
 20
-670.04374264
 10
-297.67920562
 20
-662.04374264
  0
LWPOLYLINE
  5
260
100
AcDbEntity
  8
MST_1_1
 62
   137
  6
CONTINUOUS
100
AcDbPolyline
 90
        5
 70
     0
 43
0.0
 38
1000.0
 10
-295.37920562
 20
-662.04374264
 10
-294.57920562
 20
-662.04374264
 10
-294.57920562
 20
-670.04374264
 10
-295.37920562
 20
-670.04374264
 10
-295.37920562
 20
-662.04374264
  0
LWPOLYLINE
  5
261
100
AcDbEntity
  8
MST_1_1
 62
   137
  6
CONTINUOUS
100
AcDbPolyline
 90
        5
 70
     0
 43
0.0
 38
1000.0
 10
-293.07920562
 20
-662.04374264
 10
-292.27920562
 20
-662.04374264
 10
-292.27920562
 20
-670.04374264
 10
-293.07920562
 20
-670.04374264
 10
-293.07920562
 20
-662.04374264
  0
LINE
  5
262
100
AcDbEntity
  8
MST_1_1
 62
   137
  6
CONTINUOUS
100
AcDbLine
 10
-112.17920562
 20
-662.54374264
 30
1000.0
 11
-112.17920562
 21
-665.14374264
 31
1000.0
  0
LINE
  5
263
100
AcDbEntity
  8
MST_1_1
 62
   137
  6
CONTINUOUS
100
AcDbLine
 10
-112.17920562
 20
-665.14374264
 30
1000.0
 11
-110.67920562
 21
-662.14374264
 31
1000.0
  0
LWPOLYLINE
  5
264
100
AcDbEntity
  8
MST_1_1
 62
   137
  6
CONTINUOUS
100
AcDbPolyline
 90
        3
 70
     0
 43
0.0
 38
1000.0
 10
-106.67920562
 20
-662.54374264
 10
-106.67920562
 20
-665.14374264
 10
-105.17920562
 20
-662.14374264
  0
LWPOLYLINE
  5
265
100
AcDbEntity
  8
MST_1_1
 62
   137
  6
CONTINUOUS
100
AcDbPolyline
 90
        3
 70
     0
 43
0.0
 38
1000.0
 10
-106.67920562
 20
-669.54374264
 10
-106.67920562
 20
-666.94374264
 10
-105.17920562
 20
-669.94374264
  0
LWPOLYLINE
  5
266
100
AcDbEntity
  8
MST_1_1
 62
   137
  6
CONTINUOUS
100
AcDbPolyline
 90
        3
 70
     0
 43
0.0
 38
1000.0
 10
-112.17920562
 20
-669.54374264
 10
-112.17920562
 20
-666.94374264
 10
-110.67920562
 20
-669.94374264
  0
LWPOLYLINE
  5
267
100
AcDbEntity
  8
MST_1_1
 62
   137
  6
CONTINUOUS
100
AcDbPolyline
 90
        3
 70
     0
 43
0.0
 38
1000.0
 10
-117.67920562
 20
-669.54374264
 10
-117.67920562
 20
-666.94374264
 10
-116.17920562
 20
-669.94374264
  0
LWPOLYLINE
  5
268
100
AcDbEntity
  8
MST_1_1
 62
   137
  6
CONTINUOUS
100
AcDbPolyline
 90
        3
 70
     0
 43
0.0
 38
1000.0
 10
-117.67920562
 20
-662.54374264
 10
-117.67920562
 20
-665.14374264
 10
-116.17920562
 20
-662.14374264
  0
LWPOLYLINE
  5
269
100
AcDbEntity
  8
MST_1_1
 62
   137
  6
CONTINUOUS
100
AcDbPolyline
 90
        4
 70
     0
 43
0.0
 38
1000.0
 10
-130.93087415
 20
-665.54374264
 42
0.25049165
 10
-131.67920562
 20
-665.14374264
 42
1.0
 10
-131.67920562
 20
-666.94374264
 42
0.25049165
 10
-130.93087415
 20
-666.54374264
  0
LWPOLYLINE
  5
26A
100
AcDbEntity
  8
MST_1_1
 62
   137
  6
CONTINUOUS
100
AcDbPolyline
 90
        4
 70
     0
 43
0.0
 38
1000.0
 10
-130.93087415
 20
-665.54374264
 10
-97.67920562
 20
-665.54374264
 10
-97.67920562
 20
-666.54374264
 10
-130.93087415
 20
-666.54374264
  0
CIRCLE
  5
26B
100
AcDbEntity
  8
MST_1_1
 62
   137
  6
CONTINUOUS
100
AcDbCircle
 39
-1000.0
 10
-448.46902141
 20
-666.04374264
 30
1000.0
 40
30.0
  0
CIRCLE
  5
26C
100
AcDbEntity
  8
MST_1_1
 62
   137
  6
CONTINUOUS
100
AcDbCircle
 39
-1000.0
 10
-428.11742442
 20
-654.29374264
 30
1000.0
 40
3.25
  0
CIRCLE
  5
26D
100
AcDbEntity
  8
MST_1_1
 62
   137
  6
CONTINUOUS
100
AcDbCircle
 39
-1000.0
 10
-439.27663326
 20
-656.85135449
 30
1000.0
 40
2.0
  0
CIRCLE
  5
26E
100
AcDbEntity
  8
MST_1_1
 62
   137
  6
CONTINUOUS
100
AcDbCircle
 39
-1000.0
 10
-448.46902141
 20
-666.04374264
 30
1000.0
 40
6.0
  0
CIRCLE
  5
26F
100
AcDbEntity
  8
MST_1_1
 62
   137
  6
CONTINUOUS
100
AcDbCircle
 39
-1000.0
 10
-457.66140957
 20
-656.85135449
 30
1000.0
 40
2.0
  0
CIRCLE
  5
270
100
AcDbEntity
  8
MST_1_1
 62
   137
  6
CONTINUOUS
100
AcDbCircle
 39
-1000.0
 10
-457.66140957
 20
-675.2361308
 30
1000.0
 40
2.0
  0
CIRCLE
  5
271
100
AcDbEntity
  8
MST_1_1
 62
   137
  6
CONTINUOUS
100
AcDbCircle
 39
-1000.0
 10
-439.27663326
 20
-675.2361308
 30
1000.0
 40
2.0
  0
CIRCLE
  5
272
100
AcDbEntity
  8
MST_1_1
 62
   137
  6
CONTINUOUS
100
AcDbCircle
 39
-1000.0
 10
-436.71902141
 20
-645.69214565
 30
1000.0
 40
3.25
  0
CIRCLE
  5
273
100
AcDbEntity
  8
MST_1_1
 62
   137
  6
CONTINUOUS
100
AcDbCircle
 39
-1000.0
 10
-460.21902141
 20
-645.69214565
 30
1000.0
 40
3.25
  0
CIRCLE
  5
274
100
AcDbEntity
  8
MST_1_1
 62
   137
  6
CONTINUOUS
100
AcDbCircle
 39
-1000.0
 10
-468.8206184
 20
-654.29374264
 30
1000.0
 40
3.25
  0
CIRCLE
  5
275
100
AcDbEntity
  8
MST_1_1
 62
   137
  6
CONTINUOUS
100
AcDbCircle
 39
-1000.0
 10
-471.96902141
 20
-666.04374264
 30
1000.0
 40
3.25
  0
CIRCLE
  5
276
100
AcDbEntity
  8
MST_1_1
 62
   137
  6
CONTINUOUS
100
AcDbCircle
 39
-1000.0
 10
-468.8206184
 20
-677.79374264
 30
1000.0
 40
3.25
  0
CIRCLE
  5
277
100
AcDbEntity
  8
MST_1_1
 62
   137
  6
CONTINUOUS
100
AcDbCircle
 39
-1000.0
 10
-428.11742442
 20
-677.79374264
 30
1000.0
 40
3.25
  0
CIRCLE
  5
278
100
AcDbEntity
  8
MST_1_1
 62
   137
  6
CONTINUOUS
100
AcDbCircle
 39
-1000.0
 10
-424.96902141
 20
-666.04374264
 30
1000.0
 40
3.25
  0
LINE
  5
279
100
AcDbEntity
  8
MST_1_1
 62
     1
  6
BORDER
100
AcDbLine
 10
-76.67920562
 20
-736.04374264
 30
0.0
 11
-333.99143991
 21
-736.04374264
 31
0.0
  0
LWPOLYLINE
  5
27A
100
AcDbEntity
  8
MST_1_1
 62
   137
  6
CONTINUOUS
100
AcDbPolyline
 90
        7
 70
     0
 43
0.0
 38
1000.0
 10
-327.67920562
 20
-706.04374264
 10
-329.47920562
 20
-706.04374264
 10
-331.67920562
 20
-719.04374264
 10
-331.67920562
 20
-753.04374264
 10
-329.47920562
 20
-766.04374264
 10
-327.67920562
 20
-766.04374264
 10
-327.67920562
 20
-706.04374264
  0
LWPOLYLINE
  5
27B
100
AcDbEntity
  8
MST_1_1
 62
   137
  6
CONTINUOUS
100
AcDbPolyline
 90
        3
 70
     0
 43
0.0
 38
1000.0
 10
-327.67920562
 20
-728.04374264
 10
-307.67920562
 20
-728.04374264
 10
-301.67920562
 20
-732.14374264
  0
LWPOLYLINE
  5
27C
100
AcDbEntity
  8
MST_1_1
 62
   137
  6
CONTINUOUS
100
AcDbPolyline
 90
        3
 70
     0
 43
0.0
 38
1000.0
 10
-327.67920562
 20
-744.04374264
 10
-307.67920562
 20
-744.04374264
 10
-301.67920562
 20
-739.94374264
  0
LINE
  5
27D
100
AcDbEntity
  8
MST_1_1
 62
   137
  6
CONTINUOUS
100
AcDbLine
 10
-327.67920562
 20
-722.04374264
 30
1000.0
 11
-318.67920562
 21
-728.04374264
 31
1000.0
  0
LINE
  5
27E
100
AcDbEntity
  8
MST_1_1
 62
   137
  6
CONTINUOUS
100
AcDbLine
 10
-327.67920562
 20
-750.04374264
 30
1000.0
 11
-318.67920562
 21
-744.04374264
 31
1000.0
  0
LWPOLYLINE
  5
27F
100
AcDbEntity
  8
MST_1_1
 62
   137
  6
CONTINUOUS
100
AcDbPolyline
 90
        3
 70
     0
 43
0.0
 38
1000.0
 10
-318.67920562
 20
-736.04374264
 10
-319.27920562
 20
-735.44374264
 10
-327.67920562
 20
-735.14374264
  0
LWPOLYLINE
  5
280
100
AcDbEntity
  8
MST_1_1
 62
   137
  6
CONTINUOUS
100
AcDbPolyline
 90
        3
 70
     0
 43
0.0
 38
1000.0
 10
-327.67920562
 20
-736.94374264
 10
-319.27920562
 20
-736.64374264
 10
-318.67920562
 20
-736.04374264
  0
LINE
  5
281
100
AcDbEntity
  8
MST_1_1
 62
   137
  6
CONTINUOUS
100
AcDbLine
 10
-319.27920562
 20
-736.64374264
 30
1000.0
 11
-327.67920562
 21
-736.64374264
 31
1000.0
  0
LINE
  5
282
100
AcDbEntity
  8
MST_1_1
 62
   137
  6
CONTINUOUS
100
AcDbLine
 10
-319.27920562
 20
-735.44374264
 30
1000.0
 11
-327.67920562
 21
-735.44374264
 31
1000.0
  0
LINE
  5
283
100
AcDbEntity
  8
MST_1_1
 62
   137
  6
CONTINUOUS
100
AcDbLine
 10
-301.67920562
 20
-732.14374264
 30
1000.0
 11
-297.67920562
 21
-732.14374264
 31
1000.0
  0
LINE
  5
284
100
AcDbEntity
  8
MST_1_1
 62
   137
  6
CONTINUOUS
100
AcDbLine
 10
-296.87920562
 20
-732.14374264
 30
1000.0
 11
-295.37920562
 21
-732.14374264
 31
1000.0
  0
LINE
  5
285
100
AcDbEntity
  8
MST_1_1
 62
   137
  6
CONTINUOUS
100
AcDbLine
 10
-294.57920562
 20
-732.14374264
 30
1000.0
 11
-293.07920562
 21
-732.14374264
 31
1000.0
  0
LWPOLYLINE
  5
286
100
AcDbEntity
  8
MST_1_1
 62
   137
  6
CONTINUOUS
100
AcDbPolyline
 90
        3
 70
     0
 43
0.0
 38
1000.0
 10
-97.67920562
 20
-732.54374264
 10
-97.67920562
 20
-731.54374264
 10
-96.17920562
 20
-732.14374264
  0
LWPOLYLINE
  5
287
100
AcDbEntity
  8
MST_1_1
 62
   137
  6
CONTINUOUS
100
AcDbPolyline
 90
        3
 70
     0
 43
0.0
 38
1000.0
 10
-292.27920562
 20
-732.14374264
 10
-101.67920562
 20
-732.14374264
 10
-97.67920562
 20
-732.54374264
  0
LWPOLYLINE
  5
288
100
AcDbEntity
  8
MST_1_1
 62
   137
  6
CONTINUOUS
100
AcDbPolyline
 90
       14
 70
     0
 43
0.0
 38
1000.0
 10
-96.17920562
 20
-732.14374264
 10
-92.17920562
 20
-732.54374264
 10
-92.17920562
 20
-731.54374264
 10
-90.67920562
 20
-732.14374264
 10
-86.67920562
 20
-732.54374264
 10
-86.67920562
 20
-731.54374264
 10
-85.17920562
 20
-732.14374264
 10
-81.27920562
 20
-732.54374264
 10
-81.27920562
 20
-732.14374264
 10
-79.47920562
 20
-732.14374264
 10
-76.67920562
 20
-732.94374264
 10
-76.67920562
 20
-739.14374264
 10
-79.47920562
 20
-739.94374264
 10
-81.27920562
 20
-739.94374264
  0
LWPOLYLINE
  5
289
100
AcDbEntity
  8
MST_1_1
 62
   137
  6
CONTINUOUS
100
AcDbPolyline
 90
       13
 70
     0
 43
0.0
 38
1000.0
 10
-81.27920562
 20
-739.94374264
 10
-81.27920562
 20
-739.54374264
 10
-85.17920562
 20
-739.94374264
 10
-86.67920562
 20
-740.54374264
 10
-86.67920562
 20
-739.54374264
 10
-90.67920562
 20
-739.94374264
 10
-92.17920562
 20
-740.54374264
 10
-92.17920562
 20
-739.54374264
 10
-96.17920562
 20
-739.94374264
 10
-97.67920562
 20
-740.54374264
 10
-97.67920562
 20
-739.54374264
 10
-101.67920562
 20
-739.94374264
 10
-292.27920562
 20
-739.94374264
  0
LINE
  5
28A
100
AcDbEntity
  8
MST_1_1
 62
   137
  6
CONTINUOUS
100
AcDbLine
 10
-293.07920562
 20
-739.94374264
 30
1000.0
 11
-294.57920562
 21
-739.94374264
 31
1000.0
  0
LINE
  5
28B
100
AcDbEntity
  8
MST_1_1
 62
   137
  6
CONTINUOUS
100
AcDbLine
 10
-295.37920562
 20
-739.94374264
 30
1000.0
 11
-296.87920562
 21
-739.94374264
 31
1000.0
  0
LINE
  5
28C
100
AcDbEntity
  8
MST_1_1
 62
   137
  6
CONTINUOUS
100
AcDbLine
 10
-297.67920562
 20
-739.94374264
 30
1000.0
 11
-301.67920562
 21
-739.94374264
 31
1000.0
  0
LWPOLYLINE
  5
28D
100
AcDbEntity
  8
MST_1_1
 62
   137
  6
CONTINUOUS
100
AcDbPolyline
 90
        5
 70
     0
 43
0.0
 38
1000.0
 10
-297.67920562
 20
-732.04374264
 10
-296.87920562
 20
-732.04374264
 10
-296.87920562
 20
-740.04374264
 10
-297.67920562
 20
-740.04374264
 10
-297.67920562
 20
-732.04374264
  0
LWPOLYLINE
  5
28E
100
AcDbEntity
  8
MST_1_1
 62
   137
  6
CONTINUOUS
100
AcDbPolyline
 90
        5
 70
     0
 43
0.0
 38
1000.0
 10
-295.37920562
 20
-732.04374264
 10
-294.57920562
 20
-732.04374264
 10
-294.57920562
 20
-740.04374264
 10
-295.37920562
 20
-740.04374264
 10
-295.37920562
 20
-732.04374264
  0
LWPOLYLINE
  5
28F
100
AcDbEntity
  8
MST_1_1
 62
   137
  6
CONTINUOUS
100
AcDbPolyline
 90
        5
 70
     0
 43
0.0
 38
1000.0
 10
-293.07920562
 20
-732.04374264
 10
-292.27920562
 20
-732.04374264
 10
-292.27920562
 20
-740.04374264
 10
-293.07920562
 20
-740.04374264
 10
-293.07920562
 20
-732.04374264
  0
LINE
  5
290
100
AcDbEntity
  8
MST_1_1
 62
   137
  6
CONTINUOUS
100
AcDbLine
 10
-92.17920562
 20
-732.54374264
 30
1000.0
 11
-92.17920562
 21
-735.14374264
 31
1000.0
  0
LINE
  5
291
100
AcDbEntity
  8
MST_1_1
 62
   137
  6
CONTINUOUS
100
AcDbLine
 10
-92.17920562
 20
-735.14374264
 30
1000.0
 11
-90.67920562
 21
-732.14374264
 31
1000.0
  0
LWPOLYLINE
  5
292
100
AcDbEntity
  8
MST_1_1
 62
   137
  6
CONTINUOUS
100
AcDbPolyline
 90
        3
 70
     0
 43
0.0
 38
1000.0
 10
-86.67920562
 20
-732.54374264
 10
-86.67920562
 20
-735.14374264
 10
-85.17920562
 20
-732.14374264
  0
LWPOLYLINE
  5
293
100
AcDbEntity
  8
MST_1_1
 62
   137
  6
CONTINUOUS
100
AcDbPolyline
 90
        3
 70
     0
 43
0.0
 38
1000.0
 10
-86.67920562
 20
-739.54374264
 10
-86.67920562
 20
-736.94374264
 10
-85.17920562
 20
-739.94374264
  0
LWPOLYLINE
  5
294
100
AcDbEntity
  8
MST_1_1
 62
   137
  6
CONTINUOUS
100
AcDbPolyline
 90
        3
 70
     0
 43
0.0
 38
1000.0
 10
-92.17920562
 20
-739.54374264
 10
-92.17920562
 20
-736.94374264
 10
-90.67920562
 20
-739.94374264
  0
LWPOLYLINE
  5
295
100
AcDbEntity
  8
MST_1_1
 62
   137
  6
CONTINUOUS
100
AcDbPolyline
 90
        3
 70
     0
 43
0.0
 38
1000.0
 10
-97.67920562
 20
-739.54374264
 10
-97.67920562
 20
-736.94374264
 10
-96.17920562
 20
-739.94374264
  0
LWPOLYLINE
  5
296
100
AcDbEntity
  8
MST_1_1
 62
   137
  6
CONTINUOUS
100
AcDbPolyline
 90
        3
 70
     0
 43
0.0
 38
1000.0
 10
-97.67920562
 20
-732.54374264
 10
-97.67920562
 20
-735.14374264
 10
-96.17920562
 20
-732.14374264
  0
LWPOLYLINE
  5
297
100
AcDbEntity
  8
MST_1_1
 62
   137
  6
CONTINUOUS
100
AcDbPolyline
 90
        4
 70
     0
 43
0.0
 38
1000.0
 10
-110.93087415
 20
-735.54374264
 42
0.25049165
 10
-111.67920562
 20
-735.14374264
 42
1.0
 10
-111.67920562
 20
-736.94374264
 42
0.25049165
 10
-110.93087415
 20
-736.54374264
  0
LWPOLYLINE
  5
298
100
AcDbEntity
  8
MST_1_1
 62
   137
  6
CONTINUOUS
100
AcDbPolyline
 90
        4
 70
     0
 43
0.0
 38
1000.0
 10
-110.93087415
 20
-735.54374264
 10
-77.67920562
 20
-735.54374264
 10
-77.67920562
 20
-736.54374264
 10
-110.93087415
 20
-736.54374264
  0
CIRCLE
  5
299
100
AcDbEntity
  8
MST_1_1
 62
   137
  6
CONTINUOUS
100
AcDbCircle
 39
-1000.0
 10
-448.46902141
 20
-736.04374264
 30
1000.0
 40
30.0
  0
CIRCLE
  5
29A
100
AcDbEntity
  8
MST_1_1
 62
   137
  6
CONTINUOUS
100
AcDbCircle
 39
-1000.0
 10
-428.11742442
 20
-724.29374264
 30
1000.0
 40
3.25
  0
CIRCLE
  5
29B
100
AcDbEntity
  8
MST_1_1
 62
   137
  6
CONTINUOUS
100
AcDbCircle
 39
-1000.0
 10
-439.27663326
 20
-726.85135449
 30
1000.0
 40
2.0
  0
CIRCLE
  5
29C
100
AcDbEntity
  8
MST_1_1
 62
   137
  6
CONTINUOUS
100
AcDbCircle
 39
-1000.0
 10
-448.46902141
 20
-736.04374264
 30
1000.0
 40
6.0
  0
CIRCLE
  5
29D
100
AcDbEntity
  8
MST_1_1
 62
   137
  6
CONTINUOUS
100
AcDbCircle
 39
-1000.0
 10
-457.66140957
 20
-726.85135449
 30
1000.0
 40
2.0
  0
CIRCLE
  5
29E
100
AcDbEntity
  8
MST_1_1
 62
   137
  6
CONTINUOUS
100
AcDbCircle
 39
-1000.0
 10
-457.66140957
 20
-745.2361308
 30
1000.0
 40
2.0
  0
CIRCLE
  5
29F
100
AcDbEntity
  8
MST_1_1
 62
   137
  6
CONTINUOUS
100
AcDbCircle
 39
-1000.0
 10
-439.27663326
 20
-745.2361308
 30
1000.0
 40
2.0
  0
CIRCLE
  5
2A0
100
AcDbEntity
  8
MST_1_1
 62
   137
  6
CONTINUOUS
100
AcDbCircle
 39
-1000.0
 10
-436.71902141
 20
-715.69214565
 30
1000.0
 40
3.25
  0
CIRCLE
  5
2A1
100
AcDbEntity
  8
MST_1_1
 62
   137
  6
CONTINUOUS
100
AcDbCircle
 39
-1000.0
 10
-460.21902141
 20
-715.69214565
 30
1000.0
 40
3.25
  0
CIRCLE
  5
2A2
100
AcDbEntity
  8
MST_1_1
 62
   137
  6
CONTINUOUS
100
AcDbCircle
 39
-1000.0
 10
-468.8206184
 20
-724.29374264
 30
1000.0
 40
3.25
  0
CIRCLE
  5
2A3
100
AcDbEntity
  8
MST_1_1
 62
   137
  6
CONTINUOUS
100
AcDbCircle
 39
-1000.0
 10
-471.96902141
 20
-736.04374264
 30
1000.0
 40
3.25
  0
CIRCLE
  5
2A4
100
AcDbEntity
  8
MST_1_1
 62
   137
  6
CONTINUOUS
100
AcDbCircle
 39
-1000.0
 10
-468.8206184
 20
-747.79374264
 30
1000.0
 40
3.25
  0
CIRCLE
  5
2A5
100
AcDbEntity
  8
MST_1_1
 62
   137
  6
CONTINUOUS
100
AcDbCircle
 39
-1000.0
 10
-428.11742442
 20
-747.79374264
 30
1000.0
 40
3.25
  0
CIRCLE
  5
2A6
100
AcDbEntity
  8
MST_1_1
 62
   137
  6
CONTINUOUS
100
AcDbCircle
 39
-1000.0
 10
-424.96902141
 20
-736.04374264
 30
1000.0
 40
3.25
  0
LINE
  5
2A7
100
AcDbEntity
  8
MST_1_1
 62
     1
  6
BORDER
100
AcDbLine
 10
-56.67920562
 20
-806.04374264
 30
0.0
 11
-333.99143991
 21
-806.04374264
 31
0.0
  0
LWPOLYLINE
  5
2A8
100
AcDbEntity
  8
MST_1_1
 62
   137
  6
CONTINUOUS
100
AcDbPolyline
 90
        7
 70
     0
 43
0.0
 38
1000.0
 10
-327.67920562
 20
-776.04374264
 10
-329.47920562
 20
-776.04374264
 10
-331.67920562
 20
-789.04374264
 10
-331.67920562
 20
-823.04374264
 10
-329.47920562
 20
-836.04374264
 10
-327.67920562
 20
-836.04374264
 10
-327.67920562
 20
-776.04374264
  0
LWPOLYLINE
  5
2A9
100
AcDbEntity
  8
MST_1_1
 62
   137
  6
CONTINUOUS
100
AcDbPolyline
 90
        3
 70
     0
 43
0.0
 38
1000.0
 10
-327.67920562
 20
-798.04374264
 10
-307.67920562
 20
-798.04374264
 10
-301.67920562
 20
-802.14374264
  0
LWPOLYLINE
  5
2AA
100
AcDbEntity
  8
MST_1_1
 62
   137
  6
CONTINUOUS
100
AcDbPolyline
 90
        3
 70
     0
 43
0.0
 38
1000.0
 10
-327.67920562
 20
-814.04374264
 10
-307.67920562
 20
-814.04374264
 10
-301.67920562
 20
-809.94374264
  0
LINE
  5
2AB
100
AcDbEntity
  8
MST_1_1
 62
   137
  6
CONTINUOUS
100
AcDbLine
 10
-327.67920562
 20
-792.04374264
 30
1000.0
 11
-318.67920562
 21
-798.04374264
 31
1000.0
  0
LINE
  5
2AC
100
AcDbEntity
  8
MST_1_1
 62
   137
  6
CONTINUOUS
100
AcDbLine
 10
-327.67920562
 20
-820.04374264
 30
1000.0
 11
-318.67920562
 21
-814.04374264
 31
1000.0
  0
LWPOLYLINE
  5
2AD
100
AcDbEntity
  8
MST_1_1
 62
   137
  6
CONTINUOUS
100
AcDbPolyline
 90
        3
 70
     0
 43
0.0
 38
1000.0
 10
-318.67920562
 20
-806.04374264
 10
-319.27920562
 20
-805.44374264
 10
-327.67920562
 20
-805.14374264
  0
LWPOLYLINE
  5
2AE
100
AcDbEntity
  8
MST_1_1
 62
   137
  6
CONTINUOUS
100
AcDbPolyline
 90
        3
 70
     0
 43
0.0
 38
1000.0
 10
-327.67920562
 20
-806.94374264
 10
-319.27920562
 20
-806.64374264
 10
-318.67920562
 20
-806.04374264
  0
LINE
  5
2AF
100
AcDbEntity
  8
MST_1_1
 62
   137
  6
CONTINUOUS
100
AcDbLine
 10
-319.27920562
 20
-806.64374264
 30
1000.0
 11
-327.67920562
 21
-806.64374264
 31
1000.0
  0
LINE
  5
2B0
100
AcDbEntity
  8
MST_1_1
 62
   137
  6
CONTINUOUS
100
AcDbLine
 10
-319.27920562
 20
-805.44374264
 30
1000.0
 11
-327.67920562
 21
-805.44374264
 31
1000.0
  0
LINE
  5
2B1
100
AcDbEntity
  8
MST_1_1
 62
   137
  6
CONTINUOUS
100
AcDbLine
 10
-301.67920562
 20
-802.14374264
 30
1000.0
 11
-297.67920562
 21
-802.14374264
 31
1000.0
  0
LINE
  5
2B2
100
AcDbEntity
  8
MST_1_1
 62
   137
  6
CONTINUOUS
100
AcDbLine
 10
-296.87920562
 20
-802.14374264
 30
1000.0
 11
-295.37920562
 21
-802.14374264
 31
1000.0
  0
LINE
  5
2B3
100
AcDbEntity
  8
MST_1_1
 62
   137
  6
CONTINUOUS
100
AcDbLine
 10
-294.57920562
 20
-802.14374264
 30
1000.0
 11
-293.07920562
 21
-802.14374264
 31
1000.0
  0
LWPOLYLINE
  5
2B4
100
AcDbEntity
  8
MST_1_1
 62
   137
  6
CONTINUOUS
100
AcDbPolyline
 90
        3
 70
     0
 43
0.0
 38
1000.0
 10
-77.67920562
 20
-802.54374264
 10
-77.67920562
 20
-801.54374264
 10
-76.17920562
 20
-802.14374264
  0
LWPOLYLINE
  5
2B5
100
AcDbEntity
  8
MST_1_1
 62
   137
  6
CONTINUOUS
100
AcDbPolyline
 90
        3
 70
     0
 43
0.0
 38
1000.0
 10
-292.27920562
 20
-802.14374264
 10
-81.67920562
 20
-802.14374264
 10
-77.67920562
 20
-802.54374264
  0
LWPOLYLINE
  5
2B6
100
AcDbEntity
  8
MST_1_1
 62
   137
  6
CONTINUOUS
100
AcDbPolyline
 90
       14
 70
     0
 43
0.0
 38
1000.0
 10
-76.17920562
 20
-802.14374264
 10
-72.17920562
 20
-802.54374264
 10
-72.17920562
 20
-801.54374264
 10
-70.67920562
 20
-802.14374264
 10
-66.67920562
 20
-802.54374264
 10
-66.67920562
 20
-801.54374264
 10
-65.17920562
 20
-802.14374264
 10
-61.27920562
 20
-802.54374264
 10
-61.27920562
 20
-802.14374264
 10
-59.47920562
 20
-802.14374264
 10
-56.67920562
 20
-802.94374264
 10
-56.67920562
 20
-809.14374264
 10
-59.47920562
 20
-809.94374264
 10
-61.27920562
 20
-809.94374264
  0
LWPOLYLINE
  5
2B7
100
AcDbEntity
  8
MST_1_1
 62
   137
  6
CONTINUOUS
100
AcDbPolyline
 90
       13
 70
     0
 43
0.0
 38
1000.0
 10
-61.27920562
 20
-809.94374264
 10
-61.27920562
 20
-809.54374264
 10
-65.17920562
 20
-809.94374264
 10
-66.67920562
 20
-810.54374264
 10
-66.67920562
 20
-809.54374264
 10
-70.67920562
 20
-809.94374264
 10
-72.17920562
 20
-810.54374264
 10
-72.17920562
 20
-809.54374264
 10
-76.17920562
 20
-809.94374264
 10
-77.67920562
 20
-810.54374264
 10
-77.67920562
 20
-809.54374264
 10
-81.67920562
 20
-809.94374264
 10
-292.27920562
 20
-809.94374264
  0
LINE
  5
2B8
100
AcDbEntity
  8
MST_1_1
 62
   137
  6
CONTINUOUS
100
AcDbLine
 10
-293.07920562
 20
-809.94374264
 30
1000.0
 11
-294.57920562
 21
-809.94374264
 31
1000.0
  0
LINE
  5
2B9
100
AcDbEntity
  8
MST_1_1
 62
   137
  6
CONTINUOUS
100
AcDbLine
 10
-295.37920562
 20
-809.94374264
 30
1000.0
 11
-296.87920562
 21
-809.94374264
 31
1000.0
  0
LINE
  5
2BA
100
AcDbEntity
  8
MST_1_1
 62
   137
  6
CONTINUOUS
100
AcDbLine
 10
-297.67920562
 20
-809.94374264
 30
1000.0
 11
-301.67920562
 21
-809.94374264
 31
1000.0
  0
LWPOLYLINE
  5
2BB
100
AcDbEntity
  8
MST_1_1
 62
   137
  6
CONTINUOUS
100
AcDbPolyline
 90
        5
 70
     0
 43
0.0
 38
1000.0
 10
-297.67920562
 20
-802.04374264
 10
-296.87920562
 20
-802.04374264
 10
-296.87920562
 20
-810.04374264
 10
-297.67920562
 20
-810.04374264
 10
-297.67920562
 20
-802.04374264
  0
LWPOLYLINE
  5
2BC
100
AcDbEntity
  8
MST_1_1
 62
   137
  6
CONTINUOUS
100
AcDbPolyline
 90
        5
 70
     0
 43
0.0
 38
1000.0
 10
-295.37920562
 20
-802.04374264
 10
-294.57920562
 20
-802.04374264
 10
-294.57920562
 20
-810.04374264
 10
-295.37920562
 20
-810.04374264
 10
-295.37920562
 20
-802.04374264
  0
LWPOLYLINE
  5
2BD
100
AcDbEntity
  8
MST_1_1
 62
   137
  6
CONTINUOUS
100
AcDbPolyline
 90
        5
 70
     0
 43
0.0
 38
1000.0
 10
-293.07920562
 20
-802.04374264
 10
-292.27920562
 20
-802.04374264
 10
-292.27920562
 20
-810.04374264
 10
-293.07920562
 20
-810.04374264
 10
-293.07920562
 20
-802.04374264
  0
LINE
  5
2BE
100
AcDbEntity
  8
MST_1_1
 62
   137
  6
CONTINUOUS
100
AcDbLine
 10
-72.17920562
 20
-802.54374264
 30
1000.0
 11
-72.17920562
 21
-805.14374264
 31
1000.0
  0
LINE
  5
2BF
100
AcDbEntity
  8
MST_1_1
 62
   137
  6
CONTINUOUS
100
AcDbLine
 10
-72.17920562
 20
-805.14374264
 30
1000.0
 11
-70.67920562
 21
-802.14374264
 31
1000.0
  0
LWPOLYLINE
  5
2C0
100
AcDbEntity
  8
MST_1_1
 62
   137
  6
CONTINUOUS
100
AcDbPolyline
 90
        3
 70
     0
 43
0.0
 38
1000.0
 10
-66.67920562
 20
-802.54374264
 10
-66.67920562
 20
-805.14374264
 10
-65.17920562
 20
-802.14374264
  0
LWPOLYLINE
  5
2C1
100
AcDbEntity
  8
MST_1_1
 62
   137
  6
CONTINUOUS
100
AcDbPolyline
 90
        3
 70
     0
 43
0.0
 38
1000.0
 10
-66.67920562
 20
-809.54374264
 10
-66.67920562
 20
-806.94374264
 10
-65.17920562
 20
-809.94374264
  0
LWPOLYLINE
  5
2C2
100
AcDbEntity
  8
MST_1_1
 62
   137
  6
CONTINUOUS
100
AcDbPolyline
 90
        3
 70
     0
 43
0.0
 38
1000.0
 10
-72.17920562
 20
-809.54374264
 10
-72.17920562
 20
-806.94374264
 10
-70.67920562
 20
-809.94374264
  0
LWPOLYLINE
  5
2C3
100
AcDbEntity
  8
MST_1_1
 62
   137
  6
CONTINUOUS
100
AcDbPolyline
 90
        3
 70
     0
 43
0.0
 38
1000.0
 10
-77.67920562
 20
-809.54374264
 10
-77.67920562
 20
-806.94374264
 10
-76.17920562
 20
-809.94374264
  0
LWPOLYLINE
  5
2C4
100
AcDbEntity
  8
MST_1_1
 62
   137
  6
CONTINUOUS
100
AcDbPolyline
 90
        3
 70
     0
 43
0.0
 38
1000.0
 10
-77.67920562
 20
-802.54374264
 10
-77.67920562
 20
-805.14374264
 10
-76.17920562
 20
-802.14374264
  0
LWPOLYLINE
  5
2C5
100
AcDbEntity
  8
MST_1_1
 62
   137
  6
CONTINUOUS
100
AcDbPolyline
 90
        4
 70
     0
 43
0.0
 38
1000.0
 10
-90.93087415
 20
-805.54374264
 42
0.25049165
 10
-91.67920562
 20
-805.14374264
 42
1.0
 10
-91.67920562
 20
-806.94374264
 42
0.25049165
 10
-90.93087415
 20
-806.54374264
  0
LWPOLYLINE
  5
2C6
100
AcDbEntity
  8
MST_1_1
 62
   137
  6
CONTINUOUS
100
AcDbPolyline
 90
        4
 70
     0
 43
0.0
 38
1000.0
 10
-90.93087415
 20
-805.54374264
 10
-57.67920562
 20
-805.54374264
 10
-57.67920562
 20
-806.54374264
 10
-90.93087415
 20
-806.54374264
  0
CIRCLE
  5
2C7
100
AcDbEntity
  8
MST_1_1
 62
   137
  6
CONTINUOUS
100
AcDbCircle
 39
-1000.0
 10
-448.46902141
 20
-806.04374264
 30
1000.0
 40
30.0
  0
CIRCLE
  5
2C8
100
AcDbEntity
  8
MST_1_1
 62
   137
  6
CONTINUOUS
100
AcDbCircle
 39
-1000.0
 10
-428.11742442
 20
-794.29374264
 30
1000.0
 40
3.25
  0
CIRCLE
  5
2C9
100
AcDbEntity
  8
MST_1_1
 62
   137
  6
CONTINUOUS
100
AcDbCircle
 39
-1000.0
 10
-439.27663326
 20
-796.85135449
 30
1000.0
 40
2.0
  0
CIRCLE
  5
2CA
100
AcDbEntity
  8
MST_1_1
 62
   137
  6
CONTINUOUS
100
AcDbCircle
 39
-1000.0
 10
-448.46902141
 20
-806.04374264
 30
1000.0
 40
6.0
  0
CIRCLE
  5
2CB
100
AcDbEntity
  8
MST_1_1
 62
   137
  6
CONTINUOUS
100
AcDbCircle
 39
-1000.0
 10
-457.66140957
 20
-796.85135449
 30
1000.0
 40
2.0
  0
CIRCLE
  5
2CC
100
AcDbEntity
  8
MST_1_1
 62
   137
  6
CONTINUOUS
100
AcDbCircle
 39
-1000.0
 10
-457.66140957
 20
-815.2361308
 30
1000.0
 40
2.0
  0
CIRCLE
  5
2CD
100
AcDbEntity
  8
MST_1_1
 62
   137
  6
CONTINUOUS
100
AcDbCircle
 39
-1000.0
 10
-439.27663326
 20
-815.2361308
 30
1000.0
 40
2.0
  0
CIRCLE
  5
2CE
100
AcDbEntity
  8
MST_1_1
 62
   137
  6
CONTINUOUS
100
AcDbCircle
 39
-1000.0
 10
-436.71902141
 20
-785.69214565
 30
1000.0
 40
3.25
  0
CIRCLE
  5
2CF
100
AcDbEntity
  8
MST_1_1
 62
   137
  6
CONTINUOUS
100
AcDbCircle
 39
-1000.0
 10
-460.21902141
 20
-785.69214565
 30
1000.0
 40
3.25
  0
CIRCLE
  5
2D0
100
AcDbEntity
  8
MST_1_1
 62
   137
  6
CONTINUOUS
100
AcDbCircle
 39
-1000.0
 10
-468.8206184
 20
-794.29374264
 30
1000.0
 40
3.25
  0
CIRCLE
  5
2D1
100
AcDbEntity
  8
MST_1_1
 62
   137
  6
CONTINUOUS
100
AcDbCircle
 39
-1000.0
 10
-471.96902141
 20
-806.04374264
 30
1000.0
 40
3.25
  0
CIRCLE
  5
2D2
100
AcDbEntity
  8
MST_1_1
 62
   137
  6
CONTINUOUS
100
AcDbCircle
 39
-1000.0
 10
-468.8206184
 20
-817.79374264
 30
1000.0
 40
3.25
  0
CIRCLE
  5
2D3
100
AcDbEntity
  8
MST_1_1
 62
   137
  6
CONTINUOUS
100
AcDbCircle
 39
-1000.0
 10
-428.11742442
 20
-817.79374264
 30
1000.0
 40
3.25
  0
CIRCLE
  5
2D4
100
AcDbEntity
  8
MST_1_1
 62
   137
  6
CONTINUOUS
100
AcDbCircle
 39
-1000.0
 10
-424.96902141
 20
-806.04374264
 30
1000.0
 40
3.25
  0
LINE
  5
2D5
100
AcDbEntity
  8
MST_1_1
 62
     1
  6
BORDER
100
AcDbLine
 10
-36.67920562
 20
-876.04374264
 30
0.0
 11
-333.99143991
 21
-876.04374264
 31
0.0
  0
LWPOLYLINE
  5
2D6
100
AcDbEntity
  8
MST_1_1
 62
   137
  6
CONTINUOUS
100
AcDbPolyline
 90
        7
 70
     0
 43
0.0
 38
1000.0
 10
-327.67920562
 20
-846.04374264
 10
-329.47920562
 20
-846.04374264
 10
-331.67920562
 20
-859.04374264
 10
-331.67920562
 20
-893.04374264
 10
-329.47920562
 20
-906.04374264
 10
-327.67920562
 20
-906.04374264
 10
-327.67920562
 20
-846.04374264
  0
LWPOLYLINE
  5
2D7
100
AcDbEntity
  8
MST_1_1
 62
   137
  6
CONTINUOUS
100
AcDbPolyline
 90
        3
 70
     0
 43
0.0
 38
1000.0
 10
-327.67920562
 20
-868.04374264
 10
-307.67920562
 20
-868.04374264
 10
-301.67920562
 20
-872.14374264
  0
LWPOLYLINE
  5
2D8
100
AcDbEntity
  8
MST_1_1
 62
   137
  6
CONTINUOUS
100
AcDbPolyline
 90
        3
 70
     0
 43
0.0
 38
1000.0
 10
-327.67920562
 20
-884.04374264
 10
-307.67920562
 20
-884.04374264
 10
-301.67920562
 20
-879.94374264
  0
LINE
  5
2D9
100
AcDbEntity
  8
MST_1_1
 62
   137
  6
CONTINUOUS
100
AcDbLine
 10
-327.67920562
 20
-862.04374264
 30
1000.0
 11
-318.67920562
 21
-868.04374264
 31
1000.0
  0
LINE
  5
2DA
100
AcDbEntity
  8
MST_1_1
 62
   137
  6
CONTINUOUS
100
AcDbLine
 10
-327.67920562
 20
-890.04374264
 30
1000.0
 11
-318.67920562
 21
-884.04374264
 31
1000.0
  0
LWPOLYLINE
  5
2DB
100
AcDbEntity
  8
MST_1_1
 62
   137
  6
CONTINUOUS
100
AcDbPolyline
 90
        3
 70
     0
 43
0.0
 38
1000.0
 10
-318.67920562
 20
-876.04374264
 10
-319.27920562
 20
-875.44374264
 10
-327.67920562
 20
-875.14374264
  0
LWPOLYLINE
  5
2DC
100
AcDbEntity
  8
MST_1_1
 62
   137
  6
CONTINUOUS
100
AcDbPolyline
 90
        3
 70
     0
 43
0.0
 38
1000.0
 10
-327.67920562
 20
-876.94374264
 10
-319.27920562
 20
-876.64374264
 10
-318.67920562
 20
-876.04374264
  0
LINE
  5
2DD
100
AcDbEntity
  8
MST_1_1
 62
   137
  6
CONTINUOUS
100
AcDbLine
 10
-319.27920562
 20
-876.64374264
 30
1000.0
 11
-327.67920562
 21
-876.64374264
 31
1000.0
  0
LINE
  5
2DE
100
AcDbEntity
  8
MST_1_1
 62
   137
  6
CONTINUOUS
100
AcDbLine
 10
-319.27920562
 20
-875.44374264
 30
1000.0
 11
-327.67920562
 21
-875.44374264
 31
1000.0
  0
LINE
  5
2DF
100
AcDbEntity
  8
MST_1_1
 62
   137
  6
CONTINUOUS
100
AcDbLine
 10
-301.67920562
 20
-872.14374264
 30
1000.0
 11
-297.67920562
 21
-872.14374264
 31
1000.0
  0
LINE
  5
2E0
100
AcDbEntity
  8
MST_1_1
 62
   137
  6
CONTINUOUS
100
AcDbLine
 10
-296.87920562
 20
-872.14374264
 30
1000.0
 11
-295.37920562
 21
-872.14374264
 31
1000.0
  0
LINE
  5
2E1
100
AcDbEntity
  8
MST_1_1
 62
   137
  6
CONTINUOUS
100
AcDbLine
 10
-294.57920562
 20
-872.14374264
 30
1000.0
 11
-293.07920562
 21
-872.14374264
 31
1000.0
  0
LWPOLYLINE
  5
2E2
100
AcDbEntity
  8
MST_1_1
 62
   137
  6
CONTINUOUS
100
AcDbPolyline
 90
        3
 70
     0
 43
0.0
 38
1000.0
 10
-57.67920562
 20
-872.54374264
 10
-57.67920562
 20
-871.54374264
 10
-56.17920562
 20
-872.14374264
  0
LWPOLYLINE
  5
2E3
100
AcDbEntity
  8
MST_1_1
 62
   137
  6
CONTINUOUS
100
AcDbPolyline
 90
        3
 70
     0
 43
0.0
 38
1000.0
 10
-292.27920562
 20
-872.14374264
 10
-61.67920562
 20
-872.14374264
 10
-57.67920562
 20
-872.54374264
  0
LWPOLYLINE
  5
2E4
100
AcDbEntity
  8
MST_1_1
 62
   137
  6
CONTINUOUS
100
AcDbPolyline
 90
       14
 70
     0
 43
0.0
 38
1000.0
 10
-56.17920562
 20
-872.14374264
 10
-52.17920562
 20
-872.54374264
 10
-52.17920562
 20
-871.54374264
 10
-50.67920562
 20
-872.14374264
 10
-46.67920562
 20
-872.54374264
 10
-46.67920562
 20
-871.54374264
 10
-45.17920562
 20
-872.14374264
 10
-41.27920562
 20
-872.54374264
 10
-41.27920562
 20
-872.14374264
 10
-39.47920562
 20
-872.14374264
 10
-36.67920562
 20
-872.94374264
 10
-36.67920562
 20
-879.14374264
 10
-39.47920562
 20
-879.94374264
 10
-41.27920562
 20
-879.94374264
  0
LWPOLYLINE
  5
2E5
100
AcDbEntity
  8
MST_1_1
 62
   137
  6
CONTINUOUS
100
AcDbPolyline
 90
       13
 70
     0
 43
0.0
 38
1000.0
 10
-41.27920562
 20
-879.94374264
 10
-41.27920562
 20
-879.54374264
 10
-45.17920562
 20
-879.94374264
 10
-46.67920562
 20
-880.54374264
 10
-46.67920562
 20
-879.54374264
 10
-50.67920562
 20
-879.94374264
 10
-52.17920562
 20
-880.54374264
 10
-52.17920562
 20
-879.54374264
 10
-56.17920562
 20
-879.94374264
 10
-57.67920562
 20
-880.54374264
 10
-57.67920562
 20
-879.54374264
 10
-61.67920562
 20
-879.94374264
 10
-292.27920562
 20
-879.94374264
  0
LINE
  5
2E6
100
AcDbEntity
  8
MST_1_1
 62
   137
  6
CONTINUOUS
100
AcDbLine
 10
-293.07920562
 20
-879.94374264
 30
1000.0
 11
-294.57920562
 21
-879.94374264
 31
1000.0
  0
LINE
  5
2E7
100
AcDbEntity
  8
MST_1_1
 62
   137
  6
CONTINUOUS
100
AcDbLine
 10
-295.37920562
 20
-879.94374264
 30
1000.0
 11
-296.87920562
 21
-879.94374264
 31
1000.0
  0
LINE
  5
2E8
100
AcDbEntity
  8
MST_1_1
 62
   137
  6
CONTINUOUS
100
AcDbLine
 10
-297.67920562
 20
-879.94374264
 30
1000.0
 11
-301.67920562
 21
-879.94374264
 31
1000.0
  0
LWPOLYLINE
  5
2E9
100
AcDbEntity
  8
MST_1_1
 62
   137
  6
CONTINUOUS
100
AcDbPolyline
 90
        5
 70
     0
 43
0.0
 38
1000.0
 10
-297.67920562
 20
-872.04374264
 10
-296.87920562
 20
-872.04374264
 10
-296.87920562
 20
-880.04374264
 10
-297.67920562
 20
-880.04374264
 10
-297.67920562
 20
-872.04374264
  0
LWPOLYLINE
  5
2EA
100
AcDbEntity
  8
MST_1_1
 62
   137
  6
CONTINUOUS
100
AcDbPolyline
 90
        5
 70
     0
 43
0.0
 38
1000.0
 10
-295.37920562
 20
-872.04374264
 10
-294.57920562
 20
-872.04374264
 10
-294.57920562
 20
-880.04374264
 10
-295.37920562
 20
-880.04374264
 10
-295.37920562
 20
-872.04374264
  0
LWPOLYLINE
  5
2EB
100
AcDbEntity
  8
MST_1_1
 62
   137
  6
CONTINUOUS
100
AcDbPolyline
 90
        5
 70
     0
 43
0.0
 38
1000.0
 10
-293.07920562
 20
-872.04374264
 10
-292.27920562
 20
-872.04374264
 10
-292.27920562
 20
-880.04374264
 10
-293.07920562
 20
-880.04374264
 10
-293.07920562
 20
-872.04374264
  0
LINE
  5
2EC
100
AcDbEntity
  8
MST_1_1
 62
   137
  6
CONTINUOUS
100
AcDbLine
 10
-52.17920562
 20
-872.54374264
 30
1000.0
 11
-52.17920562
 21
-875.14374264
 31
1000.0
  0
LINE
  5
2ED
100
AcDbEntity
  8
MST_1_1
 62
   137
  6
CONTINUOUS
100
AcDbLine
 10
-52.17920562
 20
-875.14374264
 30
1000.0
 11
-50.67920562
 21
-872.14374264
 31
1000.0
  0
LWPOLYLINE
  5
2EE
100
AcDbEntity
  8
MST_1_1
 62
   137
  6
CONTINUOUS
100
AcDbPolyline
 90
        3
 70
     0
 43
0.0
 38
1000.0
 10
-46.67920562
 20
-872.54374264
 10
-46.67920562
 20
-875.14374264
 10
-45.17920562
 20
-872.14374264
  0
LWPOLYLINE
  5
2EF
100
AcDbEntity
  8
MST_1_1
 62
   137
  6
CONTINUOUS
100
AcDbPolyline
 90
        3
 70
     0
 43
0.0
 38
1000.0
 10
-46.67920562
 20
-879.54374264
 10
-46.67920562
 20
-876.94374264
 10
-45.17920562
 20
-879.94374264
  0
LWPOLYLINE
  5
2F0
100
AcDbEntity
  8
MST_1_1
 62
   137
  6
CONTINUOUS
100
AcDbPolyline
 90
        3
 70
     0
 43
0.0
 38
1000.0
 10
-52.17920562
 20
-879.54374264
 10
-52.17920562
 20
-876.94374264
 10
-50.67920562
 20
-879.94374264
  0
LWPOLYLINE
  5
2F1
100
AcDbEntity
  8
MST_1_1
 62
   137
  6
CONTINUOUS
100
AcDbPolyline
 90
        3
 70
     0
 43
0.0
 38
1000.0
 10
-57.67920562
 20
-879.54374264
 10
-57.67920562
 20
-876.94374264
 10
-56.17920562
 20
-879.94374264
  0
LWPOLYLINE
  5
2F2
100
AcDbEntity
  8
MST_1_1
 62
   137
  6
CONTINUOUS
100
AcDbPolyline
 90
        3
 70
     0
 43
0.0
 38
1000.0
 10
-57.67920562
 20
-872.54374264
 10
-57.67920562
 20
-875.14374264
 10
-56.17920562
 20
-872.14374264
  0
LWPOLYLINE
  5
2F3
100
AcDbEntity
  8
MST_1_1
 62
   137
  6
CONTINUOUS
100
AcDbPolyline
 90
        4
 70
     0
 43
0.0
 38
1000.0
 10
-70.93087415
 20
-875.54374264
 42
0.25049165
 10
-71.67920562
 20
-875.14374264
 42
1.0
 10
-71.67920562
 20
-876.94374264
 42
0.25049165
 10
-70.93087415
 20
-876.54374264
  0
LWPOLYLINE
  5
2F4
100
AcDbEntity
  8
MST_1_1
 62
   137
  6
CONTINUOUS
100
AcDbPolyline
 90
        4
 70
     0
 43
0.0
 38
1000.0
 10
-70.93087415
 20
-875.54374264
 10
-37.67920562
 20
-875.54374264
 10
-37.67920562
 20
-876.54374264
 10
-70.93087415
 20
-876.54374264
  0
CIRCLE
  5
2F5
100
AcDbEntity
  8
MST_1_1
 62
   137
  6
CONTINUOUS
100
AcDbCircle
 39
-1000.0
 10
-448.46902141
 20
-876.04374264
 30
1000.0
 40
30.0
  0
CIRCLE
  5
2F6
100
AcDbEntity
  8
MST_1_1
 62
   137
  6
CONTINUOUS
100
AcDbCircle
 39
-1000.0
 10
-428.11742442
 20
-864.29374264
 30
1000.0
 40
3.25
  0
CIRCLE
  5
2F7
100
AcDbEntity
  8
MST_1_1
 62
   137
  6
CONTINUOUS
100
AcDbCircle
 39
-1000.0
 10
-439.27663326
 20
-866.85135449
 30
1000.0
 40
2.0
  0
CIRCLE
  5
2F8
100
AcDbEntity
  8
MST_1_1
 62
   137
  6
CONTINUOUS
100
AcDbCircle
 39
-1000.0
 10
-448.46902141
 20
-876.04374264
 30
1000.0
 40
6.0
  0
CIRCLE
  5
2F9
100
AcDbEntity
  8
MST_1_1
 62
   137
  6
CONTINUOUS
100
AcDbCircle
 39
-1000.0
 10
-457.66140957
 20
-866.85135449
 30
1000.0
 40
2.0
  0
CIRCLE
  5
2FA
100
AcDbEntity
  8
MST_1_1
 62
   137
  6
CONTINUOUS
100
AcDbCircle
 39
-1000.0
 10
-457.66140957
 20
-885.2361308
 30
1000.0
 40
2.0
  0
CIRCLE
  5
2FB
100
AcDbEntity
  8
MST_1_1
 62
   137
  6
CONTINUOUS
100
AcDbCircle
 39
-1000.0
 10
-439.27663326
 20
-885.2361308
 30
1000.0
 40
2.0
  0
CIRCLE
  5
2FC
100
AcDbEntity
  8
MST_1_1
 62
   137
  6
CONTINUOUS
100
AcDbCircle
 39
-1000.0
 10
-436.71902141
 20
-855.69214565
 30
1000.0
 40
3.25
  0
CIRCLE
  5
2FD
100
AcDbEntity
  8
MST_1_1
 62
   137
  6
CONTINUOUS
100
AcDbCircle
 39
-1000.0
 10
-460.21902141
 20
-855.69214565
 30
1000.0
 40
3.25
  0
CIRCLE
  5
2FE
100
AcDbEntity
  8
MST_1_1
 62
   137
  6
CONTINUOUS
100
AcDbCircle
 39
-1000.0
 10
-468.8206184
 20
-864.29374264
 30
1000.0
 40
3.25
  0
CIRCLE
  5
2FF
100
AcDbEntity
  8
MST_1_1
 62
   137
  6
CONTINUOUS
100
AcDbCircle
 39
-1000.0
 10
-471.96902141
 20
-876.04374264
 30
1000.0
 40
3.25
  0
CIRCLE
  5
300
100
AcDbEntity
  8
MST_1_1
 62
   137
  6
CONTINUOUS
100
AcDbCircle
 39
-1000.0
 10
-468.8206184
 20
-887.79374264
 30
1000.0
 40
3.25
  0
CIRCLE
  5
301
100
AcDbEntity
  8
MST_1_1
 62
   137
  6
CONTINUOUS
100
AcDbCircle
 39
-1000.0
 10
-428.11742442
 20
-887.79374264
 30
1000.0
 40
3.25
  0
CIRCLE
  5
302
100
AcDbEntity
  8
MST_1_1
 62
   137
  6
CONTINUOUS
100
AcDbCircle
 39
-1000.0
 10
-424.96902141
 20
-876.04374264
 30
1000.0
 40
3.25
  0
LWPOLYLINE
  5
303
100
AcDbEntity
  8
MST_1_1
 62
     7
  6
CONTINUOUS
100
AcDbPolyline
 90
        7
 70
     0
 43
0.0
 10
-271.67920562
 20
-190.14374264
 10
-271.67920562
 20
-180.14374264
 10
-229.04634173
 20
-180.14374264
 10
-226.67920562
 20
-176.04374264
 10
-229.04634173
 20
-171.94374264
 10
-271.67920562
 20
-171.94374264
 10
-271.67920562
 20
-161.94374264
  0
LWPOLYLINE
  5
304
100
AcDbEntity
  8
MST_1_1
 62
     7
  6
CONTINUOUS
100
AcDbPolyline
 90
        7
 70
     0
 43
0.0
 10
-251.67920562
 20
-260.14374264
 10
-251.67920562
 20
-250.14374264
 10
-209.04634173
 20
-250.14374264
 10
-206.67920562
 20
-246.04374264
 10
-209.04634173
 20
-241.94374264
 10
-251.67920562
 20
-241.94374264
 10
-251.67920562
 20
-231.94374264
  0
LWPOLYLINE
  5
305
100
AcDbEntity
  8
MST_1_1
 62
     7
  6
CONTINUOUS
100
AcDbPolyline
 90
        7
 70
     0
 43
0.0
 10
-231.67920562
 20
-330.14374264
 10
-231.67920562
 20
-320.14374264
 10
-189.04634173
 20
-320.14374264
 10
-186.67920562
 20
-316.04374264
 10
-189.04634173
 20
-311.94374264
 10
-231.67920562
 20
-311.94374264
 10
-231.67920562
 20
-301.94374264
  0
LWPOLYLINE
  5
306
100
AcDbEntity
  8
MST_1_1
 62
     7
  6
CONTINUOUS
100
AcDbPolyline
 90
        7
 70
     0
 43
0.0
 10
-211.67920562
 20
-400.14374264
 10
-211.67920562
 20
-390.14374264
 10
-169.04634173
 20
-390.14374264
 10
-166.67920562
 20
-386.04374264
 10
-169.04634173
 20
-381.94374264
 10
-211.67920562
 20
-381.94374264
 10
-211.67920562
 20
-371.94374264
  0
LWPOLYLINE
  5
307
100
AcDbEntity
  8
MST_1_1
 62
     7
  6
CONTINUOUS
100
AcDbPolyline
 90
        7
 70
     0
 43
0.0
 10
-191.67920562
 20
-470.14374264
 10
-191.67920562
 20
-460.14374264
 10
-149.04634173
 20
-460.14374264
 10
-146.67920562
 20
-456.04374264
 10
-149.04634173
 20
-451.94374264
 10
-191.67920562
 20
-451.94374264
 10
-191.67920562
 20
-441.94374264
  0
LWPOLYLINE
  5
308
100
AcDbEntity
  8
MST_1_1
 62
     7
  6
CONTINUOUS
100
AcDbPolyline
 90
        7
 70
     0
 43
0.0
 10
-171.67920562
 20
-540.14374264
 10
-171.67920562
 20
-530.14374264
 10
-129.04634173
 20
-530.14374264
 10
-126.67920562
 20
-526.04374264
 10
-129.04634173
 20
-521.94374264
 10
-171.67920562
 20
-521.94374264
 10
-171.67920562
 20
-511.94374264
  0
LWPOLYLINE
  5
309
100
AcDbEntity
  8
MST_1_1
 62
     7
  6
CONTINUOUS
100
AcDbPolyline
 90
        7
 70
     0
 43
0.0
 10
-151.67920562
 20
-610.14374264
 10
-151.67920562
 20
-600.14374264
 10
-109.04634173
 20
-600.14374264
 10
-106.67920562
 20
-596.04374264
 10
-109.04634173
 20
-591.94374264
 10
-151.67920562
 20
-591.94374264
 10
-151.67920562
 20
-581.94374264
  0
LWPOLYLINE
  5
30A
100
AcDbEntity
  8
MST_1_1
 62
     7
  6
CONTINUOUS
100
AcDbPolyline
 90
        7
 70
     0
 43
0.0
 10
-131.67920562
 20
-680.14374264
 10
-131.67920562
 20
-670.14374264
 10
-89.04634173
 20
-670.14374264
 10
-86.67920562
 20
-666.04374264
 10
-89.04634173
 20
-661.94374264
 10
-131.67920562
 20
-661.94374264
 10
-131.67920562
 20
-651.94374264
  0
LWPOLYLINE
  5
30B
100
AcDbEntity
  8
MST_1_1
 62
     7
  6
CONTINUOUS
100
AcDbPolyline
 90
        7
 70
     0
 43
0.0
 10
-111.67920562
 20
-750.14374264
 10
-111.67920562
 20
-740.14374264
 10
-69.04634173
 20
-740.14374264
 10
-66.67920562
 20
-736.04374264
 10
-69.04634173
 20
-731.94374264
 10
-111.67920562
 20
-731.94374264
 10
-111.67920562
 20
-721.94374264
  0
LWPOLYLINE
  5
30C
100
AcDbEntity
  8
MST_1_1
 62
     7
  6
CONTINUOUS
100
AcDbPolyline
 90
        7
 70
     0
 43
0.0
 10
-91.67920562
 20
-820.14374264
 10
-91.67920562
 20
-810.14374264
 10
-49.04634173
 20
-810.14374264
 10
-46.67920562
 20
-806.04374264
 10
-49.04634173
 20
-801.94374264
 10
-91.67920562
 20
-801.94374264
 10
-91.67920562
 20
-791.94374264
  0
LWPOLYLINE
  5
30D
100
AcDbEntity
  8
MST_1_1
 62
     7
  6
CONTINUOUS
100
AcDbPolyline
 90
        7
 70
     0
 43
0.0
 10
-71.67920562
 20
-890.14374264
 10
-71.67920562
 20
-880.14374264
 10
-29.04634173
 20
-880.14374264
 10
-26.67920562
 20
-876.04374264
 10
-29.04634173
 20
-871.94374264
 10
-71.67920562
 20
-871.94374264
 10
-71.67920562
 20
-861.94374264
  0
TEXT
  5
30E
100
AcDbEntity
  8
MST_1_1
 62
     7
100
AcDbText
 10
-211.67920562
 20
-146.04374264
 30
0.0
 40
5.0
  1
115
  7
ARIAL
 50
89.9999975
 41
0.8
 51
0.0
100
AcDbText
  0
TEXT
  5
30F
100
AcDbEntity
  8
MST_1_1
 62
     7
100
AcDbText
 10
-191.67920562
 20
-146.04374264
 30
0.0
 40
5.0
  1
135
  7
ARIAL
 50
89.9999975
 41
0.8
 51
0.0
100
AcDbText
  0
TEXT
  5
310
100
AcDbEntity
  8
MST_1_1
 62
     7
100
AcDbText
 10
-231.67920562
 20
-146.04374264
 30
0.0
 40
5.0
  1
95
  7
ARIAL
 50
89.9999975
 41
0.8
 51
0.0
100
AcDbText
  0
TEXT
  5
311
100
AcDbEntity
  8
MST_1_1
 62
     7
100
AcDbText
 10
-398.8389374
 20
-178.54374264
 30
0.0
 40
5.0
  1
PROFIX PIU 8.0x95
  7
ARIAL
 50
0.0
 41
0.8
 51
0.0
100
AcDbText
  0
TEXT
  5
312
100
AcDbEntity
  8
MST_1_1
 62
     7
100
AcDbText
 10
-171.67920562
 20
-146.04374264
 30
0.0
 40
5.0
  1
155
  7
ARIAL
 50
89.9999975
 41
0.8
 51
0.0
100
AcDbText
  0
TEXT
  5
313
100
AcDbEntity
  8
MST_1_1
 62
     7
100
AcDbText
 10
-151.67920562
 20
-146.04374264
 30
0.0
 40
5.0
  1
175
  7
ARIAL
 50
89.9999975
 41
0.8
 51
0.0
100
AcDbText
  0
TEXT
  5
314
100
AcDbEntity
  8
MST_1_1
 62
     7
100
AcDbText
 10
-131.67920562
 20
-146.04374264
 30
0.0
 40
5.0
  1
195
  7
ARIAL
 50
89.9999975
 41
0.8
 51
0.0
100
AcDbText
  0
TEXT
  5
315
100
AcDbEntity
  8
MST_1_1
 62
     7
100
AcDbText
 10
-111.67920562
 20
-146.04374264
 30
0.0
 40
5.0
  1
215
  7
ARIAL
 50
89.9999975
 41
0.8
 51
0.0
100
AcDbText
  0
TEXT
  5
316
100
AcDbEntity
  8
MST_1_1
 62
     7
100
AcDbText
 10
-91.67920562
 20
-146.04374264
 30
0.0
 40
5.0
  1
235
  7
ARIAL
 50
89.9999975
 41
0.8
 51
0.0
100
AcDbText
  0
TEXT
  5
317
100
AcDbEntity
  8
MST_1_1
 62
     7
100
AcDbText
 10
-71.67920562
 20
-146.04374264
 30
0.0
 40
5.0
  1
255
  7
ARIAL
 50
89.9999975
 41
0.8
 51
0.0
100
AcDbText
  0
TEXT
  5
318
100
AcDbEntity
  8
MST_1_1
 62
     7
100
AcDbText
 10
-51.67920562
 20
-146.04374264
 30
0.0
 40
5.0
  1
275
  7
ARIAL
 50
89.9999975
 41
0.8
 51
0.0
100
AcDbText
  0
TEXT
  5
319
100
AcDbEntity
  8
MST_1_1
 62
     7
100
AcDbText
 10
-31.67920562
 20
-146.04374264
 30
0.0
 40
5.0
  1
295
  7
ARIAL
 50
89.9999975
 41
0.8
 51
0.0
100
AcDbText
  0
TEXT
  5
31A
100
AcDbEntity
  8
MST_1_1
 62
     7
100
AcDbText
 10
-398.8389374
 20
-248.54374264
 30
0.0
 40
5.0
  1
PROFIX PIU 8.0x115
  7
ARIAL
 50
0.0
 41
0.8
 51
0.0
100
AcDbText
  0
TEXT
  5
31B
100
AcDbEntity
  8
MST_1_1
 62
     7
100
AcDbText
 10
-398.8389374
 20
-318.54374264
 30
0.0
 40
5.0
  1
PROFIX PIU 8.0x135
  7
ARIAL
 50
0.0
 41
0.8
 51
0.0
100
AcDbText
  0
TEXT
  5
31C
100
AcDbEntity
  8
MST_1_1
 62
     7
100
AcDbText
 10
-398.8389374
 20
-388.54374264
 30
0.0
 40
5.0
  1
PROFIX PIU 8.0x155
  7
ARIAL
 50
0.0
 41
0.8
 51
0.0
100
AcDbText
  0
TEXT
  5
31D
100
AcDbEntity
  8
MST_1_1
 62
     7
100
AcDbText
 10
-398.8389374
 20
-458.54374264
 30
0.0
 40
5.0
  1
PROFIX PIU 8.0x175
  7
ARIAL
 50
0.0
 41
0.8
 51
0.0
100
AcDbText
  0
TEXT
  5
31E
100
AcDbEntity
  8
MST_1_1
 62
     7
100
AcDbText
 10
-398.8389374
 20
-528.54374264
 30
0.0
 40
5.0
  1
PROFIX PIU 8.0x195
  7
ARIAL
 50
0.0
 41
0.8
 51
0.0
100
AcDbText
  0
TEXT
  5
31F
100
AcDbEntity
  8
MST_1_1
 62
     7
100
AcDbText
 10
-398.8389374
 20
-598.54374264
 30
0.0
 40
5.0
  1
PROFIX PIU 8.0x215
  7
ARIAL
 50
0.0
 41
0.8
 51
0.0
100
AcDbText
  0
TEXT
  5
320
100
AcDbEntity
  8
MST_1_1
 62
     7
100
AcDbText
 10
-398.8389374
 20
-668.54374264
 30
0.0
 40
5.0
  1
PROFIX PIU 8.0x235
  7
ARIAL
 50
0.0
 41
0.8
 51
0.0
100
AcDbText
  0
TEXT
  5
321
100
AcDbEntity
  8
MST_1_1
 62
     7
100
AcDbText
 10
-398.8389374
 20
-738.54374264
 30
0.0
 40
5.0
  1
PROFIX PIU 8.0x255
  7
ARIAL
 50
0.0
 41
0.8
 51
0.0
100
AcDbText
  0
TEXT
  5
322
100
AcDbEntity
  8
MST_1_1
 62
     7
100
AcDbText
 10
-398.8389374
 20
-808.54374264
 30
0.0
 40
5.0
  1
PROFIX PIU 8.0x275
  7
ARIAL
 50
0.0
 41
0.8
 51
0.0
100
AcDbText
  0
TEXT
  5
323
100
AcDbEntity
  8
MST_1_1
 62
     7
100
AcDbText
 10
-398.8389374
 20
-878.54374264
 30
0.0
 40
5.0
  1
PROFIX PIU 8.0x295
  7
ARIAL
 50
0.0
 41
0.8
 51
0.0
100
AcDbText
  0
ENDSEC
  0
SECTION
  2
OBJECTS
  0
DICTIONARY
  5
1
100
AcDbDictionary
  3
ACAD_GROUP
350
2
  3
ACAD_MLINESTYLE
350
3
  0
DICTIONARY
  5
2
102
{CDWK_REACTORS
330
1
102
}
100
AcDbDictionary
  0
DICTIONARY
  5
3
102
{CDWK_REACTORS
330
1
102
}
100
AcDbDictionary
  3
STANDARD
350
4
  0
MLINESTYLE
  5
4
102
{CDWK_REACTORS
330
3
102
}
100
AcDbMlineStyle
  2
STANDARD
 70
     0
  3

 62
     0
 51
90.0
 52
90.0
 71
     2
 49
0.5
 62
   256
  6
BYLAYER
 49
-0.5
 62
   256
  6
BYLAYER
  0
ENDSEC
  0
EOF
