  0
SECTION
  2
HEADER
  9
$ACADVER
  1
AC1012
  9
$DWGCODEPAGE
  3
ANSI_1252
  9
$INSBASE
 10
0.0
 20
0.0
 30
0.0
  9
$EXTMIN
 10
-141.73450113
 20
-128.73429183
  9
$EXTMAX
 10
299.70010133
 20
192.16097269
  9
$LIMMIN
 10
-141.73450113
 20
-128.73429183
  9
$LIMMAX
 10
299.70010133
 20
192.16097269
  9
$ORTHOMODE
 70
     0
  9
$REGENMODE
 70
     1
  9
$FILLMODE
 70
     1
  9
$QTEXTMODE
 70
     0
  9
$MIRRTEXT
 70
     1
  9
$DRAGMODE
 70
     2
  9
$LTSCALE
 40
1.0
  9
$OSMODE
 70
     0
  9
$ATTMODE
 70
     1
  9
$TEXTSIZE
 40
3.5
  9
$TRACEWID
 40
1.0
  9
$TEXTSTYLE
  7
STANDARD
  9
$CLAYER
  8
0
  9
$CELTYPE
  6
BYLAYER
  9
$CECOLOR
 62
   256
  9
$DIMSCALE
 40
1.0
  9
$DIMASZ
 40
2.0
  9
$DIMEXO
 40
5.0
  9
$DIMDLI
 40
10.0
  9
$DIMRND
 40
0.0
  9
$DIMDLE
 40
2.0
  9
$DIMEXE
 40
2.0
  9
$DIMTP
 40
0.0
  9
$DIMTM
 40
0.0
  9
$DIMTXT
 40
2.5
  9
$DIMCEN
 40
1.5
  9
$DIMTSZ
 40
0.0
  9
$DIMTOL
 70
     0
  9
$DIMLIM
 70
     0
  9
$DIMTIH
 70
     1
  9
$DIMTOH
 70
     0
  9
$DIMSE1
 70
     0
  9
$DIMSE2
 70
     0
  9
$DIMTAD
 70
     1
  9
$DIMZIN
 70
     8
  9
$DIMBLK
  1

  9
$DIMASO
 70
     1
  9
$DIMSHO
 70
     1
  9
$DIMPOST
  1

  9
$DIMAPOST
  1

  9
$DIMALT
 70
     0
  9
$DIMALTD
 70
     2
  9
$DIMALTF
 40
25.4
  9
$DIMLFAC
 40
1.0
  9
$DIMTOFL
 70
     0
  9
$DIMTVP
 40
0.0
  9
$DIMTIX
 70
     0
  9
$DIMSOXD
 70
     0
  9
$DIMSAH
 70
     0
  9
$DIMBLK1
  1

  9
$DIMBLK2
  1

  9
$DIMSTYLE
  2
*UNNAMED
  9
$DIMCLRD
 70
     9
  9
$DIMCLRE
 70
     9
  9
$DIMCLRT
 70
     7
  9
$DIMTFAC
 40
1.0
  9
$DIMGAP
 40
0.09
  9
$DIMUNIT
 70
     2
  9
$LUNITS
 70
     2
  9
$LUPREC
 70
     6
  9
$AXISMODE
 70
     0
  9
$AXISUNIT
 10
0.0
 20
0.0
  9
$SKETCHINC
 40
0.1
  9
$FILLETRAD
 40
0.0
  9
$AUNITS
 70
     0
  9
$AUPREC
 70
     0
  9
$MENU
  1
ACAD
  9
$ELEVATION
 40
0.0
  9
$PELEVATION
 40
0.0
  9
$THICKNESS
 40
0.0
  9
$LIMCHECK
 70
     0
  9
$BLIPMODE
 70
     1
  9
$CHAMFERA
 40
0.0
  9
$CHAMFERB
 40
0.0
  9
$SKPOLY
 70
     1
  9
$TDCREATE
 40
2456119.0000000000
  9
$TDUPDATE
 40
2456119.0000000000
  9
$TDINDWG
 40
0.0
  9
$TDUSRTIMER
 40
0.0
  9
$USRTIMER
 70
     1
  9
$ANGBASE
 50
0.0
  9
$ANGDIR
 70
     0
  9
$PDMODE
 70
     0
  9
$PDSIZE
 40
0.0
  9
$PLINEWID
 40
0.0
  9
$COORDS
 70
     2
  9
$SPLFRAME
 70
     0
  9
$SPLINETYPE
 70
     6
  9
$SPLINESEGS
 70
     8
  9
$ATTDIA
 70
     1
  9
$ATTREQ
 70
     1
  9
$HANDLING
 70
     1
  9
$HANDSEED
  5
     197
  9
$SURFTAB1
 70
     6
  9
$SURFTAB2
 70
     6
  9
$SURFTYPE
 70
     6
  9
$SURFU
 70
     6
  9
$SURFV
 70
     6
  9
$UCSNAME
  2

  9
$UCSORG
 10
0.0
 20
0.0
 30
0.0
  9
$UCSXDIR
 10
1.0
 20
0.0
 30
0.0
  9
$UCSYDIR
 10
0.0
 20
1.0
 30
0.0
  9
$PUCSNAME
  2

  9
$PUCSORG
 10
0.0
 20
0.0
 30
0.0
  9
$PUCSXDIR
 10
1.0
 20
0.0
 30
0.0
  9
$PUCSYDIR
 10
0.0
 20
1.0
 30
0.0
  9
$USERI1
 70
     0
  9
$USERI2
 70
     0
  9
$USERI3
 70
     0
  9
$USERI4
 70
     0
  9
$USERI5
 70
     0
  9
$USERR1
 40
0.0
  9
$USERR2
 40
0.0
  9
$USERR3
 40
0.0
  9
$USERR4
 40
0.0
  9
$USERR5
 40
0.0
  9
$WORLDVIEW
 70
     1
  9
$SHADEDGE
 70
     3
  9
$SHADEDIF
 70
    70
  9
$TILEMODE
 70
     1
  9
$MAXACTVP
 70
    16
  9
$PINSBASE
 10
0.0
 20
0.0
 30
0.0
  9
$PLIMCHECK
 70
     0
  9
$PEXTMIN
 10
1.0000000000000E+20
 20
1.0000000000000E+20
 30
1.0000000000000E+20
  9
$PEXTMAX
 10
-1.0000000000000E+20
 20
-1.0000000000000E+20
 30
-1.0000000000000E+20
  9
$PLIMMIN
 10
0.0
 20
0.0
  9
$UNITMODE
 70
     0
  9
$VISRETAIN
 70
     0
  9
$MEASUREMENT
 70
     1
  0
ENDSEC
  0
SECTION
  2
TABLES
  0
TABLE
  2
VPORT
  5
1B
100
AcDbSymbolTable
 70
     1
  0
ENDTAB
  0
TABLE
  2
STYLE
  5
1C
100
AcDbSymbolTable
 70
     4
  0
STYLE
  5
1D
100
AcDbSymbolTableRecord
100
AcDbTextStyleTableRecord
  2
STANDARD
 70
     0
 40
0.0
 41
1.0
 50
0.0
 71
     0
 42
3.5
  3
MONOTXT
  4

  0
STYLE
  5
1E
100
AcDbSymbolTableRecord
100
AcDbTextStyleTableRecord
  2
CADWORK1
 70
     0
 40
0.0
 41
1.0
 50
0.0
 71
     0
 42
3.5
  3
MONOTXT
  4

  0
STYLE
  5
1F
100
AcDbSymbolTableRecord
100
AcDbTextStyleTableRecord
  2
MONOTXT
 70
     0
 40
0.0
 41
1.0
 50
0.0
 71
     0
 42
3.5
  3
MONOTXT
  4

  0
STYLE
  5
20
100
AcDbSymbolTableRecord
100
AcDbTextStyleTableRecord
  2
TAHOMA
 70
     0
 40
0.0
 41
1.0
 50
0.0
 71
     0
 42
3.5
  3

  4

1001
ACAD
1000
Tahoma
1071
        0
  0
STYLE
  5
21
100
AcDbSymbolTableRecord
100
AcDbTextStyleTableRecord
  2
ARIAL
 70
     0
 40
0.0
 41
1.0
 50
0.0
 71
     0
 42
3.5
  3

  4

1001
ACAD
1000
Arial
1071
        0
  0
ENDTAB
  0
TABLE
  2
LTYPE
  5
22
100
AcDbSymbolTable
 70
    12
  0
LTYPE
  5
23
100
AcDbSymbolTableRecord
100
AcDbLinetypeTableRecord
  2
BYBLOCK
 70
    64
  3

 72
    65
 73
     0
 40
0.0
  0
LTYPE
  5
24
100
AcDbSymbolTableRecord
100
AcDbLinetypeTableRecord
  2
BYLAYER
 70
    64
  3

 72
    65
 73
     0
 40
0.0
  0
LTYPE
  5
25
100
AcDbSymbolTableRecord
100
AcDbLinetypeTableRecord
  2
CONTINUOUS
 70
    64
  3
Solid line
 72
    65
 73
     0
 40
0.0
  0
LTYPE
  5
26
100
AcDbSymbolTableRecord
100
AcDbLinetypeTableRecord
  2
DOT
 70
    64
  3
. . . . . . . . . . . . . . . . . . . . . . . .
 72
    65
 73
     2
 40
2.5
 49
0.0
 74
     0
 49
-2.5
 74
     0
  0
LTYPE
  5
27
100
AcDbSymbolTableRecord
100
AcDbLinetypeTableRecord
  2
DASHED
 70
    64
  3
__ __ __ __ __ __ __ __ __ __ __ __ __ __ __ __
 72
    65
 73
     2
 40
7.5
 49
5.0
 74
     0
 49
-2.5
 74
     0
  0
LTYPE
  5
28
100
AcDbSymbolTableRecord
100
AcDbLinetypeTableRecord
  2
BORDER
 70
    64
  3
 __ __ . __ __ . __ __ . __ __ . __ __ . __ __ .
 72
    65
 73
     6
 40
17.0
 49
5.0
 74
     0
 49
-2.0
 74
     0
 49
5.0
 74
     0
 49
-2.0
 74
     0
 49
1.0
 74
     0
 49
-2.0
 74
     0
  0
LTYPE
  5
29
100
AcDbSymbolTableRecord
100
AcDbLinetypeTableRecord
  2
DAL
 70
    64
  3
Solid line (for MAPS)
 72
    65
 73
     0
 40
0.0
  0
LTYPE
  5
2A
100
AcDbSymbolTableRecord
100
AcDbLinetypeTableRecord
  2
MUR
 70
    64
  3
Solid line (for MAPS)
 72
    65
 73
     0
 40
0.0
  0
LTYPE
  5
2B
100
AcDbSymbolTableRecord
100
AcDbLinetypeTableRecord
  2
SOM
 70
    64
  3
Solid line (for MAPS)
 72
    65
 73
     0
 40
0.0
  0
LTYPE
  5
2C
100
AcDbSymbolTableRecord
100
AcDbLinetypeTableRecord
  2
COL
 70
    64
  3
Solid line (for MAPS)
 72
    65
 73
     0
 40
0.0
  0
LTYPE
  5
2D
100
AcDbSymbolTableRecord
100
AcDbLinetypeTableRecord
  2
LGN
 70
    64
  3
Solid line (for MAPS)
 72
    65
 73
     0
 40
0.0
  0
LTYPE
  5
2E
100
AcDbSymbolTableRecord
100
AcDbLinetypeTableRecord
  2
PNT
 70
    64
  3
Solid line (for MAPS)
 72
    65
 73
     0
 40
0.0
  0
ENDTAB
  0
TABLE
  2
LAYER
  5
2F
100
AcDbSymbolTable
 70
     1
  0
LAYER
  5
30
100
AcDbSymbolTableRecord
100
AcDbLayerTableRecord
  2
0
 70
     0
 62
     1
  6
CONTINUOUS
  0
LAYER
  5
31
100
AcDbSymbolTableRecord
100
AcDbLayerTableRecord
  2
MST_1_1
 70
     0
 62
     7
  6
CONTINUOUS
  0
ENDTAB
  0
TABLE
  2
VIEW
  5
32
100
AcDbSymbolTable
 70
     0
  0
ENDTAB
  0
TABLE
  2
UCS
  5
33
100
AcDbSymbolTable
 70
     0
  0
ENDTAB
  0
TABLE
  2
APPID
  5
34
100
AcDbSymbolTable
 70
     1
  0
APPID
  5
35
100
AcDbSymbolTableRecord
100
AcDbRegAppTableRecord
  2
ACAD
 70
     0
  0
ENDTAB
  0
TABLE
  2
DIMSTYLE
  5
36
100
AcDbSymbolTable
 70
     0
  0
ENDTAB
  0
TABLE
  2
BLOCK_RECORD
  5
37
100
AcDbSymbolTable
 70
     0
  0
BLOCK_RECORD
  5
38
100
AcDbSymbolTableRecord
100
AcDbBlockTableRecord
  2
*MODEL_SPACE
  0
BLOCK_RECORD
  5
39
100
AcDbSymbolTableRecord
100
AcDbBlockTableRecord
  2
*PAPER_SPACE
  0
BLOCK_RECORD
  5
3A
100
AcDbSymbolTableRecord
100
AcDbBlockTableRecord
  2
CDWK_EXTR_0
  0
BLOCK_RECORD
  5
3B
100
AcDbSymbolTableRecord
100
AcDbBlockTableRecord
  2
CDWK_EXTR_1D
  0
BLOCK_RECORD
  5
3C
100
AcDbSymbolTableRecord
100
AcDbBlockTableRecord
  2
CDWK_EXTR_1G
  0
BLOCK_RECORD
  5
3D
100
AcDbSymbolTableRecord
100
AcDbBlockTableRecord
  2
CDWK_EXTR_2
  0
BLOCK_RECORD
  5
3E
100
AcDbSymbolTableRecord
100
AcDbBlockTableRecord
  2
CDWK_EXTR_3
  0
BLOCK_RECORD
  5
3F
100
AcDbSymbolTableRecord
100
AcDbBlockTableRecord
  2
CDWK_EXTR_4
  0
BLOCK_RECORD
  5
40
100
AcDbSymbolTableRecord
100
AcDbBlockTableRecord
  2
CDWK_PTTYP0
  0
ENDTAB
  0
ENDSEC
  0
SECTION
  2
BLOCKS
  0
BLOCK
  5
41
100
AcDbEntity
  8
0
100
AcDbBlockBegin
  2
*MODEL_SPACE
 70
     0
 10
0.0
 20
0.0
 30
0.0
  3
*MODEL_SPACE
  1

  0
ENDBLK
  5
42
100
AcDbEntity
100
AcDbBlockEnd
  0
BLOCK
  5
43
100
AcDbEntity
  8
0
100
AcDbBlockBegin
  2
*PAPER_SPACE
 70
     0
 10
0.0
 20
0.0
 30
0.0
  3
*PAPER_SPACE
  1

  0
ENDBLK
  5
44
100
AcDbEntity
100
AcDbBlockEnd
  0
BLOCK
  5
45
100
AcDbEntity
  8
0
100
AcDbBlockBegin
  2
CDWK_EXTR_0
 70
     0
 10
0.0
 20
0.0
 30
0.0
  3
CDWK_EXTR_0
  1

  4
Cadwork line-extremity
  0
LINE
  5
46
100
AcDbEntity
  8
0
 62
     0
100
AcDbLine
 10
0.0
 20
0.0
 30
0.0
 11
2.0
 21
0.5
 31
0.0
  0
LINE
  5
47
100
AcDbEntity
  8
0
 62
     0
100
AcDbLine
 10
0.0
 20
0.0
 30
0.0
 11
2.0
 21
-0.5
 31
0.0
  0
LINE
  5
48
100
AcDbEntity
  8
0
 62
     0
100
AcDbLine
 10
2.0
 20
0.5
 30
0.0
 11
2.0
 21
-0.5
 31
0.0
  0
ENDBLK
  5
49
100
AcDbEntity
100
AcDbBlockEnd
  0
BLOCK
  5
4A
100
AcDbEntity
  8
0
100
AcDbBlockBegin
  2
CDWK_EXTR_1D
 70
     0
 10
0.0
 20
0.0
 30
0.0
  3
CDWK_EXTR_1D
  1

  4
Cadwork line-extremity
  0
LINE
  5
4B
100
AcDbEntity
  8
0
 62
     0
100
AcDbLine
 10
0.0
 20
0.0
 30
0.0
 11
0.0
 21
1.0
 31
0.0
  0
LINE
  5
4C
100
AcDbEntity
  8
0
 62
     0
100
AcDbLine
 10
0.0
 20
1.0
 30
0.0
 11
0.5
 21
1.5
 31
0.0
  0
LINE
  5
4D
100
AcDbEntity
  8
0
 62
     0
100
AcDbLine
 10
0.5
 20
1.5
 30
0.0
 11
1.5
 21
1.5
 31
0.0
  0
ENDBLK
  5
4E
100
AcDbEntity
100
AcDbBlockEnd
  0
BLOCK
  5
4F
100
AcDbEntity
  8
0
100
AcDbBlockBegin
  2
CDWK_EXTR_1G
 70
     0
 10
0.0
 20
0.0
 30
0.0
  3
CDWK_EXTR_1G
  1

  4
Cadwork line-extremity
  0
LINE
  5
50
100
AcDbEntity
  8
0
 62
     0
100
AcDbLine
 10
0.0
 20
0.0
 30
0.0
 11
0.0
 21
-1.0
 31
0.0
  0
LINE
  5
51
100
AcDbEntity
  8
0
 62
     0
100
AcDbLine
 10
0.0
 20
-1.0
 30
0.0
 11
0.5
 21
-1.5
 31
0.0
  0
LINE
  5
52
100
AcDbEntity
  8
0
 62
     0
100
AcDbLine
 10
0.5
 20
-1.5
 30
0.0
 11
1.5
 21
-1.5
 31
0.0
  0
ENDBLK
  5
53
100
AcDbEntity
100
AcDbBlockEnd
  0
BLOCK
  5
54
100
AcDbEntity
  8
0
100
AcDbBlockBegin
  2
CDWK_EXTR_2
 70
     0
 10
0.0
 20
0.0
 30
0.0
  3
CDWK_EXTR_2
  1

  4
Cadwork line-extremity
  0
SOLID
  5
55
100
AcDbEntity
  8
0
 62
     0
100
AcDbTrace
 10
0.0
 20
0.0
 11
2.0
 21
0.5
 12
2.0
 22
-0.5
 13
2.0
 23
-0.5
  0
ENDBLK
  5
56
100
AcDbEntity
100
AcDbBlockEnd
  0
BLOCK
  5
57
100
AcDbEntity
  8
0
100
AcDbBlockBegin
  2
CDWK_EXTR_3
 70
     0
 10
0.0
 20
0.0
 30
0.0
  3
CDWK_EXTR_3
  1

  4
Cadwork line-extremity
  0
SOLID
  5
58
100
AcDbEntity
  8
0
 62
     0
100
AcDbTrace
 10
0.0
 20
0.0
 11
2.0
 21
0.5
 12
2.0
 22
-0.5
 13
2.0
 23
-0.5
  0
LINE
  5
59
100
AcDbEntity
  8
0
 62
     0
100
AcDbLine
 10
0.0
 20
1.0
 30
0.0
 11
0.0
 21
-1.0
 31
0.0
  0
ENDBLK
  5
5A
100
AcDbEntity
100
AcDbBlockEnd
  0
BLOCK
  5
5B
100
AcDbEntity
  8
0
100
AcDbBlockBegin
  2
CDWK_EXTR_4
 70
     0
 10
0.0
 20
0.0
 30
0.0
  3
CDWK_EXTR_4
  1

  4
Cadwork line-extremity
  0
POLYLINE
  5
5C
100
AcDbEntity
  8
0
 62
     0
100
AcDb2dPolyline
 70
     1
 66
     1
 10
0.0
 20
0.0
 30
0.0
 40
0.5
 41
0.5
  0
VERTEX
  5
5D
100
AcDbEntity
  8
0
100
AcDbVertex
100
AcDb2dVertex
 10
-0.25
 20
0.0
 30
0.0
 42
1.0
  0
VERTEX
  5
5E
100
AcDbEntity
  8
0
100
AcDbVertex
100
AcDb2dVertex
 10
0.25
 20
0.0
 30
0.0
 42
1.0
  0
SEQEND
  5
5F
100
AcDbEntity
  0
ENDBLK
  5
60
100
AcDbEntity
100
AcDbBlockEnd
  0
BLOCK
  5
61
100
AcDbEntity
  8
0
100
AcDbBlockBegin
  2
CDWK_PTTYP0
 70
     0
 10
0.0
 20
0.0
 30
0.0
  3
CDWK_PTTYP0
  1

  4
Cadwork point
  0
POINT
  5
62
100
AcDbEntity
  8
0
 62
     0
100
AcDbPoint
 10
0.0
 20
0.0
 30
0.0
  0
ENDBLK
  5
63
100
AcDbEntity
100
AcDbBlockEnd
  0
ENDSEC
  0
SECTION
  2
ENTITIES
  0
LINE
  5
64
100
AcDbEntity
  8
MST_1_1
 62
     7
  6
DASHED
100
AcDbLine
 10
-2.06250403
 20
28.54545025
 30
0.0
 11
-2.06250403
 21
-66.45454975
 31
0.0
  0
LINE
  5
65
100
AcDbEntity
  8
MST_1_1
 62
     7
  6
DASHED
100
AcDbLine
 10
13.93749597
 20
28.54545025
 30
0.0
 11
13.93749597
 21
-66.45454975
 31
0.0
  0
LWPOLYLINE
  5
66
100
AcDbEntity
  8
MST_1_1
 62
     1
  6
BORDER
100
AcDbPolyline
 90
        3
 70
     0
 43
0.0
 10
13.93749597
 20
-51.45454975
 10
-2.06250403
 20
-51.45454975
 10
-7.06250403
 20
-51.45454975
  0
LINE
  5
67
100
AcDbEntity
  8
MST_1_1
 62
   137
  6
CONTINUOUS
100
AcDbLine
 10
-2.06250403
 20
-51.45454975
 30
0.0
 11
-2.06250403
 21
-49.00454975
 31
0.0
  0
LINE
  5
68
100
AcDbEntity
  8
MST_1_1
 62
   137
  6
CONTINUOUS
100
AcDbLine
 10
-2.06250403
 20
-49.00454975
 30
0.0
 11
-1.98750405
 21
-49.00454975
 31
0.0
  0
LWPOLYLINE
  5
69
100
AcDbEntity
  8
MST_1_1
 62
   137
  6
CONTINUOUS
100
AcDbPolyline
 90
        6
 70
     0
 43
0.0
 38
2500.0
 10
1.65066816
 20
-50.20454966
 10
1.53987692
 20
-50.68312118
 10
2.47658275
 20
-52.70454975
 10
2.58737403
 20
-52.22597832
 10
1.65066816
 20
-50.20454966
 10
2.47658275
 20
-52.70454975
  0
LINE
  5
6A
100
AcDbEntity
  8
MST_1_1
 62
   137
  6
CONTINUOUS
100
AcDbLine
 10
-0.16250403
 20
-50.68312118
 30
2500.0
 11
1.53987692
 21
-50.68312118
 31
2500.0
  0
LWPOLYLINE
  5
6B
100
AcDbEntity
  8
MST_1_1
 62
   137
  6
CONTINUOUS
100
AcDbPolyline
 90
        4
 70
     0
 43
0.0
 38
2500.0
 10
0.82624704
 20
-52.22597832
 10
1.04801132
 20
-52.70454975
 10
1.1588026
 20
-52.22597832
 10
0.99262366
 20
-51.86736108
  0
LINE
  5
6C
100
AcDbEntity
  8
MST_1_1
 62
   137
  6
CONTINUOUS
100
AcDbLine
 10
0.86343007
 20
-52.145832
 30
2500.0
 11
1.04801132
 21
-52.70454975
 31
2500.0
  0
LINE
  5
6D
100
AcDbEntity
  8
MST_1_1
 62
   137
  6
CONTINUOUS
100
AcDbLine
 10
0.82624704
 20
-52.22597832
 30
2500.0
 11
0.99262366
 21
-51.86736108
 31
2500.0
  0
LINE
  5
6E
100
AcDbEntity
  8
MST_1_1
 62
   137
  6
CONTINUOUS
100
AcDbLine
 10
2.25481847
 20
-52.22597832
 30
2500.0
 11
1.1588026
 21
-52.22597832
 31
2500.0
  0
LINE
  5
6F
100
AcDbEntity
  8
MST_1_1
 62
   137
  6
CONTINUOUS
100
AcDbLine
 10
0.82624704
 20
-52.22597832
 30
2500.0
 11
-0.16250403
 21
-52.22597832
 31
2500.0
  0
LINE
  5
70
100
AcDbEntity
  8
MST_1_1
 62
   137
  6
CONTINUOUS
100
AcDbLine
 10
-1.98750405
 20
-49.00454975
 30
0.0
 11
-0.16250403
 21
-50.68312118
 31
0.0
  0
LINE
  5
71
100
AcDbEntity
  8
MST_1_1
 62
   137
  6
CONTINUOUS
100
AcDbLine
 10
-0.16250403
 20
-52.22597832
 30
0.0
 11
-1.98750405
 21
-53.90454975
 31
0.0
  0
LINE
  5
72
100
AcDbEntity
  8
MST_1_1
 62
   137
  6
CONTINUOUS
100
AcDbLine
 10
-1.98750405
 20
-53.90454975
 30
0.0
 11
-2.06250403
 21
-53.90454975
 31
0.0
  0
LINE
  5
73
100
AcDbEntity
  8
MST_1_1
 62
   137
  6
CONTINUOUS
100
AcDbLine
 10
-2.06250403
 20
-53.90454975
 30
0.0
 11
-2.06250403
 21
-51.45454975
 31
0.0
  0
LWPOLYLINE
  5
74
100
AcDbEntity
  8
MST_1_1
 62
   137
  6
CONTINUOUS
100
AcDbPolyline
 90
        6
 70
     0
 43
0.0
 38
2500.0
 10
8.76257292
 20
-50.20454966
 10
8.65178168
 20
-50.68312118
 10
9.58848751
 20
-52.70454975
 10
9.68239838
 20
-52.18955008
 10
8.76257292
 20
-50.20454966
 10
9.58848751
 20
-52.70454975
  0
LWPOLYLINE
  5
75
100
AcDbEntity
  8
MST_1_1
 62
   137
  6
CONTINUOUS
100
AcDbPolyline
 90
        6
 70
     0
 43
0.0
 38
2500.0
 10
10.17009401
 20
-50.3671849
 10
10.08035311
 20
-50.75482782
 10
10.85390128
 20
-52.42415913
 10
10.94364218
 20
-52.03651621
 10
10.17009401
 20
-50.3671849
 10
10.83908483
 20
-52.39218496
  0
LINE
  5
76
100
AcDbEntity
  8
MST_1_1
 62
   137
  6
CONTINUOUS
100
AcDbLine
 10
8.30165803
 20
-52.22597832
 30
2500.0
 11
8.98580114
 21
-52.2228192
 31
2500.0
  0
LINE
  5
77
100
AcDbEntity
  8
MST_1_1
 62
   137
  6
CONTINUOUS
100
AcDbLine
 10
8.65178168
 20
-50.68312118
 30
2500.0
 11
7.58671648
 21
-50.68312118
 31
2500.0
  0
ARC
  5
78
100
AcDbEntity
  8
MST_1_1
 62
   137
  6
CONTINUOUS
100
AcDbCircle
 10
8.69133027
 20
-64.16138525
 30
2500.0
 40
13.47832209
100
AcDbArc
 50
84.08482032
 51
88.74811714
  0
LWPOLYLINE
  5
79
100
AcDbEntity
  8
MST_1_1
 62
   137
  6
CONTINUOUS
100
AcDbPolyline
 90
        3
 70
     0
 43
0.0
 38
2500.0
 10
13.93749597
 20
-51.45454975
 10
11.28226768
 20
-50.93443512
 42
0.01723995
 10
10.36479592
 20
-50.78735522
  0
ARC
  5
7A
100
AcDbEntity
  8
MST_1_1
 62
   137
  6
CONTINUOUS
100
AcDbCircle
 10
8.69133027
 20
-38.74771425
 30
2500.0
 40
13.47832209
100
AcDbArc
 50
271.25189287
 51
272.83975061
  0
LWPOLYLINE
  5
7B
100
AcDbEntity
  8
MST_1_1
 62
   137
  6
CONTINUOUS
100
AcDbPolyline
 90
        3
 70
     0
 43
0.0
 38
2500.0
 10
13.93749597
 20
-51.45454975
 10
11.28226768
 20
-51.97466438
 42
-0.0063851
 10
10.94364218
 20
-52.03651621
  0
ARC
  5
7C
100
AcDbEntity
  8
MST_1_1
 62
   137
  6
CONTINUOUS
100
AcDbCircle
 10
8.69133027
 20
-38.74771425
 30
2500.0
 40
13.47832209
100
AcDbArc
 50
274.21680449
 51
278.53995004
  0
LWPOLYLINE
  5
7D
100
AcDbEntity
  8
MST_1_1
 62
   137
  6
CONTINUOUS
100
AcDbPolyline
 90
        6
 70
     0
 43
0.0
 38
2500.0
 10
11.56815354
 20
-50.72298906
 10
11.50892454
 20
-50.97883339
 10
12.01946633
 20
-52.08059205
 10
12.07610807
 20
-51.81916438
 10
11.56815354
 20
-50.72298906
 10
12.00968748
 20
-52.0594891
  0
LINE
  5
7E
100
AcDbEntity
  8
MST_1_1
 62
   137
  6
CONTINUOUS
100
AcDbLine
 10
3.6833899
 20
-52.22597832
 30
2500.0
 11
2.58737403
 21
-52.22597832
 31
2500.0
  0
LWPOLYLINE
  5
7F
100
AcDbEntity
  8
MST_1_1
 62
   137
  6
CONTINUOUS
100
AcDbPolyline
 90
        6
 70
     0
 43
0.0
 38
2500.0
 10
3.07923916
 20
-50.20454966
 10
2.96844792
 20
-50.68312118
 10
3.90515375
 20
-52.70454975
 10
4.01594503
 20
-52.22597832
 10
3.07923916
 20
-50.20454966
 10
3.90515375
 20
-52.70454975
  0
LWPOLYLINE
  5
80
100
AcDbEntity
  8
MST_1_1
 62
   137
  6
CONTINUOUS
100
AcDbPolyline
 90
        6
 70
     0
 43
0.0
 38
2500.0
 10
4.50781016
 20
-50.20454966
 10
4.39701892
 20
-50.68312118
 10
5.33372475
 20
-52.70454975
 10
5.44451603
 20
-52.22597832
 10
4.50781016
 20
-50.20454966
 10
5.33372475
 20
-52.70454975
  0
LWPOLYLINE
  5
81
100
AcDbEntity
  8
MST_1_1
 62
   137
  6
CONTINUOUS
100
AcDbPolyline
 90
        6
 70
     0
 43
0.0
 38
2500.0
 10
5.93638116
 20
-50.20454966
 10
5.82558992
 20
-50.68312118
 10
6.76229575
 20
-52.70454975
 10
6.87308703
 20
-52.22597832
 10
5.93638116
 20
-50.20454966
 10
6.76229575
 20
-52.70454975
  0
LWPOLYLINE
  5
82
100
AcDbEntity
  8
MST_1_1
 62
   137
  6
CONTINUOUS
100
AcDbPolyline
 90
        6
 70
     0
 43
0.0
 38
2500.0
 10
7.36495216
 20
-50.20454966
 10
7.25416092
 20
-50.68312118
 10
8.19086675
 20
-52.70454975
 10
8.30165803
 20
-52.22597832
 10
7.36495216
 20
-50.20454966
 10
8.19086675
 20
-52.70454975
  0
LINE
  5
83
100
AcDbEntity
  8
MST_1_1
 62
   137
  6
CONTINUOUS
100
AcDbLine
 10
6.87308703
 20
-52.22597832
 30
2500.0
 11
7.96910247
 21
-52.22597832
 31
2500.0
  0
LINE
  5
84
100
AcDbEntity
  8
MST_1_1
 62
   137
  6
CONTINUOUS
100
AcDbLine
 10
5.44451603
 20
-52.22597832
 30
2500.0
 11
6.54053147
 21
-52.22597832
 31
2500.0
  0
LINE
  5
85
100
AcDbEntity
  8
MST_1_1
 62
   137
  6
CONTINUOUS
100
AcDbLine
 10
4.01594503
 20
-52.22597832
 30
2500.0
 11
5.11196047
 21
-52.22597832
 31
2500.0
  0
LINE
  5
86
100
AcDbEntity
  8
MST_1_1
 62
   137
  6
CONTINUOUS
100
AcDbLine
 10
2.96844792
 20
-50.68312118
 30
2500.0
 11
1.87243248
 21
-50.68312118
 31
2500.0
  0
LINE
  5
87
100
AcDbEntity
  8
MST_1_1
 62
   137
  6
CONTINUOUS
100
AcDbLine
 10
4.39701892
 20
-50.68312118
 30
2500.0
 11
3.30100348
 21
-50.68312118
 31
2500.0
  0
LINE
  5
88
100
AcDbEntity
  8
MST_1_1
 62
   137
  6
CONTINUOUS
100
AcDbLine
 10
7.25416092
 20
-50.68312118
 30
2500.0
 11
6.15814548
 21
-50.68312118
 31
2500.0
  0
LINE
  5
89
100
AcDbEntity
  8
MST_1_1
 62
   137
  6
CONTINUOUS
100
AcDbLine
 10
5.82558992
 20
-50.68312118
 30
2500.0
 11
4.72957448
 21
-50.68312118
 31
2500.0
  0
CIRCLE
  5
8A
100
AcDbEntity
  8
MST_1_1
 62
   137
  6
CONTINUOUS
100
AcDbCircle
 10
-85.18306815
 20
-51.45454975
 30
0.0
 40
1.32599973
  0
CIRCLE
  5
8B
100
AcDbEntity
  8
MST_1_1
 62
   137
  6
CONTINUOUS
100
AcDbCircle
 10
-85.18306815
 20
-51.45454975
 30
0.0
 40
0.74234607
  0
CIRCLE
  5
8C
100
AcDbEntity
  8
MST_1_1
 62
   137
  6
CONTINUOUS
100
AcDbCircle
 10
-85.18306815
 20
-51.45454975
 30
0.0
 40
1.32599973
  0
CIRCLE
  5
8D
100
AcDbEntity
  8
MST_1_1
 62
   137
  6
CONTINUOUS
100
AcDbCircle
 10
-85.18306815
 20
-51.45454975
 30
0.0
 40
0.74234607
  0
CIRCLE
  5
8E
100
AcDbEntity
  8
MST_1_1
 62
   137
  6
CONTINUOUS
100
AcDbCircle
 10
-85.18306815
 20
-51.45454975
 30
0.0
 40
1.32599973
  0
CIRCLE
  5
8F
100
AcDbEntity
  8
MST_1_1
 62
   137
  6
CONTINUOUS
100
AcDbCircle
 10
-85.18306815
 20
-51.45454975
 30
0.0
 40
0.74234607
  0
CIRCLE
  5
90
100
AcDbEntity
  8
MST_1_1
 62
   137
  6
CONTINUOUS
100
AcDbCircle
 10
-85.18306815
 20
-51.45454975
 30
0.0
 40
1.11599973
  0
CIRCLE
  5
91
100
AcDbEntity
  8
MST_1_1
 62
   137
  6
CONTINUOUS
100
AcDbCircle
 10
-85.18306815
 20
-51.45454975
 30
0.0
 40
1.39599973
  0
CIRCLE
  5
92
100
AcDbEntity
  8
MST_1_1
 62
   137
  6
CONTINUOUS
100
AcDbCircle
 10
-85.18306815
 20
-51.45454975
 30
0.0
 40
0.7875
  0
CIRCLE
  5
93
100
AcDbEntity
  8
MST_1_1
 62
   137
  6
CONTINUOUS
100
AcDbCircle
 10
-85.18306815
 20
-51.45454975
 30
0.0
 40
2.45
  0
ARC
  5
94
100
AcDbEntity
  8
MST_1_1
 62
   137
  6
CONTINUOUS
100
AcDbCircle
 10
-86.14346814
 20
-51.45454975
 30
0.0
 40
0.2121
100
AcDbArc
 50
104.00039951
 51
255.99961051
  0
ARC
  5
95
100
AcDbEntity
  8
MST_1_1
 62
   137
  6
CONTINUOUS
100
AcDbCircle
 10
-86.30497044
 20
-52.10228035
 30
0.0
 40
0.45546118
100
AcDbArc
 50
344.00042282
 51
75.99958535
  0
ARC
  5
96
100
AcDbEntity
  8
MST_1_1
 62
   137
  6
CONTINUOUS
100
AcDbCircle
 10
-85.66326813
 20
-52.28628054
 30
0.0
 40
0.21209999
100
AcDbArc
 50
164.00040911
 51
315.99959504
  0
ARC
  5
97
100
AcDbEntity
  8
MST_1_1
 62
   137
  6
CONTINUOUS
100
AcDbCircle
 10
-85.18306815
 20
-52.75001087
 30
0.0
 40
0.45546112
100
AcDbArc
 50
44.00040429
 51
135.99959571
  0
ARC
  5
98
100
AcDbEntity
  8
MST_1_1
 62
   137
  6
CONTINUOUS
100
AcDbCircle
 10
-84.70286815
 20
-52.28628057
 30
0.0
 40
0.21209998
100
AcDbArc
 50
224.00041508
 51
15.9996008
  0
ARC
  5
99
100
AcDbEntity
  8
MST_1_1
 62
   137
  6
CONTINUOUS
100
AcDbCircle
 10
-84.22266816
 20
-51.45454975
 30
0.0
 40
0.2121
100
AcDbArc
 50
284.00040953
 51
75.99960049
  0
ARC
  5
9A
100
AcDbEntity
  8
MST_1_1
 62
   137
  6
CONTINUOUS
100
AcDbCircle
 10
-84.06116586
 20
-50.80681914
 30
0.0
 40
0.45546118
100
AcDbArc
 50
164.00041281
 51
255.99959537
  0
ARC
  5
9B
100
AcDbEntity
  8
MST_1_1
 62
   137
  6
CONTINUOUS
100
AcDbCircle
 10
-84.70286817
 20
-50.62281896
 30
0.0
 40
0.21209999
100
AcDbArc
 50
344.00041913
 51
135.99958502
  0
ARC
  5
9C
100
AcDbEntity
  8
MST_1_1
 62
   137
  6
CONTINUOUS
100
AcDbCircle
 10
-85.18306815
 20
-50.15908862
 30
0.0
 40
0.45546112
100
AcDbArc
 50
224.00041431
 51
315.99960573
  0
ARC
  5
9D
100
AcDbEntity
  8
MST_1_1
 62
   137
  6
CONTINUOUS
100
AcDbCircle
 10
-85.66326815
 20
-50.62281892
 30
0.0
 40
0.21209998
100
AcDbArc
 50
44.00040506
 51
195.99961082
  0
ARC
  5
9E
100
AcDbEntity
  8
MST_1_1
 62
   137
  6
CONTINUOUS
100
AcDbCircle
 10
-86.30497044
 20
-50.80681914
 30
0.0
 40
0.45546118
100
AcDbArc
 50
284.00042461
 51
15.99958726
  0
LWPOLYLINE
  5
9F
100
AcDbEntity
  8
MST_1_1
 62
   137
  6
CONTINUOUS
100
AcDbPolyline
 90
        9
 70
     0
 43
0.0
 10
-86.08639707
 20
-53.02609464
 10
-86.0800509
 20
-53.01974846
 10
-86.07370025
 20
-53.01339773
 10
-86.06734519
 20
-53.00704276
 10
-86.06098566
 20
-53.00068322
 10
-86.0546218
 20
-52.99431928
 10
-86.04825347
 20
-52.98795095
 10
-86.04188081
 20
-52.98157837
 10
-86.03550383
 20
-52.9752014
  0
ARC
  5
A0
100
AcDbEntity
  8
MST_1_1
 62
   137
  6
CONTINUOUS
100
AcDbCircle
 10
-85.9289951
 20
-52.88651175
 30
0.0
 40
0.13860002
100
AcDbArc
 50
50.21591721
 51
219.78410477
  0
LWPOLYLINE
  5
A1
100
AcDbEntity
  8
MST_1_1
 62
   137
  6
CONTINUOUS
100
AcDbPolyline
 90
        9
 70
     0
 43
0.0
 10
-85.84030547
 20
-52.780003
 10
-85.83395559
 20
-52.77365307
 10
-85.82760233
 20
-52.76729981
 10
-85.82124569
 20
-52.76094321
 10
-85.81488562
 20
-52.75458319
 10
-85.80852226
 20
-52.74821974
 10
-85.80215555
 20
-52.74185303
 10
-85.7957855
 20
-52.73548306
 10
-85.78941219
 20
-52.72910976
  0
LWPOLYLINE
  5
A2
100
AcDbEntity
  8
MST_1_1
 62
   137
  6
CONTINUOUS
100
AcDbPolyline
 90
        9
 70
     0
 43
0.0
 10
-85.78941219
 20
-52.72910976
 10
-85.82745683
 20
-52.69106508
 10
-85.86553798
 20
-52.65298397
 10
-85.90365103
 20
-52.61487092
 10
-85.94179113
 20
-52.57673082
 10
-85.97995373
 20
-52.53856822
 10
-86.01813401
 20
-52.50038794
 10
-86.05632732
 20
-52.46219463
 10
-86.09452887
 20
-52.42399308
  0
LWPOLYLINE
  5
A3
100
AcDbEntity
  8
MST_1_1
 62
   137
  6
CONTINUOUS
100
AcDbPolyline
 90
        9
 70
     0
 43
0.0
 10
-86.09452887
 20
-52.42399308
 10
-86.09678429
 20
-52.42624842
 10
-86.09903922
 20
-52.42850343
 10
-86.10129382
 20
-52.43075795
 10
-86.10354802
 20
-52.43301215
 10
-86.10580173
 20
-52.43526593
 10
-86.10805511
 20
-52.43751923
 10
-86.110308
 20
-52.43977221
 10
-86.11256057
 20
-52.44202469
  0
LWPOLYLINE
  5
A4
100
AcDbEntity
  8
MST_1_1
 62
   137
  6
CONTINUOUS
100
AcDbPolyline
 90
       25
 70
     0
 43
0.0
 10
-86.11256057
 20
-52.44202472
 10
-86.1144452
 20
-52.43912183
 10
-86.11637984
 20
-52.43625744
 10
-86.118364
 20
-52.43343208
 10
-86.12039713
 20
-52.43064629
 10
-86.12247872
 20
-52.42790057
 10
-86.12460825
 20
-52.42519545
 10
-86.1267852
 20
-52.42253145
 10
-86.12900904
 20
-52.41990911
 10
-86.13127926
 20
-52.41732893
 10
-86.13359533
 20
-52.41479145
 10
-86.13595673
 20
-52.41229718
 10
-86.13836295
 20
-52.40984665
 10
-86.14081346
 20
-52.40744038
 10
-86.14330773
 20
-52.40507889
 10
-86.14584526
 20
-52.40276272
 10
-86.1484255
 20
-52.40049237
 10
-86.15104796
 20
-52.39826837
 10
-86.1537121
 20
-52.39609125
 10
-86.1564174
 20
-52.39396152
 10
-86.15916335
 20
-52.39187972
 10
-86.16194941
 20
-52.38984636
 10
-86.16477508
 20
-52.38786197
 10
-86.16763982
 20
-52.38592706
 10
-86.17054312
 20
-52.38404217
  0
LWPOLYLINE
  5
A5
100
AcDbEntity
  8
MST_1_1
 62
   137
  6
CONTINUOUS
100
AcDbPolyline
 90
        9
 70
     0
 43
0.0
 10
-86.17054309
 20
-52.38404217
 10
-86.16829061
 20
-52.3817896
 10
-86.16603763
 20
-52.37953671
 10
-86.16378433
 20
-52.37728333
 10
-86.16153055
 20
-52.37502962
 10
-86.15927635
 20
-52.37277542
 10
-86.15702183
 20
-52.37052082
 10
-86.15476682
 20
-52.36826589
 10
-86.15251148
 20
-52.36601047
  0
LWPOLYLINE
  5
A6
100
AcDbEntity
  8
MST_1_1
 62
   137
  6
CONTINUOUS
100
AcDbPolyline
 90
        9
 70
     0
 43
0.0
 10
-86.15251148
 20
-52.36601047
 10
-86.19071303
 20
-52.32780892
 10
-86.22890634
 20
-52.28961561
 10
-86.26708662
 20
-52.25143533
 10
-86.30524922
 20
-52.21327273
 10
-86.34338932
 20
-52.17513263
 10
-86.38150237
 20
-52.13701958
 10
-86.41958348
 20
-52.09893843
 10
-86.45762815
 20
-52.06089379
  0
LWPOLYLINE
  5
A7
100
AcDbEntity
  8
MST_1_1
 62
   137
  6
CONTINUOUS
100
AcDbPolyline
 90
        9
 70
     0
 43
0.0
 10
-86.45762815
 20
-52.06089379
 10
-86.46400146
 20
-52.0672671
 10
-86.47037143
 20
-52.07363715
 10
-86.47673814
 20
-52.08000386
 10
-86.48310159
 20
-52.08636722
 10
-86.48946161
 20
-52.09272729
 10
-86.49581821
 20
-52.09908393
 10
-86.50217147
 20
-52.1054372
 10
-86.50852139
 20
-52.11178707
  0
ARC
  5
A8
100
AcDbEntity
  8
MST_1_1
 62
   137
  6
CONTINUOUS
100
AcDbCircle
 10
-86.61503015
 20
-52.2004767
 30
0.0
 40
0.13860002
100
AcDbArc
 50
230.21591956
 51
39.7840785
  0
LWPOLYLINE
  5
A9
100
AcDbEntity
  8
MST_1_1
 62
   137
  6
CONTINUOUS
100
AcDbPolyline
 90
        9
 70
     0
 43
0.0
 10
-86.7037198
 20
-52.30698544
 10
-86.71009677
 20
-52.31336241
 10
-86.71646935
 20
-52.31973507
 10
-86.72283768
 20
-52.3261034
 10
-86.72920162
 20
-52.33246726
 10
-86.73556116
 20
-52.3388268
 10
-86.74191613
 20
-52.34518185
 10
-86.74826686
 20
-52.3515325
 10
-86.75461304
 20
-52.35787867
  0
LWPOLYLINE
  5
AA
100
AcDbEntity
  8
MST_1_1
 62
   137
  6
CONTINUOUS
100
AcDbPolyline
 90
        9
 70
     0
 43
0.0
 10
-86.75461304
 20
-52.35787867
 10
-86.71657382
 20
-52.39591773
 10
-86.67849613
 20
-52.43399549
 10
-86.64038472
 20
-52.472107
 10
-86.60224445
 20
-52.51024718
 10
-86.56408055
 20
-52.54841108
 10
-86.52589791
 20
-52.58659372
 10
-86.48770149
 20
-52.62479014
 10
-86.44949628
 20
-52.66299535
  0
LWPOLYLINE
  5
AB
100
AcDbEntity
  8
MST_1_1
 62
   137
  6
CONTINUOUS
100
AcDbPolyline
 90
        9
 70
     0
 43
0.0
 10
-86.44949628
 20
-52.66299535
 10
-86.44724428
 20
-52.66074336
 10
-86.44499171
 20
-52.65849079
 10
-86.44273858
 20
-52.65623765
 10
-86.44048487
 20
-52.65398394
 10
-86.43823067
 20
-52.65172975
 10
-86.43597591
 20
-52.6494749
 10
-86.43372049
 20
-52.64721956
 10
-86.43146458
 20
-52.64496365
  0
LWPOLYLINE
  5
AC
100
AcDbEntity
  8
MST_1_1
 62
   137
  6
CONTINUOUS
100
AcDbPolyline
 90
       25
 70
     0
 43
0.0
 10
-86.43146461
 20
-52.64496366
 10
-86.42958013
 20
-52.64786632
 10
-86.42764558
 20
-52.65073053
 10
-86.42566148
 20
-52.65355575
 10
-86.42362837
 20
-52.65634146
 10
-86.42154677
 20
-52.65908713
 10
-86.41941721
 20
-52.66179223
 10
-86.4172402
 20
-52.66445624
 10
-86.41501628
 20
-52.66707863
 10
-86.41274598
 20
-52.66965887
 10
-86.4104298
 20
-52.67219643
 10
-86.4080683
 20
-52.6746908
 10
-86.40566197
 20
-52.67714143
 10
-86.40321137
 20
-52.67954781
 10
-86.400717
 20
-52.6819094
 10
-86.39817939
 20
-52.68422568
 10
-86.39559908
 20
-52.68649612
 10
-86.39297658
 20
-52.6887202
 10
-86.39031242
 20
-52.69089738
 10
-86.38760713
 20
-52.69302714
 10
-86.38486123
 20
-52.69510896
 10
-86.38207524
 20
-52.6971423
 10
-86.37924971
 20
-52.69912664
 10
-86.37638513
 20
-52.70106146
 10
-86.37348206
 20
-52.70294621
  0
LWPOLYLINE
  5
AD
100
AcDbEntity
  8
MST_1_1
 62
   137
  6
CONTINUOUS
100
AcDbPolyline
 90
        9
 70
     0
 43
0.0
 10
-86.37348205
 20
-52.70294618
 10
-86.37573796
 20
-52.70520209
 10
-86.3779933
 20
-52.70745751
 10
-86.38024815
 20
-52.70971227
 10
-86.38250234
 20
-52.71196647
 10
-86.38475605
 20
-52.71422018
 10
-86.38700919
 20
-52.71647331
 10
-86.38926176
 20
-52.71872588
 10
-86.39151375
 20
-52.72097788
  0
LWPOLYLINE
  5
AE
100
AcDbEntity
  8
MST_1_1
 62
   137
  6
CONTINUOUS
100
AcDbPolyline
 90
        9
 70
     0
 43
0.0
 10
-86.39151375
 20
-52.72097788
 10
-86.35330854
 20
-52.75918309
 10
-86.31511212
 20
-52.79737951
 10
-86.27692948
 20
-52.83556215
 10
-86.23876558
 20
-52.87372605
 10
-86.20062539
 20
-52.91186632
 10
-86.16251389
 20
-52.94997774
 10
-86.12443613
 20
-52.98805542
 10
-86.08639707
 20
-53.02609464
  0
CIRCLE
  5
AF
100
AcDbEntity
  8
MST_1_1
 62
   137
  6
CONTINUOUS
100
AcDbCircle
 10
-85.18306815
 20
-51.45454975
 30
0.0
 40
2.29824183
  0
ARC
  5
B0
100
AcDbEntity
  8
MST_1_1
 62
   137
  6
CONTINUOUS
100
AcDbCircle
 10
-84.06116586
 20
-52.10228035
 30
0.0
 40
0.45546118
100
AcDbArc
 50
104.00041459
 51
195.99959727
  0
LWPOLYLINE
  5
B1
100
AcDbEntity
  8
MST_1_1
 62
   137
  6
CONTINUOUS
100
AcDbPolyline
 90
        9
 70
     0
 43
0.0
 10
-86.23074339
 20
-52.35905491
 10
-86.25575167
 20
-52.33404663
 10
-86.28075474
 20
-52.30904357
 10
-86.30575136
 20
-52.28404694
 10
-86.33074017
 20
-52.25905813
 10
-86.35571985
 20
-52.23407845
 10
-86.38068901
 20
-52.20910921
 10
-86.40564644
 20
-52.18415178
 10
-86.43059075
 20
-52.15920746
  0
ARC
  5
B2
100
AcDbEntity
  8
MST_1_1
 62
   137
  6
CONTINUOUS
100
AcDbCircle
 10
-86.27201267
 20
-52.54349373
 30
0.0
 40
0.18899955
100
AcDbArc
 50
77.38747914
 51
127.33780242
  0
LINE
  5
B3
100
AcDbEntity
  8
MST_1_1
 62
   137
  6
CONTINUOUS
100
AcDbLine
 10
-86.1217436
 20
-52.65812498
 30
0.0
 11
-86.38664338
 21
-52.3932252
 31
0.0
  0
ARC
  5
B4
100
AcDbEntity
  8
MST_1_1
 62
   137
  6
CONTINUOUS
100
AcDbCircle
 10
-86.27201222
 20
-52.54349425
 30
0.0
 40
0.18899963
100
AcDbArc
 50
322.66221884
 51
12.61250962
  0
LWPOLYLINE
  5
B5
100
AcDbEntity
  8
MST_1_1
 62
   137
  6
CONTINUOUS
100
AcDbPolyline
 90
        9
 70
     0
 43
0.0
 10
-85.88772586
 20
-52.70207236
 10
-85.91267018
 20
-52.67712804
 10
-85.93762761
 20
-52.65217061
 10
-85.96259685
 20
-52.62720145
 10
-85.98757653
 20
-52.60222177
 10
-86.01256534
 20
-52.57723296
 10
-86.03756196
 20
-52.55223634
 10
-86.06256503
 20
-52.52723327
 10
-86.08757331
 20
-52.50222499
  0
ARC
  5
B6
100
AcDbEntity
  8
MST_1_1
 62
   137
  6
CONTINUOUS
100
AcDbCircle
 10
-85.92899502
 20
-52.88651171
 30
0.0
 40
0.18900005
100
AcDbArc
 50
77.38755048
 51
192.61243885
  0
LWPOLYLINE
  5
B7
100
AcDbEntity
  8
MST_1_1
 62
   137
  6
CONTINUOUS
100
AcDbPolyline
 90
        9
 70
     0
 43
0.0
 10
-86.31328176
 20
-52.72793352
 10
-86.28827234
 20
-52.75294294
 10
-86.26326829
 20
-52.77794698
 10
-86.23827101
 20
-52.80294426
 10
-86.2132818
 20
-52.82793348
 10
-86.1883022
 20
-52.85291299
 10
-86.16333353
 20
-52.87788175
 10
-86.13837707
 20
-52.90283812
 10
-86.11343439
 20
-52.9277808
  0
ARC
  5
B8
100
AcDbEntity
  8
MST_1_1
 62
   137
  6
CONTINUOUS
100
AcDbCircle
 10
-86.27201272
 20
-52.5434936
 30
0.0
 40
0.18900057
100
AcDbArc
 50
257.38763285
 51
307.33766874
  0
LWPOLYLINE
  5
B9
100
AcDbEntity
  8
MST_1_1
 62
   137
  6
CONTINUOUS
100
AcDbPolyline
 90
        9
 70
     0
 43
0.0
 10
-86.42228163
 20
-52.42886337
 10
-86.38918018
 20
-52.46196474
 10
-86.35606928
 20
-52.49507565
 10
-86.3229521
 20
-52.52819291
 10
-86.28983166
 20
-52.56131326
 10
-86.2567113
 20
-52.5944337
 10
-86.22359404
 20
-52.62755088
 10
-86.19048314
 20
-52.66066178
 10
-86.15738177
 20
-52.69376323
  0
ARC
  5
BA
100
AcDbEntity
  8
MST_1_1
 62
   137
  6
CONTINUOUS
100
AcDbCircle
 10
-86.27201252
 20
-52.5434942
 30
0.0
 40
0.18900009
100
AcDbArc
 50
142.662273
 51
192.61245546
  0
LWPOLYLINE
  5
BB
100
AcDbEntity
  8
MST_1_1
 62
   137
  6
CONTINUOUS
100
AcDbPolyline
 90
        9
 70
     0
 43
0.0
 10
-86.6562992
 20
-52.38491599
 10
-86.63135652
 20
-52.40985868
 10
-86.60640015
 20
-52.43481513
 10
-86.58143139
 20
-52.4597838
 10
-86.55645188
 20
-52.4847634
 10
-86.53146266
 20
-52.50975261
 10
-86.50646538
 20
-52.53474989
 10
-86.48146134
 20
-52.55975394
 10
-86.45645192
 20
-52.58476336
  0
ARC
  5
BC
100
AcDbEntity
  8
MST_1_1
 62
   137
  6
CONTINUOUS
100
AcDbCircle
 10
-86.61502993
 20
-52.2004768
 30
0.0
 40
0.18899991
100
AcDbArc
 50
257.38751638
 51
12.61251432
  0
LWPOLYLINE
  5
BD
100
AcDbEntity
  8
MST_1_1
 62
   137
  6
CONTINUOUS
100
AcDbPolyline
 90
        9
 70
     0
 43
0.0
 10
-86.32767009
 20
-52.41656031
 10
-86.30484975
 20
-52.43938065
 10
-86.28202632
 20
-52.46220408
 10
-86.25920093
 20
-52.48502955
 10
-86.2363744
 20
-52.507856
 10
-86.21354795
 20
-52.53068253
 10
-86.19072248
 20
-52.55350792
 10
-86.16789905
 20
-52.57633135
 10
-86.14507871
 20
-52.59915169
  0
ARC
  5
BE
100
AcDbEntity
  8
MST_1_1
 62
   137
  6
CONTINUOUS
100
AcDbCircle
 10
-86.27201264
 20
-52.54349424
 30
0.0
 40
0.13860005
100
AcDbArc
 50
336.32372311
 51
113.6762869
  0
LWPOLYLINE
  5
BF
100
AcDbEntity
  8
MST_1_1
 62
   137
  6
CONTINUOUS
100
AcDbPolyline
 90
        9
 70
     0
 43
0.0
 10
-86.21635506
 20
-52.67042804
 10
-86.2391754
 20
-52.64760778
 10
-86.26199875
 20
-52.62478435
 10
-86.28482422
 20
-52.60195888
 10
-86.30765075
 20
-52.57913235
 10
-86.33047728
 20
-52.55630582
 10
-86.35330275
 20
-52.53348035
 10
-86.37612618
 20
-52.510657
 10
-86.39894644
 20
-52.48783666
  0
ARC
  5
C0
100
AcDbEntity
  8
MST_1_1
 62
   137
  6
CONTINUOUS
100
AcDbCircle
 10
-86.27201255
 20
-52.54349415
 30
0.0
 40
0.13860003
100
AcDbArc
 50
156.32369345
 51
293.67631657
  0
LWPOLYLINE
  5
C1
100
AcDbEntity
  8
MST_1_1
 62
     1
  6
BORDER
100
AcDbPolyline
 90
        3
 70
     0
 43
0.0
 10
13.93749597
 20
-21.45454975
 10
-2.06250403
 20
-21.45454975
 10
-7.06250403
 20
-21.45454975
  0
LINE
  5
C2
100
AcDbEntity
  8
MST_1_1
 62
   137
  6
CONTINUOUS
100
AcDbLine
 10
-2.06250403
 20
-21.45454975
 30
0.0
 11
-2.06250403
 21
-19.00454975
 31
0.0
  0
LINE
  5
C3
100
AcDbEntity
  8
MST_1_1
 62
   137
  6
CONTINUOUS
100
AcDbLine
 10
-2.06250403
 20
-19.00454975
 30
0.0
 11
-1.98750405
 21
-19.00454975
 31
0.0
  0
LWPOLYLINE
  5
C4
100
AcDbEntity
  8
MST_1_1
 62
   137
  6
CONTINUOUS
100
AcDbPolyline
 90
        6
 70
     0
 43
0.0
 38
2500.0
 10
1.93638116
 20
-20.20454966
 10
1.82558992
 20
-20.68312118
 10
2.76229575
 20
-22.70454975
 10
2.87308703
 20
-22.22597832
 10
1.93638116
 20
-20.20454966
 10
2.76229575
 20
-22.70454975
  0
LINE
  5
C5
100
AcDbEntity
  8
MST_1_1
 62
   137
  6
CONTINUOUS
100
AcDbLine
 10
-0.16250403
 20
-20.68312118
 30
2500.0
 11
1.82558992
 21
-20.68312118
 31
2500.0
  0
LWPOLYLINE
  5
C6
100
AcDbEntity
  8
MST_1_1
 62
   137
  6
CONTINUOUS
100
AcDbPolyline
 90
        4
 70
     0
 43
0.0
 38
2500.0
 10
1.11196004
 20
-22.22597832
 10
1.33372432
 20
-22.70454975
 10
1.4445156
 20
-22.22597832
 10
1.27833666
 20
-21.86736108
  0
LINE
  5
C7
100
AcDbEntity
  8
MST_1_1
 62
   137
  6
CONTINUOUS
100
AcDbLine
 10
1.14914307
 20
-22.145832
 30
2500.0
 11
1.33372432
 21
-22.70454975
 31
2500.0
  0
LINE
  5
C8
100
AcDbEntity
  8
MST_1_1
 62
   137
  6
CONTINUOUS
100
AcDbLine
 10
1.11196004
 20
-22.22597832
 30
2500.0
 11
1.27833666
 21
-21.86736108
 31
2500.0
  0
LINE
  5
C9
100
AcDbEntity
  8
MST_1_1
 62
   137
  6
CONTINUOUS
100
AcDbLine
 10
2.54053147
 20
-22.22597832
 30
2500.0
 11
1.4445156
 21
-22.22597832
 31
2500.0
  0
LINE
  5
CA
100
AcDbEntity
  8
MST_1_1
 62
   137
  6
CONTINUOUS
100
AcDbLine
 10
1.11196004
 20
-22.22597832
 30
2500.0
 11
-0.16250403
 21
-22.22597832
 31
2500.0
  0
LINE
  5
CB
100
AcDbEntity
  8
MST_1_1
 62
   137
  6
CONTINUOUS
100
AcDbLine
 10
-1.98750405
 20
-19.00454975
 30
0.0
 11
-0.16250403
 21
-20.68312118
 31
0.0
  0
LINE
  5
CC
100
AcDbEntity
  8
MST_1_1
 62
   137
  6
CONTINUOUS
100
AcDbLine
 10
-0.16250403
 20
-22.22597832
 30
0.0
 11
-1.98750405
 21
-23.90454975
 31
0.0
  0
LINE
  5
CD
100
AcDbEntity
  8
MST_1_1
 62
   137
  6
CONTINUOUS
100
AcDbLine
 10
-1.98750405
 20
-23.90454975
 30
0.0
 11
-2.06250403
 21
-23.90454975
 31
0.0
  0
LINE
  5
CE
100
AcDbEntity
  8
MST_1_1
 62
   137
  6
CONTINUOUS
100
AcDbLine
 10
-2.06250403
 20
-23.90454975
 30
0.0
 11
-2.06250403
 21
-21.45454975
 31
0.0
  0
LWPOLYLINE
  5
CF
100
AcDbEntity
  8
MST_1_1
 62
   137
  6
CONTINUOUS
100
AcDbPolyline
 90
        6
 70
     0
 43
0.0
 38
2500.0
 10
4.76257292
 20
-20.20454966
 10
4.65178168
 20
-20.68312118
 10
5.58848751
 20
-22.70454975
 10
5.68239838
 20
-22.18955008
 10
4.76257292
 20
-20.20454966
 10
5.58848751
 20
-22.70454975
  0
LWPOLYLINE
  5
D0
100
AcDbEntity
  8
MST_1_1
 62
   137
  6
CONTINUOUS
100
AcDbPolyline
 90
        6
 70
     0
 43
0.0
 38
2500.0
 10
6.17009401
 20
-20.3671849
 10
6.08035311
 20
-20.75482782
 10
6.85390128
 20
-22.42415913
 10
6.94364218
 20
-22.03651621
 10
6.17009401
 20
-20.3671849
 10
6.83908483
 20
-22.39218496
  0
LINE
  5
D1
100
AcDbEntity
  8
MST_1_1
 62
   137
  6
CONTINUOUS
100
AcDbLine
 10
4.30165803
 20
-22.22597832
 30
2500.0
 11
4.98580114
 21
-22.2228192
 31
2500.0
  0
LINE
  5
D2
100
AcDbEntity
  8
MST_1_1
 62
   137
  6
CONTINUOUS
100
AcDbLine
 10
4.65178168
 20
-20.68312118
 30
2500.0
 11
3.58671648
 21
-20.68312118
 31
2500.0
  0
ARC
  5
D3
100
AcDbEntity
  8
MST_1_1
 62
   137
  6
CONTINUOUS
100
AcDbCircle
 10
4.69133027
 20
-34.16138525
 30
2500.0
 40
13.47832209
100
AcDbArc
 50
84.08482032
 51
88.74811714
  0
LWPOLYLINE
  5
D4
100
AcDbEntity
  8
MST_1_1
 62
   137
  6
CONTINUOUS
100
AcDbPolyline
 90
        3
 70
     0
 43
0.0
 38
2500.0
 10
9.93749597
 20
-21.45454975
 10
7.28226768
 20
-20.93443512
 42
0.01723995
 10
6.36479592
 20
-20.78735522
  0
ARC
  5
D5
100
AcDbEntity
  8
MST_1_1
 62
   137
  6
CONTINUOUS
100
AcDbCircle
 10
4.69133027
 20
-8.74771425
 30
2500.0
 40
13.47832209
100
AcDbArc
 50
271.25189287
 51
272.83975061
  0
LWPOLYLINE
  5
D6
100
AcDbEntity
  8
MST_1_1
 62
   137
  6
CONTINUOUS
100
AcDbPolyline
 90
        3
 70
     0
 43
0.0
 38
2500.0
 10
9.93749597
 20
-21.45454975
 10
7.28226768
 20
-21.97466438
 42
-0.0063851
 10
6.94364218
 20
-22.03651621
  0
ARC
  5
D7
100
AcDbEntity
  8
MST_1_1
 62
   137
  6
CONTINUOUS
100
AcDbCircle
 10
4.69133027
 20
-8.74771425
 30
2500.0
 40
13.47832209
100
AcDbArc
 50
274.21680449
 51
278.53995004
  0
LWPOLYLINE
  5
D8
100
AcDbEntity
  8
MST_1_1
 62
   137
  6
CONTINUOUS
100
AcDbPolyline
 90
        6
 70
     0
 43
0.0
 38
2500.0
 10
7.56815354
 20
-20.72298906
 10
7.50892454
 20
-20.97883339
 10
8.01946633
 20
-22.08059205
 10
8.07610807
 20
-21.81916438
 10
7.56815354
 20
-20.72298906
 10
8.00968748
 20
-22.0594891
  0
LWPOLYLINE
  5
D9
100
AcDbEntity
  8
MST_1_1
 62
   137
  6
CONTINUOUS
100
AcDbPolyline
 90
        6
 70
     0
 43
0.0
 38
2500.0
 10
3.36495216
 20
-20.20454966
 10
3.25416092
 20
-20.68312118
 10
4.19086675
 20
-22.70454975
 10
4.30165803
 20
-22.22597832
 10
3.36495216
 20
-20.20454966
 10
4.19086675
 20
-22.70454975
  0
LINE
  5
DA
100
AcDbEntity
  8
MST_1_1
 62
   137
  6
CONTINUOUS
100
AcDbLine
 10
2.87308703
 20
-22.22597832
 30
2500.0
 11
3.96910247
 21
-22.22597832
 31
2500.0
  0
LINE
  5
DB
100
AcDbEntity
  8
MST_1_1
 62
   137
  6
CONTINUOUS
100
AcDbLine
 10
3.25416092
 20
-20.68312118
 30
2500.0
 11
2.15814548
 21
-20.68312118
 31
2500.0
  0
CIRCLE
  5
DC
100
AcDbEntity
  8
MST_1_1
 62
   137
  6
CONTINUOUS
100
AcDbCircle
 10
-85.18306815
 20
-21.45454975
 30
0.0
 40
1.32599973
  0
CIRCLE
  5
DD
100
AcDbEntity
  8
MST_1_1
 62
   137
  6
CONTINUOUS
100
AcDbCircle
 10
-85.18306815
 20
-21.45454975
 30
0.0
 40
0.74234607
  0
CIRCLE
  5
DE
100
AcDbEntity
  8
MST_1_1
 62
   137
  6
CONTINUOUS
100
AcDbCircle
 10
-85.18306815
 20
-21.45454975
 30
0.0
 40
1.32599973
  0
CIRCLE
  5
DF
100
AcDbEntity
  8
MST_1_1
 62
   137
  6
CONTINUOUS
100
AcDbCircle
 10
-85.18306815
 20
-21.45454975
 30
0.0
 40
0.74234607
  0
CIRCLE
  5
E0
100
AcDbEntity
  8
MST_1_1
 62
   137
  6
CONTINUOUS
100
AcDbCircle
 10
-85.18306815
 20
-21.45454975
 30
0.0
 40
1.32599973
  0
CIRCLE
  5
E1
100
AcDbEntity
  8
MST_1_1
 62
   137
  6
CONTINUOUS
100
AcDbCircle
 10
-85.18306815
 20
-21.45454975
 30
0.0
 40
0.74234607
  0
CIRCLE
  5
E2
100
AcDbEntity
  8
MST_1_1
 62
   137
  6
CONTINUOUS
100
AcDbCircle
 10
-85.18306815
 20
-21.45454975
 30
0.0
 40
1.11599973
  0
CIRCLE
  5
E3
100
AcDbEntity
  8
MST_1_1
 62
   137
  6
CONTINUOUS
100
AcDbCircle
 10
-85.18306815
 20
-21.45454975
 30
0.0
 40
1.39599973
  0
CIRCLE
  5
E4
100
AcDbEntity
  8
MST_1_1
 62
   137
  6
CONTINUOUS
100
AcDbCircle
 10
-85.18306815
 20
-21.45454975
 30
0.0
 40
0.7875
  0
CIRCLE
  5
E5
100
AcDbEntity
  8
MST_1_1
 62
   137
  6
CONTINUOUS
100
AcDbCircle
 10
-85.18306815
 20
-21.45454975
 30
0.0
 40
2.45
  0
ARC
  5
E6
100
AcDbEntity
  8
MST_1_1
 62
   137
  6
CONTINUOUS
100
AcDbCircle
 10
-86.14346814
 20
-21.45454975
 30
0.0
 40
0.2121
100
AcDbArc
 50
104.00039951
 51
255.99961051
  0
ARC
  5
E7
100
AcDbEntity
  8
MST_1_1
 62
   137
  6
CONTINUOUS
100
AcDbCircle
 10
-86.30497044
 20
-22.10228035
 30
0.0
 40
0.45546118
100
AcDbArc
 50
344.00042282
 51
75.99958535
  0
ARC
  5
E8
100
AcDbEntity
  8
MST_1_1
 62
   137
  6
CONTINUOUS
100
AcDbCircle
 10
-85.66326813
 20
-22.28628054
 30
0.0
 40
0.21209999
100
AcDbArc
 50
164.00040911
 51
315.99959504
  0
ARC
  5
E9
100
AcDbEntity
  8
MST_1_1
 62
   137
  6
CONTINUOUS
100
AcDbCircle
 10
-85.18306815
 20
-22.75001087
 30
0.0
 40
0.45546112
100
AcDbArc
 50
44.00040429
 51
135.99959571
  0
ARC
  5
EA
100
AcDbEntity
  8
MST_1_1
 62
   137
  6
CONTINUOUS
100
AcDbCircle
 10
-84.70286815
 20
-22.28628057
 30
0.0
 40
0.21209998
100
AcDbArc
 50
224.00041508
 51
15.9996008
  0
ARC
  5
EB
100
AcDbEntity
  8
MST_1_1
 62
   137
  6
CONTINUOUS
100
AcDbCircle
 10
-84.22266816
 20
-21.45454975
 30
0.0
 40
0.2121
100
AcDbArc
 50
284.00040953
 51
75.99960049
  0
ARC
  5
EC
100
AcDbEntity
  8
MST_1_1
 62
   137
  6
CONTINUOUS
100
AcDbCircle
 10
-84.06116586
 20
-20.80681914
 30
0.0
 40
0.45546118
100
AcDbArc
 50
164.00041281
 51
255.99959537
  0
ARC
  5
ED
100
AcDbEntity
  8
MST_1_1
 62
   137
  6
CONTINUOUS
100
AcDbCircle
 10
-84.70286817
 20
-20.62281896
 30
0.0
 40
0.21209999
100
AcDbArc
 50
344.00041913
 51
135.99958502
  0
ARC
  5
EE
100
AcDbEntity
  8
MST_1_1
 62
   137
  6
CONTINUOUS
100
AcDbCircle
 10
-85.18306815
 20
-20.15908862
 30
0.0
 40
0.45546112
100
AcDbArc
 50
224.00041431
 51
315.99960573
  0
ARC
  5
EF
100
AcDbEntity
  8
MST_1_1
 62
   137
  6
CONTINUOUS
100
AcDbCircle
 10
-85.66326815
 20
-20.62281892
 30
0.0
 40
0.21209998
100
AcDbArc
 50
44.00040506
 51
195.99961082
  0
ARC
  5
F0
100
AcDbEntity
  8
MST_1_1
 62
   137
  6
CONTINUOUS
100
AcDbCircle
 10
-86.30497044
 20
-20.80681914
 30
0.0
 40
0.45546118
100
AcDbArc
 50
284.00042461
 51
15.99958726
  0
LWPOLYLINE
  5
F1
100
AcDbEntity
  8
MST_1_1
 62
   137
  6
CONTINUOUS
100
AcDbPolyline
 90
        9
 70
     0
 43
0.0
 10
-86.08639707
 20
-23.02609464
 10
-86.0800509
 20
-23.01974846
 10
-86.07370025
 20
-23.01339773
 10
-86.06734519
 20
-23.00704276
 10
-86.06098566
 20
-23.00068322
 10
-86.0546218
 20
-22.99431928
 10
-86.04825347
 20
-22.98795095
 10
-86.04188081
 20
-22.98157837
 10
-86.03550383
 20
-22.9752014
  0
ARC
  5
F2
100
AcDbEntity
  8
MST_1_1
 62
   137
  6
CONTINUOUS
100
AcDbCircle
 10
-85.9289951
 20
-22.88651175
 30
0.0
 40
0.13860002
100
AcDbArc
 50
50.21591721
 51
219.78410477
  0
LWPOLYLINE
  5
F3
100
AcDbEntity
  8
MST_1_1
 62
   137
  6
CONTINUOUS
100
AcDbPolyline
 90
        9
 70
     0
 43
0.0
 10
-85.84030547
 20
-22.780003
 10
-85.83395559
 20
-22.77365307
 10
-85.82760233
 20
-22.76729981
 10
-85.82124569
 20
-22.76094321
 10
-85.81488562
 20
-22.75458319
 10
-85.80852226
 20
-22.74821974
 10
-85.80215555
 20
-22.74185303
 10
-85.7957855
 20
-22.73548306
 10
-85.78941219
 20
-22.72910976
  0
LWPOLYLINE
  5
F4
100
AcDbEntity
  8
MST_1_1
 62
   137
  6
CONTINUOUS
100
AcDbPolyline
 90
        9
 70
     0
 43
0.0
 10
-85.78941219
 20
-22.72910976
 10
-85.82745683
 20
-22.69106508
 10
-85.86553798
 20
-22.65298397
 10
-85.90365103
 20
-22.61487092
 10
-85.94179113
 20
-22.57673082
 10
-85.97995373
 20
-22.53856822
 10
-86.01813401
 20
-22.50038794
 10
-86.05632732
 20
-22.46219463
 10
-86.09452887
 20
-22.42399308
  0
LWPOLYLINE
  5
F5
100
AcDbEntity
  8
MST_1_1
 62
   137
  6
CONTINUOUS
100
AcDbPolyline
 90
        9
 70
     0
 43
0.0
 10
-86.09452887
 20
-22.42399308
 10
-86.09678429
 20
-22.42624842
 10
-86.09903922
 20
-22.42850343
 10
-86.10129382
 20
-22.43075795
 10
-86.10354802
 20
-22.43301215
 10
-86.10580173
 20
-22.43526593
 10
-86.10805511
 20
-22.43751923
 10
-86.110308
 20
-22.43977221
 10
-86.11256057
 20
-22.44202469
  0
LWPOLYLINE
  5
F6
100
AcDbEntity
  8
MST_1_1
 62
   137
  6
CONTINUOUS
100
AcDbPolyline
 90
       25
 70
     0
 43
0.0
 10
-86.11256057
 20
-22.44202472
 10
-86.1144452
 20
-22.43912183
 10
-86.11637984
 20
-22.43625744
 10
-86.118364
 20
-22.43343208
 10
-86.12039713
 20
-22.43064629
 10
-86.12247872
 20
-22.42790057
 10
-86.12460825
 20
-22.42519545
 10
-86.1267852
 20
-22.42253145
 10
-86.12900904
 20
-22.41990911
 10
-86.13127926
 20
-22.41732893
 10
-86.13359533
 20
-22.41479145
 10
-86.13595673
 20
-22.41229718
 10
-86.13836295
 20
-22.40984665
 10
-86.14081346
 20
-22.40744038
 10
-86.14330773
 20
-22.40507889
 10
-86.14584526
 20
-22.40276272
 10
-86.1484255
 20
-22.40049237
 10
-86.15104796
 20
-22.39826837
 10
-86.1537121
 20
-22.39609125
 10
-86.1564174
 20
-22.39396152
 10
-86.15916335
 20
-22.39187972
 10
-86.16194941
 20
-22.38984636
 10
-86.16477508
 20
-22.38786197
 10
-86.16763982
 20
-22.38592706
 10
-86.17054312
 20
-22.38404217
  0
LWPOLYLINE
  5
F7
100
AcDbEntity
  8
MST_1_1
 62
   137
  6
CONTINUOUS
100
AcDbPolyline
 90
        9
 70
     0
 43
0.0
 10
-86.17054309
 20
-22.38404217
 10
-86.16829061
 20
-22.3817896
 10
-86.16603763
 20
-22.37953671
 10
-86.16378433
 20
-22.37728333
 10
-86.16153055
 20
-22.37502962
 10
-86.15927635
 20
-22.37277542
 10
-86.15702183
 20
-22.37052082
 10
-86.15476682
 20
-22.36826589
 10
-86.15251148
 20
-22.36601047
  0
LWPOLYLINE
  5
F8
100
AcDbEntity
  8
MST_1_1
 62
   137
  6
CONTINUOUS
100
AcDbPolyline
 90
        9
 70
     0
 43
0.0
 10
-86.15251148
 20
-22.36601047
 10
-86.19071303
 20
-22.32780892
 10
-86.22890634
 20
-22.28961561
 10
-86.26708662
 20
-22.25143533
 10
-86.30524922
 20
-22.21327273
 10
-86.34338932
 20
-22.17513263
 10
-86.38150237
 20
-22.13701958
 10
-86.41958348
 20
-22.09893843
 10
-86.45762815
 20
-22.06089379
  0
LWPOLYLINE
  5
F9
100
AcDbEntity
  8
MST_1_1
 62
   137
  6
CONTINUOUS
100
AcDbPolyline
 90
        9
 70
     0
 43
0.0
 10
-86.45762815
 20
-22.06089379
 10
-86.46400146
 20
-22.0672671
 10
-86.47037143
 20
-22.07363715
 10
-86.47673814
 20
-22.08000386
 10
-86.48310159
 20
-22.08636722
 10
-86.48946161
 20
-22.09272729
 10
-86.49581821
 20
-22.09908393
 10
-86.50217147
 20
-22.1054372
 10
-86.50852139
 20
-22.11178707
  0
ARC
  5
FA
100
AcDbEntity
  8
MST_1_1
 62
   137
  6
CONTINUOUS
100
AcDbCircle
 10
-86.61503015
 20
-22.2004767
 30
0.0
 40
0.13860002
100
AcDbArc
 50
230.21591956
 51
39.7840785
  0
LWPOLYLINE
  5
FB
100
AcDbEntity
  8
MST_1_1
 62
   137
  6
CONTINUOUS
100
AcDbPolyline
 90
        9
 70
     0
 43
0.0
 10
-86.7037198
 20
-22.30698544
 10
-86.71009677
 20
-22.31336241
 10
-86.71646935
 20
-22.31973507
 10
-86.72283768
 20
-22.3261034
 10
-86.72920162
 20
-22.33246726
 10
-86.73556116
 20
-22.3388268
 10
-86.74191613
 20
-22.34518185
 10
-86.74826686
 20
-22.3515325
 10
-86.75461304
 20
-22.35787867
  0
LWPOLYLINE
  5
FC
100
AcDbEntity
  8
MST_1_1
 62
   137
  6
CONTINUOUS
100
AcDbPolyline
 90
        9
 70
     0
 43
0.0
 10
-86.75461304
 20
-22.35787867
 10
-86.71657382
 20
-22.39591773
 10
-86.67849613
 20
-22.43399549
 10
-86.64038472
 20
-22.472107
 10
-86.60224445
 20
-22.51024718
 10
-86.56408055
 20
-22.54841108
 10
-86.52589791
 20
-22.58659372
 10
-86.48770149
 20
-22.62479014
 10
-86.44949628
 20
-22.66299535
  0
LWPOLYLINE
  5
FD
100
AcDbEntity
  8
MST_1_1
 62
   137
  6
CONTINUOUS
100
AcDbPolyline
 90
        9
 70
     0
 43
0.0
 10
-86.44949628
 20
-22.66299535
 10
-86.44724428
 20
-22.66074336
 10
-86.44499171
 20
-22.65849079
 10
-86.44273858
 20
-22.65623765
 10
-86.44048487
 20
-22.65398394
 10
-86.43823067
 20
-22.65172975
 10
-86.43597591
 20
-22.6494749
 10
-86.43372049
 20
-22.64721956
 10
-86.43146458
 20
-22.64496365
  0
LWPOLYLINE
  5
FE
100
AcDbEntity
  8
MST_1_1
 62
   137
  6
CONTINUOUS
100
AcDbPolyline
 90
       25
 70
     0
 43
0.0
 10
-86.43146461
 20
-22.64496366
 10
-86.42958013
 20
-22.64786632
 10
-86.42764558
 20
-22.65073053
 10
-86.42566148
 20
-22.65355575
 10
-86.42362837
 20
-22.65634146
 10
-86.42154677
 20
-22.65908713
 10
-86.41941721
 20
-22.66179223
 10
-86.4172402
 20
-22.66445624
 10
-86.41501628
 20
-22.66707863
 10
-86.41274598
 20
-22.66965887
 10
-86.4104298
 20
-22.67219643
 10
-86.4080683
 20
-22.6746908
 10
-86.40566197
 20
-22.67714143
 10
-86.40321137
 20
-22.67954781
 10
-86.400717
 20
-22.6819094
 10
-86.39817939
 20
-22.68422568
 10
-86.39559908
 20
-22.68649612
 10
-86.39297658
 20
-22.6887202
 10
-86.39031242
 20
-22.69089738
 10
-86.38760713
 20
-22.69302714
 10
-86.38486123
 20
-22.69510896
 10
-86.38207524
 20
-22.6971423
 10
-86.37924971
 20
-22.69912664
 10
-86.37638513
 20
-22.70106146
 10
-86.37348206
 20
-22.70294621
  0
LWPOLYLINE
  5
FF
100
AcDbEntity
  8
MST_1_1
 62
   137
  6
CONTINUOUS
100
AcDbPolyline
 90
        9
 70
     0
 43
0.0
 10
-86.37348205
 20
-22.70294618
 10
-86.37573796
 20
-22.70520209
 10
-86.3779933
 20
-22.70745751
 10
-86.38024815
 20
-22.70971227
 10
-86.38250234
 20
-22.71196647
 10
-86.38475605
 20
-22.71422018
 10
-86.38700919
 20
-22.71647331
 10
-86.38926176
 20
-22.71872588
 10
-86.39151375
 20
-22.72097788
  0
LWPOLYLINE
  5
100
100
AcDbEntity
  8
MST_1_1
 62
   137
  6
CONTINUOUS
100
AcDbPolyline
 90
        9
 70
     0
 43
0.0
 10
-86.39151375
 20
-22.72097788
 10
-86.35330854
 20
-22.75918309
 10
-86.31511212
 20
-22.79737951
 10
-86.27692948
 20
-22.83556215
 10
-86.23876558
 20
-22.87372605
 10
-86.20062539
 20
-22.91186632
 10
-86.16251389
 20
-22.94997774
 10
-86.12443613
 20
-22.98805542
 10
-86.08639707
 20
-23.02609464
  0
CIRCLE
  5
101
100
AcDbEntity
  8
MST_1_1
 62
   137
  6
CONTINUOUS
100
AcDbCircle
 10
-85.18306815
 20
-21.45454975
 30
0.0
 40
2.29824183
  0
ARC
  5
102
100
AcDbEntity
  8
MST_1_1
 62
   137
  6
CONTINUOUS
100
AcDbCircle
 10
-84.06116586
 20
-22.10228035
 30
0.0
 40
0.45546118
100
AcDbArc
 50
104.00041459
 51
195.99959727
  0
LWPOLYLINE
  5
103
100
AcDbEntity
  8
MST_1_1
 62
   137
  6
CONTINUOUS
100
AcDbPolyline
 90
        9
 70
     0
 43
0.0
 10
-86.23074339
 20
-22.35905491
 10
-86.25575167
 20
-22.33404663
 10
-86.28075474
 20
-22.30904357
 10
-86.30575136
 20
-22.28404694
 10
-86.33074017
 20
-22.25905813
 10
-86.35571985
 20
-22.23407845
 10
-86.38068901
 20
-22.20910921
 10
-86.40564644
 20
-22.18415178
 10
-86.43059075
 20
-22.15920746
  0
ARC
  5
104
100
AcDbEntity
  8
MST_1_1
 62
   137
  6
CONTINUOUS
100
AcDbCircle
 10
-86.27201267
 20
-22.54349373
 30
0.0
 40
0.18899955
100
AcDbArc
 50
77.38747914
 51
127.33780242
  0
LINE
  5
105
100
AcDbEntity
  8
MST_1_1
 62
   137
  6
CONTINUOUS
100
AcDbLine
 10
-86.1217436
 20
-22.65812498
 30
0.0
 11
-86.38664338
 21
-22.3932252
 31
0.0
  0
ARC
  5
106
100
AcDbEntity
  8
MST_1_1
 62
   137
  6
CONTINUOUS
100
AcDbCircle
 10
-86.27201222
 20
-22.54349425
 30
0.0
 40
0.18899963
100
AcDbArc
 50
322.66221884
 51
12.61250962
  0
LWPOLYLINE
  5
107
100
AcDbEntity
  8
MST_1_1
 62
   137
  6
CONTINUOUS
100
AcDbPolyline
 90
        9
 70
     0
 43
0.0
 10
-85.88772586
 20
-22.70207236
 10
-85.91267018
 20
-22.67712804
 10
-85.93762761
 20
-22.65217061
 10
-85.96259685
 20
-22.62720145
 10
-85.98757653
 20
-22.60222177
 10
-86.01256534
 20
-22.57723296
 10
-86.03756196
 20
-22.55223634
 10
-86.06256503
 20
-22.52723327
 10
-86.08757331
 20
-22.50222499
  0
ARC
  5
108
100
AcDbEntity
  8
MST_1_1
 62
   137
  6
CONTINUOUS
100
AcDbCircle
 10
-85.92899502
 20
-22.88651171
 30
0.0
 40
0.18900005
100
AcDbArc
 50
77.38755048
 51
192.61243885
  0
LWPOLYLINE
  5
109
100
AcDbEntity
  8
MST_1_1
 62
   137
  6
CONTINUOUS
100
AcDbPolyline
 90
        9
 70
     0
 43
0.0
 10
-86.31328176
 20
-22.72793352
 10
-86.28827234
 20
-22.75294294
 10
-86.26326829
 20
-22.77794698
 10
-86.23827101
 20
-22.80294426
 10
-86.2132818
 20
-22.82793348
 10
-86.1883022
 20
-22.85291299
 10
-86.16333353
 20
-22.87788175
 10
-86.13837707
 20
-22.90283812
 10
-86.11343439
 20
-22.9277808
  0
ARC
  5
10A
100
AcDbEntity
  8
MST_1_1
 62
   137
  6
CONTINUOUS
100
AcDbCircle
 10
-86.27201272
 20
-22.5434936
 30
0.0
 40
0.18900057
100
AcDbArc
 50
257.38763285
 51
307.33766874
  0
LWPOLYLINE
  5
10B
100
AcDbEntity
  8
MST_1_1
 62
   137
  6
CONTINUOUS
100
AcDbPolyline
 90
        9
 70
     0
 43
0.0
 10
-86.42228163
 20
-22.42886337
 10
-86.38918018
 20
-22.46196474
 10
-86.35606928
 20
-22.49507565
 10
-86.3229521
 20
-22.52819291
 10
-86.28983166
 20
-22.56131326
 10
-86.2567113
 20
-22.5944337
 10
-86.22359404
 20
-22.62755088
 10
-86.19048314
 20
-22.66066178
 10
-86.15738177
 20
-22.69376323
  0
ARC
  5
10C
100
AcDbEntity
  8
MST_1_1
 62
   137
  6
CONTINUOUS
100
AcDbCircle
 10
-86.27201252
 20
-22.5434942
 30
0.0
 40
0.18900009
100
AcDbArc
 50
142.662273
 51
192.61245546
  0
LWPOLYLINE
  5
10D
100
AcDbEntity
  8
MST_1_1
 62
   137
  6
CONTINUOUS
100
AcDbPolyline
 90
        9
 70
     0
 43
0.0
 10
-86.6562992
 20
-22.38491599
 10
-86.63135652
 20
-22.40985868
 10
-86.60640015
 20
-22.43481513
 10
-86.58143139
 20
-22.4597838
 10
-86.55645188
 20
-22.4847634
 10
-86.53146266
 20
-22.50975261
 10
-86.50646538
 20
-22.53474989
 10
-86.48146134
 20
-22.55975394
 10
-86.45645192
 20
-22.58476336
  0
ARC
  5
10E
100
AcDbEntity
  8
MST_1_1
 62
   137
  6
CONTINUOUS
100
AcDbCircle
 10
-86.61502993
 20
-22.2004768
 30
0.0
 40
0.18899991
100
AcDbArc
 50
257.38751638
 51
12.61251432
  0
LWPOLYLINE
  5
10F
100
AcDbEntity
  8
MST_1_1
 62
   137
  6
CONTINUOUS
100
AcDbPolyline
 90
        9
 70
     0
 43
0.0
 10
-86.32767009
 20
-22.41656031
 10
-86.30484975
 20
-22.43938065
 10
-86.28202632
 20
-22.46220408
 10
-86.25920093
 20
-22.48502955
 10
-86.2363744
 20
-22.507856
 10
-86.21354795
 20
-22.53068253
 10
-86.19072248
 20
-22.55350792
 10
-86.16789905
 20
-22.57633135
 10
-86.14507871
 20
-22.59915169
  0
ARC
  5
110
100
AcDbEntity
  8
MST_1_1
 62
   137
  6
CONTINUOUS
100
AcDbCircle
 10
-86.27201264
 20
-22.54349424
 30
0.0
 40
0.13860005
100
AcDbArc
 50
336.32372311
 51
113.6762869
  0
LWPOLYLINE
  5
111
100
AcDbEntity
  8
MST_1_1
 62
   137
  6
CONTINUOUS
100
AcDbPolyline
 90
        9
 70
     0
 43
0.0
 10
-86.21635506
 20
-22.67042804
 10
-86.2391754
 20
-22.64760778
 10
-86.26199875
 20
-22.62478435
 10
-86.28482422
 20
-22.60195888
 10
-86.30765075
 20
-22.57913235
 10
-86.33047728
 20
-22.55630582
 10
-86.35330275
 20
-22.53348035
 10
-86.37612618
 20
-22.510657
 10
-86.39894644
 20
-22.48783666
  0
ARC
  5
112
100
AcDbEntity
  8
MST_1_1
 62
   137
  6
CONTINUOUS
100
AcDbCircle
 10
-86.27201255
 20
-22.54349415
 30
0.0
 40
0.13860003
100
AcDbArc
 50
156.32369345
 51
293.67631657
  0
LWPOLYLINE
  5
113
100
AcDbEntity
  8
MST_1_1
 62
     1
  6
BORDER
100
AcDbPolyline
 90
        3
 70
     0
 43
0.0
 10
13.93749597
 20
8.54545025
 10
-2.06250403
 20
8.54545025
 10
-7.06250403
 20
8.54545025
  0
LINE
  5
114
100
AcDbEntity
  8
MST_1_1
 62
   137
  6
CONTINUOUS
100
AcDbLine
 10
-2.06250403
 20
8.54545025
 30
0.0
 11
-2.06250403
 21
10.99545025
 31
0.0
  0
LINE
  5
115
100
AcDbEntity
  8
MST_1_1
 62
   137
  6
CONTINUOUS
100
AcDbLine
 10
-2.06250403
 20
10.99545025
 30
0.0
 11
-1.98750405
 21
10.99545025
 31
0.0
  0
LWPOLYLINE
  5
116
100
AcDbEntity
  8
MST_1_1
 62
   137
  6
CONTINUOUS
100
AcDbPolyline
 90
        6
 70
     0
 43
0.0
 38
2500.0
 10
1.36495216
 20
9.79545034
 10
1.25416092
 20
9.31687882
 10
2.19086675
 20
7.29545025
 10
2.30165803
 20
7.77402168
 10
1.36495216
 20
9.79545034
 10
2.19086675
 20
7.29545025
  0
LINE
  5
117
100
AcDbEntity
  8
MST_1_1
 62
   137
  6
CONTINUOUS
100
AcDbLine
 10
-0.16250403
 20
9.31687882
 30
2500.0
 11
1.25416092
 21
9.31687882
 31
2500.0
  0
LWPOLYLINE
  5
118
100
AcDbEntity
  8
MST_1_1
 62
   137
  6
CONTINUOUS
100
AcDbPolyline
 90
        4
 70
     0
 43
0.0
 38
2500.0
 10
0.54053104
 20
7.77402168
 10
0.76229532
 20
7.29545025
 10
0.8730866
 20
7.77402168
 10
0.70690766
 20
8.13263892
  0
LINE
  5
119
100
AcDbEntity
  8
MST_1_1
 62
   137
  6
CONTINUOUS
100
AcDbLine
 10
0.57771407
 20
7.854168
 30
2500.0
 11
0.76229532
 21
7.29545025
 31
2500.0
  0
LINE
  5
11A
100
AcDbEntity
  8
MST_1_1
 62
   137
  6
CONTINUOUS
100
AcDbLine
 10
0.54053104
 20
7.77402168
 30
2500.0
 11
0.70690766
 21
8.13263892
 31
2500.0
  0
LINE
  5
11B
100
AcDbEntity
  8
MST_1_1
 62
   137
  6
CONTINUOUS
100
AcDbLine
 10
1.96910247
 20
7.77402168
 30
2500.0
 11
0.8730866
 21
7.77402168
 31
2500.0
  0
LINE
  5
11C
100
AcDbEntity
  8
MST_1_1
 62
   137
  6
CONTINUOUS
100
AcDbLine
 10
0.54053104
 20
7.77402168
 30
2500.0
 11
-0.16250403
 21
7.77402168
 31
2500.0
  0
LINE
  5
11D
100
AcDbEntity
  8
MST_1_1
 62
   137
  6
CONTINUOUS
100
AcDbLine
 10
-1.98750405
 20
10.99545025
 30
0.0
 11
-0.16250403
 21
9.31687882
 31
0.0
  0
LINE
  5
11E
100
AcDbEntity
  8
MST_1_1
 62
   137
  6
CONTINUOUS
100
AcDbLine
 10
-0.16250403
 20
7.77402168
 30
0.0
 11
-1.98750405
 21
6.09545025
 31
0.0
  0
LINE
  5
11F
100
AcDbEntity
  8
MST_1_1
 62
   137
  6
CONTINUOUS
100
AcDbLine
 10
-1.98750405
 20
6.09545025
 30
0.0
 11
-2.06250403
 21
6.09545025
 31
0.0
  0
LINE
  5
120
100
AcDbEntity
  8
MST_1_1
 62
   137
  6
CONTINUOUS
100
AcDbLine
 10
-2.06250403
 20
6.09545025
 30
0.0
 11
-2.06250403
 21
8.54545025
 31
0.0
  0
LWPOLYLINE
  5
121
100
AcDbEntity
  8
MST_1_1
 62
   137
  6
CONTINUOUS
100
AcDbPolyline
 90
        6
 70
     0
 43
0.0
 38
2500.0
 10
2.76257292
 20
9.79545034
 10
2.65178168
 20
9.31687882
 10
3.58848751
 20
7.29545025
 10
3.68239838
 20
7.81044992
 10
2.76257292
 20
9.79545034
 10
3.58848751
 20
7.29545025
  0
LWPOLYLINE
  5
122
100
AcDbEntity
  8
MST_1_1
 62
   137
  6
CONTINUOUS
100
AcDbPolyline
 90
        6
 70
     0
 43
0.0
 38
2500.0
 10
4.17009401
 20
9.6328151
 10
4.08035311
 20
9.24517218
 10
4.85390128
 20
7.57584087
 10
4.94364218
 20
7.96348379
 10
4.17009401
 20
9.6328151
 10
4.83908483
 20
7.60781504
  0
LINE
  5
123
100
AcDbEntity
  8
MST_1_1
 62
   137
  6
CONTINUOUS
100
AcDbLine
 10
2.30165803
 20
7.77402168
 30
2500.0
 11
2.98580114
 21
7.7771808
 31
2500.0
  0
LINE
  5
124
100
AcDbEntity
  8
MST_1_1
 62
   137
  6
CONTINUOUS
100
AcDbLine
 10
2.65178168
 20
9.31687882
 30
2500.0
 11
1.58671648
 21
9.31687882
 31
2500.0
  0
ARC
  5
125
100
AcDbEntity
  8
MST_1_1
 62
   137
  6
CONTINUOUS
100
AcDbCircle
 10
2.69133027
 20
-4.16138525
 30
2500.0
 40
13.47832209
100
AcDbArc
 50
84.08482032
 51
88.74811714
  0
LWPOLYLINE
  5
126
100
AcDbEntity
  8
MST_1_1
 62
   137
  6
CONTINUOUS
100
AcDbPolyline
 90
        3
 70
     0
 43
0.0
 38
2500.0
 10
7.93749597
 20
8.54545025
 10
5.28226768
 20
9.06556488
 42
0.01723995
 10
4.36479592
 20
9.21264478
  0
ARC
  5
127
100
AcDbEntity
  8
MST_1_1
 62
   137
  6
CONTINUOUS
100
AcDbCircle
 10
2.69133027
 20
21.25228575
 30
2500.0
 40
13.47832209
100
AcDbArc
 50
271.25189287
 51
272.83975061
  0
LWPOLYLINE
  5
128
100
AcDbEntity
  8
MST_1_1
 62
   137
  6
CONTINUOUS
100
AcDbPolyline
 90
        3
 70
     0
 43
0.0
 38
2500.0
 10
7.93749597
 20
8.54545025
 10
5.28226768
 20
8.02533562
 42
-0.0063851
 10
4.94364218
 20
7.96348379
  0
ARC
  5
129
100
AcDbEntity
  8
MST_1_1
 62
   137
  6
CONTINUOUS
100
AcDbCircle
 10
2.69133027
 20
21.25228575
 30
2500.0
 40
13.47832209
100
AcDbArc
 50
274.21680449
 51
278.53995004
  0
LWPOLYLINE
  5
12A
100
AcDbEntity
  8
MST_1_1
 62
   137
  6
CONTINUOUS
100
AcDbPolyline
 90
        6
 70
     0
 43
0.0
 38
2500.0
 10
5.56815354
 20
9.27701094
 10
5.50892454
 20
9.02116661
 10
6.01946633
 20
7.91940795
 10
6.07610807
 20
8.18083562
 10
5.56815354
 20
9.27701094
 10
6.00968748
 20
7.9405109
  0
CIRCLE
  5
12B
100
AcDbEntity
  8
MST_1_1
 62
   137
  6
CONTINUOUS
100
AcDbCircle
 10
-85.18306815
 20
8.54545025
 30
0.0
 40
1.32599973
  0
CIRCLE
  5
12C
100
AcDbEntity
  8
MST_1_1
 62
   137
  6
CONTINUOUS
100
AcDbCircle
 10
-85.18306815
 20
8.54545025
 30
0.0
 40
0.74234607
  0
CIRCLE
  5
12D
100
AcDbEntity
  8
MST_1_1
 62
   137
  6
CONTINUOUS
100
AcDbCircle
 10
-85.18306815
 20
8.54545025
 30
0.0
 40
1.32599973
  0
CIRCLE
  5
12E
100
AcDbEntity
  8
MST_1_1
 62
   137
  6
CONTINUOUS
100
AcDbCircle
 10
-85.18306815
 20
8.54545025
 30
0.0
 40
0.74234607
  0
CIRCLE
  5
12F
100
AcDbEntity
  8
MST_1_1
 62
   137
  6
CONTINUOUS
100
AcDbCircle
 10
-85.18306815
 20
8.54545025
 30
0.0
 40
1.32599973
  0
CIRCLE
  5
130
100
AcDbEntity
  8
MST_1_1
 62
   137
  6
CONTINUOUS
100
AcDbCircle
 10
-85.18306815
 20
8.54545025
 30
0.0
 40
0.74234607
  0
CIRCLE
  5
131
100
AcDbEntity
  8
MST_1_1
 62
   137
  6
CONTINUOUS
100
AcDbCircle
 10
-85.18306815
 20
8.54545025
 30
0.0
 40
1.11599973
  0
CIRCLE
  5
132
100
AcDbEntity
  8
MST_1_1
 62
   137
  6
CONTINUOUS
100
AcDbCircle
 10
-85.18306815
 20
8.54545025
 30
0.0
 40
1.39599973
  0
CIRCLE
  5
133
100
AcDbEntity
  8
MST_1_1
 62
   137
  6
CONTINUOUS
100
AcDbCircle
 10
-85.18306815
 20
8.54545025
 30
0.0
 40
0.7875
  0
CIRCLE
  5
134
100
AcDbEntity
  8
MST_1_1
 62
   137
  6
CONTINUOUS
100
AcDbCircle
 10
-85.18306815
 20
8.54545025
 30
0.0
 40
2.45
  0
ARC
  5
135
100
AcDbEntity
  8
MST_1_1
 62
   137
  6
CONTINUOUS
100
AcDbCircle
 10
-86.14346814
 20
8.54545025
 30
0.0
 40
0.2121
100
AcDbArc
 50
104.00039951
 51
255.99961051
  0
ARC
  5
136
100
AcDbEntity
  8
MST_1_1
 62
   137
  6
CONTINUOUS
100
AcDbCircle
 10
-86.30497044
 20
7.89771965
 30
0.0
 40
0.45546118
100
AcDbArc
 50
344.00042282
 51
75.99958535
  0
ARC
  5
137
100
AcDbEntity
  8
MST_1_1
 62
   137
  6
CONTINUOUS
100
AcDbCircle
 10
-85.66326813
 20
7.71371946
 30
0.0
 40
0.21209999
100
AcDbArc
 50
164.00040911
 51
315.99959504
  0
ARC
  5
138
100
AcDbEntity
  8
MST_1_1
 62
   137
  6
CONTINUOUS
100
AcDbCircle
 10
-85.18306815
 20
7.24998913
 30
0.0
 40
0.45546112
100
AcDbArc
 50
44.00040429
 51
135.99959571
  0
ARC
  5
139
100
AcDbEntity
  8
MST_1_1
 62
   137
  6
CONTINUOUS
100
AcDbCircle
 10
-84.70286815
 20
7.71371943
 30
0.0
 40
0.21209998
100
AcDbArc
 50
224.00041508
 51
15.9996008
  0
ARC
  5
13A
100
AcDbEntity
  8
MST_1_1
 62
   137
  6
CONTINUOUS
100
AcDbCircle
 10
-84.22266816
 20
8.54545025
 30
0.0
 40
0.2121
100
AcDbArc
 50
284.00040953
 51
75.99960049
  0
ARC
  5
13B
100
AcDbEntity
  8
MST_1_1
 62
   137
  6
CONTINUOUS
100
AcDbCircle
 10
-84.06116586
 20
9.19318086
 30
0.0
 40
0.45546118
100
AcDbArc
 50
164.00041281
 51
255.99959537
  0
ARC
  5
13C
100
AcDbEntity
  8
MST_1_1
 62
   137
  6
CONTINUOUS
100
AcDbCircle
 10
-84.70286817
 20
9.37718104
 30
0.0
 40
0.21209999
100
AcDbArc
 50
344.00041913
 51
135.99958502
  0
ARC
  5
13D
100
AcDbEntity
  8
MST_1_1
 62
   137
  6
CONTINUOUS
100
AcDbCircle
 10
-85.18306815
 20
9.84091138
 30
0.0
 40
0.45546112
100
AcDbArc
 50
224.00041431
 51
315.99960573
  0
ARC
  5
13E
100
AcDbEntity
  8
MST_1_1
 62
   137
  6
CONTINUOUS
100
AcDbCircle
 10
-85.66326815
 20
9.37718108
 30
0.0
 40
0.21209998
100
AcDbArc
 50
44.00040506
 51
195.99961082
  0
ARC
  5
13F
100
AcDbEntity
  8
MST_1_1
 62
   137
  6
CONTINUOUS
100
AcDbCircle
 10
-86.30497044
 20
9.19318086
 30
0.0
 40
0.45546118
100
AcDbArc
 50
284.00042461
 51
15.99958726
  0
LWPOLYLINE
  5
140
100
AcDbEntity
  8
MST_1_1
 62
   137
  6
CONTINUOUS
100
AcDbPolyline
 90
        9
 70
     0
 43
0.0
 10
-86.08639707
 20
6.97390536
 10
-86.0800509
 20
6.98025154
 10
-86.07370025
 20
6.98660227
 10
-86.06734519
 20
6.99295724
 10
-86.06098566
 20
6.99931678
 10
-86.0546218
 20
7.00568072
 10
-86.04825347
 20
7.01204905
 10
-86.04188081
 20
7.01842163
 10
-86.03550383
 20
7.0247986
  0
ARC
  5
141
100
AcDbEntity
  8
MST_1_1
 62
   137
  6
CONTINUOUS
100
AcDbCircle
 10
-85.9289951
 20
7.11348825
 30
0.0
 40
0.13860002
100
AcDbArc
 50
50.21591721
 51
219.78410477
  0
LWPOLYLINE
  5
142
100
AcDbEntity
  8
MST_1_1
 62
   137
  6
CONTINUOUS
100
AcDbPolyline
 90
        9
 70
     0
 43
0.0
 10
-85.84030547
 20
7.219997
 10
-85.83395559
 20
7.22634693
 10
-85.82760233
 20
7.23270019
 10
-85.82124569
 20
7.23905679
 10
-85.81488562
 20
7.24541681
 10
-85.80852226
 20
7.25178026
 10
-85.80215555
 20
7.25814697
 10
-85.7957855
 20
7.26451694
 10
-85.78941219
 20
7.27089024
  0
LWPOLYLINE
  5
143
100
AcDbEntity
  8
MST_1_1
 62
   137
  6
CONTINUOUS
100
AcDbPolyline
 90
        9
 70
     0
 43
0.0
 10
-85.78941219
 20
7.27089024
 10
-85.82745683
 20
7.30893492
 10
-85.86553798
 20
7.34701603
 10
-85.90365103
 20
7.38512908
 10
-85.94179113
 20
7.42326918
 10
-85.97995373
 20
7.46143178
 10
-86.01813401
 20
7.49961206
 10
-86.05632732
 20
7.53780537
 10
-86.09452887
 20
7.57600692
  0
LWPOLYLINE
  5
144
100
AcDbEntity
  8
MST_1_1
 62
   137
  6
CONTINUOUS
100
AcDbPolyline
 90
        9
 70
     0
 43
0.0
 10
-86.09452887
 20
7.57600692
 10
-86.09678429
 20
7.57375158
 10
-86.09903922
 20
7.57149657
 10
-86.10129382
 20
7.56924205
 10
-86.10354802
 20
7.56698785
 10
-86.10580173
 20
7.56473407
 10
-86.10805511
 20
7.56248077
 10
-86.110308
 20
7.56022779
 10
-86.11256057
 20
7.55797531
  0
LWPOLYLINE
  5
145
100
AcDbEntity
  8
MST_1_1
 62
   137
  6
CONTINUOUS
100
AcDbPolyline
 90
       25
 70
     0
 43
0.0
 10
-86.11256057
 20
7.55797528
 10
-86.1144452
 20
7.56087817
 10
-86.11637984
 20
7.56374256
 10
-86.118364
 20
7.56656792
 10
-86.12039713
 20
7.56935371
 10
-86.12247872
 20
7.57209943
 10
-86.12460825
 20
7.57480455
 10
-86.1267852
 20
7.57746855
 10
-86.12900904
 20
7.58009089
 10
-86.13127926
 20
7.58267107
 10
-86.13359533
 20
7.58520855
 10
-86.13595673
 20
7.58770282
 10
-86.13836295
 20
7.59015335
 10
-86.14081346
 20
7.59255962
 10
-86.14330773
 20
7.59492111
 10
-86.14584526
 20
7.59723728
 10
-86.1484255
 20
7.59950763
 10
-86.15104796
 20
7.60173163
 10
-86.1537121
 20
7.60390875
 10
-86.1564174
 20
7.60603848
 10
-86.15916335
 20
7.60812028
 10
-86.16194941
 20
7.61015364
 10
-86.16477508
 20
7.61213803
 10
-86.16763982
 20
7.61407294
 10
-86.17054312
 20
7.61595783
  0
LWPOLYLINE
  5
146
100
AcDbEntity
  8
MST_1_1
 62
   137
  6
CONTINUOUS
100
AcDbPolyline
 90
        9
 70
     0
 43
0.0
 10
-86.17054309
 20
7.61595783
 10
-86.16829061
 20
7.6182104
 10
-86.16603763
 20
7.62046329
 10
-86.16378433
 20
7.62271667
 10
-86.16153055
 20
7.62497038
 10
-86.15927635
 20
7.62722458
 10
-86.15702183
 20
7.62947918
 10
-86.15476682
 20
7.63173411
 10
-86.15251148
 20
7.63398953
  0
LWPOLYLINE
  5
147
100
AcDbEntity
  8
MST_1_1
 62
   137
  6
CONTINUOUS
100
AcDbPolyline
 90
        9
 70
     0
 43
0.0
 10
-86.15251148
 20
7.63398953
 10
-86.19071303
 20
7.67219108
 10
-86.22890634
 20
7.71038439
 10
-86.26708662
 20
7.74856467
 10
-86.30524922
 20
7.78672727
 10
-86.34338932
 20
7.82486737
 10
-86.38150237
 20
7.86298042
 10
-86.41958348
 20
7.90106157
 10
-86.45762815
 20
7.93910621
  0
LWPOLYLINE
  5
148
100
AcDbEntity
  8
MST_1_1
 62
   137
  6
CONTINUOUS
100
AcDbPolyline
 90
        9
 70
     0
 43
0.0
 10
-86.45762815
 20
7.93910621
 10
-86.46400146
 20
7.9327329
 10
-86.47037143
 20
7.92636285
 10
-86.47673814
 20
7.91999614
 10
-86.48310159
 20
7.91363278
 10
-86.48946161
 20
7.90727271
 10
-86.49581821
 20
7.90091607
 10
-86.50217147
 20
7.8945628
 10
-86.50852139
 20
7.88821293
  0
ARC
  5
149
100
AcDbEntity
  8
MST_1_1
 62
   137
  6
CONTINUOUS
100
AcDbCircle
 10
-86.61503015
 20
7.7995233
 30
0.0
 40
0.13860002
100
AcDbArc
 50
230.21591956
 51
39.7840785
  0
LWPOLYLINE
  5
14A
100
AcDbEntity
  8
MST_1_1
 62
   137
  6
CONTINUOUS
100
AcDbPolyline
 90
        9
 70
     0
 43
0.0
 10
-86.7037198
 20
7.69301456
 10
-86.71009677
 20
7.68663759
 10
-86.71646935
 20
7.68026493
 10
-86.72283768
 20
7.6738966
 10
-86.72920162
 20
7.66753274
 10
-86.73556116
 20
7.6611732
 10
-86.74191613
 20
7.65481815
 10
-86.74826686
 20
7.6484675
 10
-86.75461304
 20
7.64212133
  0
LWPOLYLINE
  5
14B
100
AcDbEntity
  8
MST_1_1
 62
   137
  6
CONTINUOUS
100
AcDbPolyline
 90
        9
 70
     0
 43
0.0
 10
-86.75461304
 20
7.64212133
 10
-86.71657382
 20
7.60408227
 10
-86.67849613
 20
7.56600451
 10
-86.64038472
 20
7.527893
 10
-86.60224445
 20
7.48975282
 10
-86.56408055
 20
7.45158892
 10
-86.52589791
 20
7.41340628
 10
-86.48770149
 20
7.37520986
 10
-86.44949628
 20
7.33700465
  0
LWPOLYLINE
  5
14C
100
AcDbEntity
  8
MST_1_1
 62
   137
  6
CONTINUOUS
100
AcDbPolyline
 90
        9
 70
     0
 43
0.0
 10
-86.44949628
 20
7.33700465
 10
-86.44724428
 20
7.33925664
 10
-86.44499171
 20
7.34150921
 10
-86.44273858
 20
7.34376235
 10
-86.44048487
 20
7.34601606
 10
-86.43823067
 20
7.34827025
 10
-86.43597591
 20
7.3505251
 10
-86.43372049
 20
7.35278044
 10
-86.43146458
 20
7.35503635
  0
LWPOLYLINE
  5
14D
100
AcDbEntity
  8
MST_1_1
 62
   137
  6
CONTINUOUS
100
AcDbPolyline
 90
       25
 70
     0
 43
0.0
 10
-86.43146461
 20
7.35503634
 10
-86.42958013
 20
7.35213368
 10
-86.42764558
 20
7.34926947
 10
-86.42566148
 20
7.34644425
 10
-86.42362837
 20
7.34365854
 10
-86.42154677
 20
7.34091287
 10
-86.41941721
 20
7.33820777
 10
-86.4172402
 20
7.33554376
 10
-86.41501628
 20
7.33292137
 10
-86.41274598
 20
7.33034113
 10
-86.4104298
 20
7.32780357
 10
-86.4080683
 20
7.3253092
 10
-86.40566197
 20
7.32285857
 10
-86.40321137
 20
7.32045219
 10
-86.400717
 20
7.3180906
 10
-86.39817939
 20
7.31577432
 10
-86.39559908
 20
7.31350388
 10
-86.39297658
 20
7.3112798
 10
-86.39031242
 20
7.30910262
 10
-86.38760713
 20
7.30697286
 10
-86.38486123
 20
7.30489104
 10
-86.38207524
 20
7.3028577
 10
-86.37924971
 20
7.30087336
 10
-86.37638513
 20
7.29893854
 10
-86.37348206
 20
7.29705379
  0
LWPOLYLINE
  5
14E
100
AcDbEntity
  8
MST_1_1
 62
   137
  6
CONTINUOUS
100
AcDbPolyline
 90
        9
 70
     0
 43
0.0
 10
-86.37348205
 20
7.29705382
 10
-86.37573796
 20
7.29479791
 10
-86.3779933
 20
7.29254249
 10
-86.38024815
 20
7.29028773
 10
-86.38250234
 20
7.28803353
 10
-86.38475605
 20
7.28577982
 10
-86.38700919
 20
7.28352669
 10
-86.38926176
 20
7.28127412
 10
-86.39151375
 20
7.27902212
  0
LWPOLYLINE
  5
14F
100
AcDbEntity
  8
MST_1_1
 62
   137
  6
CONTINUOUS
100
AcDbPolyline
 90
        9
 70
     0
 43
0.0
 10
-86.39151375
 20
7.27902212
 10
-86.35330854
 20
7.24081691
 10
-86.31511212
 20
7.20262049
 10
-86.27692948
 20
7.16443785
 10
-86.23876558
 20
7.12627395
 10
-86.20062539
 20
7.08813368
 10
-86.16251389
 20
7.05002226
 10
-86.12443613
 20
7.01194458
 10
-86.08639707
 20
6.97390536
  0
CIRCLE
  5
150
100
AcDbEntity
  8
MST_1_1
 62
   137
  6
CONTINUOUS
100
AcDbCircle
 10
-85.18306815
 20
8.54545025
 30
0.0
 40
2.29824183
  0
ARC
  5
151
100
AcDbEntity
  8
MST_1_1
 62
   137
  6
CONTINUOUS
100
AcDbCircle
 10
-84.06116586
 20
7.89771965
 30
0.0
 40
0.45546118
100
AcDbArc
 50
104.00041459
 51
195.99959727
  0
LWPOLYLINE
  5
152
100
AcDbEntity
  8
MST_1_1
 62
   137
  6
CONTINUOUS
100
AcDbPolyline
 90
        9
 70
     0
 43
0.0
 10
-86.23074339
 20
7.64094509
 10
-86.25575167
 20
7.66595337
 10
-86.28075474
 20
7.69095643
 10
-86.30575136
 20
7.71595306
 10
-86.33074017
 20
7.74094187
 10
-86.35571985
 20
7.76592155
 10
-86.38068901
 20
7.79089079
 10
-86.40564644
 20
7.81584822
 10
-86.43059075
 20
7.84079254
  0
ARC
  5
153
100
AcDbEntity
  8
MST_1_1
 62
   137
  6
CONTINUOUS
100
AcDbCircle
 10
-86.27201267
 20
7.45650627
 30
0.0
 40
0.18899955
100
AcDbArc
 50
77.38747914
 51
127.33780242
  0
LINE
  5
154
100
AcDbEntity
  8
MST_1_1
 62
   137
  6
CONTINUOUS
100
AcDbLine
 10
-86.1217436
 20
7.34187502
 30
0.0
 11
-86.38664338
 21
7.6067748
 31
0.0
  0
ARC
  5
155
100
AcDbEntity
  8
MST_1_1
 62
   137
  6
CONTINUOUS
100
AcDbCircle
 10
-86.27201222
 20
7.45650575
 30
0.0
 40
0.18899963
100
AcDbArc
 50
322.66221884
 51
12.61250962
  0
LWPOLYLINE
  5
156
100
AcDbEntity
  8
MST_1_1
 62
   137
  6
CONTINUOUS
100
AcDbPolyline
 90
        9
 70
     0
 43
0.0
 10
-85.88772586
 20
7.29792764
 10
-85.91267018
 20
7.32287196
 10
-85.93762761
 20
7.34782939
 10
-85.96259685
 20
7.37279855
 10
-85.98757653
 20
7.39777823
 10
-86.01256534
 20
7.42276704
 10
-86.03756196
 20
7.44776366
 10
-86.06256503
 20
7.47276673
 10
-86.08757331
 20
7.49777501
  0
ARC
  5
157
100
AcDbEntity
  8
MST_1_1
 62
   137
  6
CONTINUOUS
100
AcDbCircle
 10
-85.92899502
 20
7.11348829
 30
0.0
 40
0.18900005
100
AcDbArc
 50
77.38755048
 51
192.61243885
  0
LWPOLYLINE
  5
158
100
AcDbEntity
  8
MST_1_1
 62
   137
  6
CONTINUOUS
100
AcDbPolyline
 90
        9
 70
     0
 43
0.0
 10
-86.31328176
 20
7.27206648
 10
-86.28827234
 20
7.24705706
 10
-86.26326829
 20
7.22205302
 10
-86.23827101
 20
7.19705574
 10
-86.2132818
 20
7.17206652
 10
-86.1883022
 20
7.14708701
 10
-86.16333353
 20
7.12211825
 10
-86.13837707
 20
7.09716188
 10
-86.11343439
 20
7.0722192
  0
ARC
  5
159
100
AcDbEntity
  8
MST_1_1
 62
   137
  6
CONTINUOUS
100
AcDbCircle
 10
-86.27201272
 20
7.4565064
 30
0.0
 40
0.18900057
100
AcDbArc
 50
257.38763285
 51
307.33766874
  0
LWPOLYLINE
  5
15A
100
AcDbEntity
  8
MST_1_1
 62
   137
  6
CONTINUOUS
100
AcDbPolyline
 90
        9
 70
     0
 43
0.0
 10
-86.42228163
 20
7.57113663
 10
-86.38918018
 20
7.53803526
 10
-86.35606928
 20
7.50492435
 10
-86.3229521
 20
7.47180709
 10
-86.28983166
 20
7.43868674
 10
-86.2567113
 20
7.4055663
 10
-86.22359404
 20
7.37244912
 10
-86.19048314
 20
7.33933822
 10
-86.15738177
 20
7.30623677
  0
ARC
  5
15B
100
AcDbEntity
  8
MST_1_1
 62
   137
  6
CONTINUOUS
100
AcDbCircle
 10
-86.27201252
 20
7.4565058
 30
0.0
 40
0.18900009
100
AcDbArc
 50
142.662273
 51
192.61245546
  0
LWPOLYLINE
  5
15C
100
AcDbEntity
  8
MST_1_1
 62
   137
  6
CONTINUOUS
100
AcDbPolyline
 90
        9
 70
     0
 43
0.0
 10
-86.6562992
 20
7.61508401
 10
-86.63135652
 20
7.59014132
 10
-86.60640015
 20
7.56518487
 10
-86.58143139
 20
7.5402162
 10
-86.55645188
 20
7.5152366
 10
-86.53146266
 20
7.49024739
 10
-86.50646538
 20
7.46525011
 10
-86.48146134
 20
7.44024606
 10
-86.45645192
 20
7.41523664
  0
ARC
  5
15D
100
AcDbEntity
  8
MST_1_1
 62
   137
  6
CONTINUOUS
100
AcDbCircle
 10
-86.61502993
 20
7.7995232
 30
0.0
 40
0.18899991
100
AcDbArc
 50
257.38751638
 51
12.61251432
  0
LWPOLYLINE
  5
15E
100
AcDbEntity
  8
MST_1_1
 62
   137
  6
CONTINUOUS
100
AcDbPolyline
 90
        9
 70
     0
 43
0.0
 10
-86.32767009
 20
7.58343969
 10
-86.30484975
 20
7.56061935
 10
-86.28202632
 20
7.53779592
 10
-86.25920093
 20
7.51497045
 10
-86.2363744
 20
7.492144
 10
-86.21354795
 20
7.46931747
 10
-86.19072248
 20
7.44649208
 10
-86.16789905
 20
7.42366865
 10
-86.14507871
 20
7.40084831
  0
ARC
  5
15F
100
AcDbEntity
  8
MST_1_1
 62
   137
  6
CONTINUOUS
100
AcDbCircle
 10
-86.27201264
 20
7.45650576
 30
0.0
 40
0.13860005
100
AcDbArc
 50
336.32372311
 51
113.6762869
  0
LWPOLYLINE
  5
160
100
AcDbEntity
  8
MST_1_1
 62
   137
  6
CONTINUOUS
100
AcDbPolyline
 90
        9
 70
     0
 43
0.0
 10
-86.21635506
 20
7.32957196
 10
-86.2391754
 20
7.35239222
 10
-86.26199875
 20
7.37521565
 10
-86.28482422
 20
7.39804112
 10
-86.30765075
 20
7.42086765
 10
-86.33047728
 20
7.44369418
 10
-86.35330275
 20
7.46651965
 10
-86.37612618
 20
7.489343
 10
-86.39894644
 20
7.51216334
  0
ARC
  5
161
100
AcDbEntity
  8
MST_1_1
 62
   137
  6
CONTINUOUS
100
AcDbCircle
 10
-86.27201255
 20
7.45650585
 30
0.0
 40
0.13860003
100
AcDbArc
 50
156.32369345
 51
293.67631657
  0
LINE
  5
162
100
AcDbEntity
  8
MST_1_1
 62
     7
  6
DASHED
100
AcDbLine
 10
9.93749597
 20
23.54545025
 30
0.0
 11
9.93749597
 21
-36.45454975
 31
0.0
  0
LINE
  5
163
100
AcDbEntity
  8
MST_1_1
 62
     7
  6
DASHED
100
AcDbLine
 10
7.93749597
 20
28.54545025
 30
0.0
 11
7.93749597
 21
-6.45454975
 31
0.0
  0
MTEXT
  5
164
100
AcDbEntity
  8
MST_1_1
 62
     4
100
AcDbMText
 10
-123.04686955
 20
172.13488747
 30
2500.0
 11
1.0
 21
0.0
 31
0.0
 40
20.0
 41
331.41766745
 71
     1
 72
     1
  1
\fTahoma|b0|i0|c0|p18;\H20;\W0.80000001;\C7;Spanplattenschrauben Senkkopf\PHECO-FIX-plus 2.5mm\P35.301
  0
LWPOLYLINE
  5
165
102
{ACAD_REACTORS
330
166
102
}
100
AcDbEntity
  8
MST_1_1
 62
    12
100
AcDbPolyline
 90
       46
 70
     1
 43
0.0
 10
291.47715806
 20
182.70063747
 10
291.34633672
 20
182.7112758
 10
291.22218739
 20
182.74206414
 10
291.10638206
 20
182.79131247
 10
291.00059272
 20
182.8573308
 10
290.90649139
 20
182.93842914
 10
290.82575006
 20
183.03291747
 10
290.76004072
 20
183.1391058
 10
290.71103539
 20
183.25530414
 10
290.68040606
 20
183.37982247
 10
290.66982472
 20
183.5109708
 10
290.66982472
 20
183.5109708
 10
290.68040606
 20
183.64218297
 10
290.71103539
 20
183.76678814
 10
290.76004072
 20
183.8830893
 10
290.82575006
 20
183.98938947
 10
290.90649139
 20
184.08399164
 10
291.00059272
 20
184.1651988
 10
291.10638206
 20
184.23131397
 10
291.22218739
 20
184.28064014
 10
291.34633672
 20
184.3114803
 10
291.47715806
 20
184.32213747
 10
291.47715806
 20
184.32213747
 10
291.60781272
 20
184.3114803
 10
291.73185539
 20
184.28064014
 10
291.84760406
 20
184.23131397
 10
291.95337672
 20
184.1651988
 10
292.04749139
 20
184.08399164
 10
292.12826606
 20
183.98938947
 10
292.19401872
 20
183.8830893
 10
292.24306739
 20
183.76678814
 10
292.27373006
 20
183.64218297
 10
292.28432472
 20
183.5109708
 10
292.28432472
 20
183.5109708
 10
292.27373006
 20
183.37982247
 10
292.24306739
 20
183.25530414
 10
292.19401872
 20
183.1391058
 10
292.12826606
 20
183.03291747
 10
292.04749139
 20
182.93842914
 10
291.95337672
 20
182.8573308
 10
291.84760406
 20
182.79131247
 10
291.73185539
 20
182.74206414
 10
291.60781272
 20
182.7112758
 10
291.47715806
 20
182.70063747
 10
291.47715806
 20
182.70063747
 10
291.47715806
 20
182.70063747
  0
HATCH
  5
166
100
AcDbEntity
  8
MST_1_1
 62
    12
100
AcDbHatch
 10
0.0
 20
0.0
 30
0.0
210
0.0
220
0.0
230
1.0
  2
SOLID
 70
     1
 71
     1
 91
        1
 92
        7
 72
     0
 73
     1
 93
       40
 10
291.47715806
 20
182.70063747
 10
291.34633672
 20
182.7112758
 10
291.22218739
 20
182.74206414
 10
291.10638206
 20
182.79131247
 10
291.00059272
 20
182.8573308
 10
290.90649139
 20
182.93842914
 10
290.82575006
 20
183.03291747
 10
290.76004072
 20
183.1391058
 10
290.71103539
 20
183.25530414
 10
290.68040606
 20
183.37982247
 10
290.66982472
 20
183.5109708
 10
290.68040606
 20
183.64218297
 10
290.71103539
 20
183.76678814
 10
290.76004072
 20
183.8830893
 10
290.82575006
 20
183.98938947
 10
290.90649139
 20
184.08399164
 10
291.00059272
 20
184.1651988
 10
291.10638206
 20
184.23131397
 10
291.22218739
 20
184.28064014
 10
291.34633672
 20
184.3114803
 10
291.47715806
 20
184.32213747
 10
291.60781272
 20
184.3114803
 10
291.73185539
 20
184.28064014
 10
291.84760406
 20
184.23131397
 10
291.95337672
 20
184.1651988
 10
292.04749139
 20
184.08399164
 10
292.12826606
 20
183.98938947
 10
292.19401872
 20
183.8830893
 10
292.24306739
 20
183.76678814
 10
292.27373006
 20
183.64218297
 10
292.28432472
 20
183.5109708
 10
292.27373006
 20
183.37982247
 10
292.24306739
 20
183.25530414
 10
292.19401872
 20
183.1391058
 10
292.12826606
 20
183.03291747
 10
292.04749139
 20
182.93842914
 10
291.95337672
 20
182.8573308
 10
291.84760406
 20
182.79131247
 10
291.73185539
 20
182.74206414
 10
291.60781272
 20
182.7112758
 97
        1
330
165
 75
     0
 76
     2
 47
0.775229
 98
        1
 10
0.0
 20
0.0
  0
LWPOLYLINE
  5
167
102
{ACAD_REACTORS
330
168
102
}
100
AcDbEntity
  8
MST_1_1
 62
    12
100
AcDbPolyline
 90
        8
 70
     1
 43
0.0
 10
224.01215806
 20
182.13488747
 10
289.97999139
 20
182.13488747
 10
289.97999139
 20
182.13488747
 10
289.97999139
 20
165.55363747
 10
289.97999139
 20
165.55363747
 10
224.01215806
 20
165.55363747
 10
224.01215806
 20
165.55363747
 10
224.01215806
 20
182.13488747
  0
HATCH
  5
168
100
AcDbEntity
  8
MST_1_1
 62
    12
100
AcDbHatch
 10
0.0
 20
0.0
 30
0.0
210
0.0
220
0.0
230
1.0
  2
SOLID
 70
     1
 71
     1
 91
        1
 92
        7
 72
     0
 73
     1
 93
        4
 10
224.01215806
 20
182.13488747
 10
289.97999139
 20
182.13488747
 10
289.97999139
 20
165.55363747
 10
224.01215806
 20
165.55363747
 97
        1
330
167
 75
     0
 76
     2
 47
0.775229
 98
        1
 10
0.0
 20
0.0
  0
LINE
  5
169
100
AcDbEntity
  8
MST_1_1
100
AcDbLine
 10
224.01215806
 20
165.55363747
 30
0.0
 11
224.01215806
 21
165.55363747
 31
0.0
  0
LINE
  5
16A
100
AcDbEntity
  8
MST_1_1
100
AcDbLine
 10
224.01215806
 20
165.55363747
 30
0.0
 11
224.01215806
 21
165.55363747
 31
0.0
  0
LINE
  5
16B
100
AcDbEntity
  8
MST_1_1
100
AcDbLine
 10
224.01215806
 20
165.55363747
 30
0.0
 11
224.01215806
 21
165.55363747
 31
0.0
  0
LINE
  5
16C
100
AcDbEntity
  8
MST_1_1
100
AcDbLine
 10
224.01215806
 20
165.55363747
 30
0.0
 11
224.01215806
 21
165.55363747
 31
0.0
  0
LINE
  5
16D
100
AcDbEntity
  8
MST_1_1
100
AcDbLine
 10
224.01215806
 20
165.55363747
 30
0.0
 11
224.01215806
 21
165.55363747
 31
0.0
  0
LINE
  5
16E
100
AcDbEntity
  8
MST_1_1
100
AcDbLine
 10
224.01215806
 20
165.55363747
 30
0.0
 11
224.01215806
 21
165.55363747
 31
0.0
  0
LINE
  5
16F
100
AcDbEntity
  8
MST_1_1
100
AcDbLine
 10
224.01215806
 20
165.55363747
 30
0.0
 11
224.01215806
 21
165.55363747
 31
0.0
  0
LINE
  5
170
100
AcDbEntity
  8
MST_1_1
100
AcDbLine
 10
224.01215806
 20
165.55363747
 30
0.0
 11
224.01215806
 21
165.55363747
 31
0.0
  0
LINE
  5
171
100
AcDbEntity
  8
MST_1_1
100
AcDbLine
 10
224.01215806
 20
165.55363747
 30
0.0
 11
224.01215806
 21
165.55363747
 31
0.0
  0
LINE
  5
172
100
AcDbEntity
  8
MST_1_1
100
AcDbLine
 10
224.01215806
 20
165.55363747
 30
0.0
 11
224.01215806
 21
165.55363747
 31
0.0
  0
LINE
  5
173
100
AcDbEntity
  8
MST_1_1
100
AcDbLine
 10
224.01215806
 20
165.55363747
 30
0.0
 11
224.01215806
 21
165.55363747
 31
0.0
  0
LWPOLYLINE
  5
174
102
{ACAD_REACTORS
330
175
102
}
100
AcDbEntity
  8
MST_1_1
 62
   190
100
AcDbPolyline
 90
        8
 70
     1
 43
0.0
 10
256.81865806
 20
180.9852208
 10
288.83349139
 20
180.9852208
 10
288.83349139
 20
180.9852208
 10
288.83349139
 20
166.70146914
 10
288.83349139
 20
166.70146914
 10
256.81865806
 20
166.70146914
 10
256.81865806
 20
166.70146914
 10
256.81865806
 20
180.9852208
  0
HATCH
  5
175
100
AcDbEntity
  8
MST_1_1
 62
   190
100
AcDbHatch
 10
0.0
 20
0.0
 30
0.0
210
0.0
220
0.0
230
1.0
  2
SOLID
 70
     1
 71
     1
 91
        1
 92
        7
 72
     0
 73
     1
 93
        4
 10
256.81865806
 20
180.9852208
 10
288.83349139
 20
180.9852208
 10
288.83349139
 20
166.70146914
 10
256.81865806
 20
166.70146914
 97
        1
330
174
 75
     0
 76
     2
 47
0.775229
 98
        1
 10
0.0
 20
0.0
  0
LWPOLYLINE
  5
176
102
{ACAD_REACTORS
330
177
102
}
100
AcDbEntity
  8
MST_1_1
 62
    12
100
AcDbPolyline
 90
       22
 70
     1
 43
0.0
 10
258.73649139
 20
168.99473747
 10
258.73649139
 20
178.08125414
 10
258.73649139
 20
178.08125414
 10
266.91582472
 20
178.08125414
 10
266.91582472
 20
178.08125414
 10
266.91582472
 20
175.61690414
 10
266.91582472
 20
175.61690414
 10
263.13982472
 20
175.61690414
 10
263.13982472
 20
175.61690414
 10
263.13982472
 20
174.56228747
 10
263.13982472
 20
174.56228747
 10
266.55749139
 20
174.56228747
 10
266.55749139
 20
174.56228747
 10
266.55749139
 20
172.23448747
 10
266.55749139
 20
172.23448747
 10
263.13982472
 20
172.23448747
 10
263.13982472
 20
172.23448747
 10
263.13982472
 20
168.99473747
 10
263.13982472
 20
168.99473747
 10
258.73649139
 20
168.99473747
 10
258.73649139
 20
168.99473747
 10
258.73649139
 20
168.99473747
  0
HATCH
  5
177
100
AcDbEntity
  8
MST_1_1
 62
    12
100
AcDbHatch
 10
0.0
 20
0.0
 30
0.0
210
0.0
220
0.0
230
1.0
  2
SOLID
 70
     1
 71
     1
 91
        1
 92
        7
 72
     0
 73
     1
 93
       10
 10
258.73649139
 20
168.99473747
 10
258.73649139
 20
178.08125414
 10
266.91582472
 20
178.08125414
 10
266.91582472
 20
175.61690414
 10
263.13982472
 20
175.61690414
 10
263.13982472
 20
174.56228747
 10
266.55749139
 20
174.56228747
 10
266.55749139
 20
172.23448747
 10
263.13982472
 20
172.23448747
 10
263.13982472
 20
168.99473747
 97
        1
330
176
 75
     0
 76
     2
 47
0.775229
 98
        1
 10
0.0
 20
0.0
  0
LWPOLYLINE
  5
178
102
{ACAD_REACTORS
330
179
102
}
100
AcDbEntity
  8
MST_1_1
 62
   190
100
AcDbPolyline
 90
      178
 70
     1
 43
0.0
 10
254.96115806
 20
173.51988747
 10
254.95758606
 20
173.32172075
 10
254.94688206
 20
173.12625374
 10
254.92906406
 20
172.93350612
 10
254.90415006
 20
172.7434976
 10
254.87215806
 20
172.55624789
 10
254.83310606
 20
172.37177667
 10
254.78701206
 20
172.19010365
 10
254.73389406
 20
172.01124854
 10
254.67377006
 20
171.83523102
 10
254.60665806
 20
171.6620708
 10
254.60665806
 20
171.6620708
 10
254.53292506
 20
171.49159694
 10
254.45253406
 20
171.32484987
 10
254.36549706
 20
171.1618214
 10
254.27182606
 20
171.00250334
 10
254.17153306
 20
170.84688747
 10
254.06463006
 20
170.6949656
 10
253.95112906
 20
170.54672954
 10
253.83104206
 20
170.40217107
 10
253.70438106
 20
170.261282
 10
253.57115806
 20
170.12405414
 10
253.57115806
 20
170.12405414
 10
253.43241939
 20
169.99427335
 10
253.28950872
 20
169.87070587
 10
253.14243406
 20
169.75335899
 10
252.99120339
 20
169.64224
 10
252.83582472
 20
169.53735622
 10
252.67630606
 20
169.43871494
 10
252.51265539
 20
169.34632345
 10
252.34488072
 20
169.26018907
 10
252.17299006
 20
169.18031909
 10
251.99699139
 20
169.1067208
 10
251.99699139
 20
169.1067208
 10
251.81794339
 20
169.03972267
 10
251.63642739
 20
168.97966574
 10
251.45248539
 20
168.9265762
 10
251.26615939
 20
168.88048027
 10
251.07749139
 20
168.84140414
 10
250.88652339
 20
168.809374
 10
250.69329739
 20
168.78441607
 10
250.49785539
 20
168.76655654
 10
250.30023939
 20
168.7558216
 10
250.10049139
 20
168.75223747
 10
250.10049139
 20
168.75223747
 10
249.89857106
 20
168.7558216
 10
249.69912872
 20
168.76655654
 10
249.50219239
 20
168.78441607
 10
249.30779006
 20
168.809374
 10
249.11594972
 20
168.84140414
 10
248.92669939
 20
168.88048027
 10
248.74006706
 20
168.9265762
 10
248.55608072
 20
168.97966574
 10
248.37476839
 20
169.03972267
 10
248.19615806
 20
169.1067208
 10
248.19615806
 20
169.1067208
 10
248.02023156
 20
169.18043644
 10
247.84834606
 20
169.26065987
 10
247.68049256
 20
169.3473859
 10
247.51666206
 20
169.44060934
 10
247.35684556
 20
169.54032497
 10
247.20103406
 20
169.6465276
 10
247.04921856
 20
169.75921204
 10
246.90139006
 20
169.87837307
 10
246.75753956
 20
170.0040055
 10
246.61765806
 20
170.13610414
 10
246.61765806
 20
170.13610414
 10
246.48609922
 20
170.26987902
 10
246.36094739
 20
170.4076232
 10
246.24223956
 20
170.54932099
 10
246.13001272
 20
170.69495667
 10
246.02430389
 20
170.84451455
 10
245.92515006
 20
170.99797894
 10
245.83258822
 20
171.15533412
 10
245.74665539
 20
171.3165644
 10
245.66738856
 20
171.48165409
 10
245.59482472
 20
171.65058747
 10
245.59482472
 20
171.65058747
 10
245.52900689
 20
171.82371012
 10
245.47006206
 20
171.99991467
 10
245.41800322
 20
172.17919602
 10
245.37284339
 20
172.36154907
 10
245.33459556
 20
172.54696872
 10
245.30327272
 20
172.73544987
 10
245.27888789
 20
172.92698742
 10
245.26145406
 20
173.12157627
 10
245.25098422
 20
173.31921132
 10
245.24749139
 20
173.51988747
 10
245.24749139
 20
173.51988747
 10
245.25098422
 20
173.7205595
 10
245.26145406
 20
173.91828174
 10
245.27888789
 20
174.11306337
 10
245.30327272
 20
174.3049136
 10
245.33459556
 20
174.49384164
 10
245.37284339
 20
174.67985667
 10
245.41800322
 20
174.8629679
 10
245.47006206
 20
175.04318454
 10
245.52900689
 20
175.22051577
 10
245.59482472
 20
175.3949708
 10
245.59482472
 20
175.3949708
 10
245.66738856
 20
175.56503725
 10
245.74665539
 20
175.7312104
 10
245.83258822
 20
175.89345095
 10
245.92515006
 20
176.0517196
 10
246.02430389
 20
176.20597705
 10
246.13001272
 20
176.356184
 10
246.24223956
 20
176.50230115
 10
246.36094739
 20
176.6442892
 10
246.48609922
 20
176.78210885
 10
246.61765806
 20
176.9157208
 10
246.61765806
 20
176.9157208
 10
246.75646189
 20
177.04611264
 10
246.89928872
 20
177.17023547
 10
247.04616156
 20
177.2880703
 10
247.19710339
 20
177.39959814
 10
247.35213722
 20
177.50479997
 10
247.51128606
 20
177.6036568
 10
247.67457289
 20
177.69614964
 10
247.84202072
 20
177.78225947
 10
248.01365256
 20
177.8619673
 10
248.18949139
 20
177.93525414
 10
248.18949139
 20
177.93525414
 10
248.36840539
 20
178.00228572
 10
248.55004339
 20
178.0621828
 10
248.73439939
 20
178.11496389
 10
248.92146739
 20
178.16064747
 10
249.11124139
 20
178.19925205
 10
249.30371539
 20
178.23079614
 10
249.49888339
 20
178.25529822
 10
249.69673939
 20
178.2727768
 10
249.89727739
 20
178.28325039
 10
250.10049139
 20
178.28673747
 10
250.10049139
 20
178.28673747
 10
250.30386306
 20
178.28325039
 10
250.50456472
 20
178.2727768
 10
250.70257639
 20
178.25529822
 10
250.89787806
 20
178.23079614
 10
251.09044972
 20
178.19925205
 10
251.28027139
 20
178.16064747
 10
251.46732306
 20
178.11496389
 10
251.65158472
 20
178.0621828
 10
251.83303639
 20
178.00228572
 10
252.01165806
 20
177.93525414
 10
252.01165806
 20
177.93525414
 10
252.18766072
 20
177.8619673
 10
252.35957939
 20
177.78225947
 10
252.52743006
 20
177.69614964
 10
252.69122872
 20
177.6036568
 10
252.85099139
 20
177.50479997
 10
253.00673406
 20
177.39959814
 10
253.15847272
 20
177.2880703
 10
253.30622339
 20
177.17023547
 10
253.45000206
 20
177.04611264
 10
253.58982472
 20
176.9157208
 10
253.58982472
 20
176.9157208
 10
253.72016956
 20
176.78094629
 10
253.84428339
 20
176.64211867
 10
253.96213522
 20
176.49926185
 10
254.07369406
 20
176.35239974
 10
254.17892889
 20
176.20155622
 10
254.27780872
 20
176.0467552
 10
254.37030256
 20
175.88802059
 10
254.45637939
 20
175.72537627
 10
254.53600822
 20
175.55884615
 10
254.60915806
 20
175.38845414
 10
254.60915806
 20
175.38845414
 10
254.67620006
 20
175.21416222
 10
254.73613406
 20
175.0370848
 10
254.78897206
 20
174.85721939
 10
254.83472606
 20
174.67456347
 10
254.87340806
 20
174.48911455
 10
254.90503006
 20
174.30087014
 10
254.92960406
 20
174.10982772
 10
254.94714206
 20
173.9159848
 10
254.95765606
 20
173.71933889
 10
254.96115806
 20
173.51988747
 10
254.96115806
 20
173.51988747
 10
254.96115806
 20
173.51988747
  0
HATCH
  5
179
100
AcDbEntity
  8
MST_1_1
 62
   190
100
AcDbHatch
 10
0.0
 20
0.0
 30
0.0
210
0.0
220
0.0
230
1.0
  2
SOLID
 70
     1
 71
     1
 91
        1
 92
        7
 72
     0
 73
     1
 93
      160
 10
254.96115806
 20
173.51988747
 10
254.95758606
 20
173.32172075
 10
254.94688206
 20
173.12625374
 10
254.92906406
 20
172.93350612
 10
254.90415006
 20
172.7434976
 10
254.87215806
 20
172.55624789
 10
254.83310606
 20
172.37177667
 10
254.78701206
 20
172.19010365
 10
254.73389406
 20
172.01124854
 10
254.67377006
 20
171.83523102
 10
254.60665806
 20
171.6620708
 10
254.53292506
 20
171.49159694
 10
254.45253406
 20
171.32484987
 10
254.36549706
 20
171.1618214
 10
254.27182606
 20
171.00250334
 10
254.17153306
 20
170.84688747
 10
254.06463006
 20
170.6949656
 10
253.95112906
 20
170.54672954
 10
253.83104206
 20
170.40217107
 10
253.70438106
 20
170.261282
 10
253.57115806
 20
170.12405414
 10
253.43241939
 20
169.99427335
 10
253.28950872
 20
169.87070587
 10
253.14243406
 20
169.75335899
 10
252.99120339
 20
169.64224
 10
252.83582472
 20
169.53735622
 10
252.67630606
 20
169.43871494
 10
252.51265539
 20
169.34632345
 10
252.34488072
 20
169.26018907
 10
252.17299006
 20
169.18031909
 10
251.99699139
 20
169.1067208
 10
251.81794339
 20
169.03972267
 10
251.63642739
 20
168.97966574
 10
251.45248539
 20
168.9265762
 10
251.26615939
 20
168.88048027
 10
251.07749139
 20
168.84140414
 10
250.88652339
 20
168.809374
 10
250.69329739
 20
168.78441607
 10
250.49785539
 20
168.76655654
 10
250.30023939
 20
168.7558216
 10
250.10049139
 20
168.75223747
 10
249.89857106
 20
168.7558216
 10
249.69912872
 20
168.76655654
 10
249.50219239
 20
168.78441607
 10
249.30779006
 20
168.809374
 10
249.11594972
 20
168.84140414
 10
248.92669939
 20
168.88048027
 10
248.74006706
 20
168.9265762
 10
248.55608072
 20
168.97966574
 10
248.37476839
 20
169.03972267
 10
248.19615806
 20
169.1067208
 10
248.02023156
 20
169.18043644
 10
247.84834606
 20
169.26065987
 10
247.68049256
 20
169.3473859
 10
247.51666206
 20
169.44060934
 10
247.35684556
 20
169.54032497
 10
247.20103406
 20
169.6465276
 10
247.04921856
 20
169.75921204
 10
246.90139006
 20
169.87837307
 10
246.75753956
 20
170.0040055
 10
246.61765806
 20
170.13610414
 10
246.48609922
 20
170.26987902
 10
246.36094739
 20
170.4076232
 10
246.24223956
 20
170.54932099
 10
246.13001272
 20
170.69495667
 10
246.02430389
 20
170.84451455
 10
245.92515006
 20
170.99797894
 10
245.83258822
 20
171.15533412
 10
245.74665539
 20
171.3165644
 10
245.66738856
 20
171.48165409
 10
245.59482472
 20
171.65058747
 10
245.52900689
 20
171.82371012
 10
245.47006206
 20
171.99991467
 10
245.41800322
 20
172.17919602
 10
245.37284339
 20
172.36154907
 10
245.33459556
 20
172.54696872
 10
245.30327272
 20
172.73544987
 10
245.27888789
 20
172.92698742
 10
245.26145406
 20
173.12157627
 10
245.25098422
 20
173.31921132
 10
245.24749139
 20
173.51988747
 10
245.25098422
 20
173.7205595
 10
245.26145406
 20
173.91828174
 10
245.27888789
 20
174.11306337
 10
245.30327272
 20
174.3049136
 10
245.33459556
 20
174.49384164
 10
245.37284339
 20
174.67985667
 10
245.41800322
 20
174.8629679
 10
245.47006206
 20
175.04318454
 10
245.52900689
 20
175.22051577
 10
245.59482472
 20
175.3949708
 10
245.66738856
 20
175.56503725
 10
245.74665539
 20
175.7312104
 10
245.83258822
 20
175.89345095
 10
245.92515006
 20
176.0517196
 10
246.02430389
 20
176.20597705
 10
246.13001272
 20
176.356184
 10
246.24223956
 20
176.50230115
 10
246.36094739
 20
176.6442892
 10
246.48609922
 20
176.78210885
 10
246.61765806
 20
176.9157208
 10
246.75646189
 20
177.04611264
 10
246.89928872
 20
177.17023547
 10
247.04616156
 20
177.2880703
 10
247.19710339
 20
177.39959814
 10
247.35213722
 20
177.50479997
 10
247.51128606
 20
177.6036568
 10
247.67457289
 20
177.69614964
 10
247.84202072
 20
177.78225947
 10
248.01365256
 20
177.8619673
 10
248.18949139
 20
177.93525414
 10
248.36840539
 20
178.00228572
 10
248.55004339
 20
178.0621828
 10
248.73439939
 20
178.11496389
 10
248.92146739
 20
178.16064747
 10
249.11124139
 20
178.19925205
 10
249.30371539
 20
178.23079614
 10
249.49888339
 20
178.25529822
 10
249.69673939
 20
178.2727768
 10
249.89727739
 20
178.28325039
 10
250.10049139
 20
178.28673747
 10
250.30386306
 20
178.28325039
 10
250.50456472
 20
178.2727768
 10
250.70257639
 20
178.25529822
 10
250.89787806
 20
178.23079614
 10
251.09044972
 20
178.19925205
 10
251.28027139
 20
178.16064747
 10
251.46732306
 20
178.11496389
 10
251.65158472
 20
178.0621828
 10
251.83303639
 20
178.00228572
 10
252.01165806
 20
177.93525414
 10
252.18766072
 20
177.8619673
 10
252.35957939
 20
177.78225947
 10
252.52743006
 20
177.69614964
 10
252.69122872
 20
177.6036568
 10
252.85099139
 20
177.50479997
 10
253.00673406
 20
177.39959814
 10
253.15847272
 20
177.2880703
 10
253.30622339
 20
177.17023547
 10
253.45000206
 20
177.04611264
 10
253.58982472
 20
176.9157208
 10
253.72016956
 20
176.78094629
 10
253.84428339
 20
176.64211867
 10
253.96213522
 20
176.49926185
 10
254.07369406
 20
176.35239974
 10
254.17892889
 20
176.20155622
 10
254.27780872
 20
176.0467552
 10
254.37030256
 20
175.88802059
 10
254.45637939
 20
175.72537627
 10
254.53600822
 20
175.55884615
 10
254.60915806
 20
175.38845414
 10
254.67620006
 20
175.21416222
 10
254.73613406
 20
175.0370848
 10
254.78897206
 20
174.85721939
 10
254.83472606
 20
174.67456347
 10
254.87340806
 20
174.48911455
 10
254.90503006
 20
174.30087014
 10
254.92960406
 20
174.10982772
 10
254.94714206
 20
173.9159848
 10
254.95765606
 20
173.71933889
 97
        1
330
178
 75
     0
 76
     2
 47
0.775229
 98
        1
 10
0.0
 20
0.0
  0
LWPOLYLINE
  5
17A
102
{ACAD_REACTORS
330
17B
102
}
100
AcDbEntity
  8
MST_1_1
 62
    12
100
AcDbPolyline
 90
       90
 70
     1
 43
0.0
 10
250.10049139
 20
171.80570414
 10
250.23570856
 20
171.81043945
 10
250.36546872
 20
171.82462267
 10
250.48978489
 20
171.84821969
 10
250.60867006
 20
171.8811964
 10
250.72213722
 20
171.92351872
 10
250.83019939
 20
171.97515254
 10
250.93286956
 20
172.03606375
 10
251.03016072
 20
172.10621827
 10
251.12208589
 20
172.18558199
 10
251.20865806
 20
172.2741208
 10
251.20865806
 20
172.2741208
 10
251.28835056
 20
172.37124582
 10
251.35971806
 20
172.47436694
 10
251.42274556
 20
172.58352325
 10
251.47741806
 20
172.69875387
 10
251.52372056
 20
172.82009789
 10
251.56163806
 20
172.9475944
 10
251.59115556
 20
173.08128252
 10
251.61225806
 20
173.22120134
 10
251.62493056
 20
173.36738995
 10
251.62915806
 20
173.51988747
 10
251.62915806
 20
173.51988747
 10
251.62493056
 20
173.673133
 10
251.61225806
 20
173.82014174
 10
251.59115556
 20
173.96094687
 10
251.56163806
 20
174.0955816
 10
251.52372056
 20
174.22407914
 10
251.47741806
 20
174.34647267
 10
251.42274556
 20
174.4627954
 10
251.35971806
 20
174.57308054
 10
251.28835056
 20
174.67736127
 10
251.20865806
 20
174.7756708
 10
251.20865806
 20
174.7756708
 10
251.12208589
 20
174.86569619
 10
251.03016072
 20
174.94631187
 10
250.93286956
 20
175.01750215
 10
250.83019939
 20
175.07925134
 10
250.72213722
 20
175.13154372
 10
250.60867006
 20
175.1743636
 10
250.48978489
 20
175.20769529
 10
250.36546872
 20
175.23152307
 10
250.23570856
 20
175.24583125
 10
250.10049139
 20
175.25060414
 10
250.10049139
 20
175.25060414
 10
249.96533839
 20
175.24582719
 10
249.83548739
 20
175.23149054
 10
249.71095039
 20
175.20758549
 10
249.59173939
 20
175.17410334
 10
249.47786639
 20
175.13103539
 10
249.36934339
 20
175.07837294
 10
249.26618239
 20
175.01610729
 10
249.16839539
 20
174.94422974
 10
249.07599439
 20
174.86273159
 10
248.98899139
 20
174.77160414
 10
248.98899139
 20
174.77160414
 10
248.90864472
 20
174.67324017
 10
248.83679806
 20
174.5689184
 10
248.77344139
 20
174.45863904
 10
248.71856472
 20
174.34240227
 10
248.67215806
 20
174.2202083
 10
248.63421139
 20
174.09205734
 10
248.60471472
 20
173.95794957
 10
248.58365806
 20
173.8178852
 10
248.57103139
 20
173.67186444
 10
248.56682472
 20
173.51988747
 10
248.56682472
 20
173.51988747
 10
248.57103139
 20
173.36738995
 10
248.58365806
 20
173.22120134
 10
248.60471472
 20
173.08128252
 10
248.63421139
 20
172.9475944
 10
248.67215806
 20
172.82009789
 10
248.71856472
 20
172.69875387
 10
248.77344139
 20
172.58352325
 10
248.83679806
 20
172.47436694
 10
248.90864472
 20
172.37124582
 10
248.98899139
 20
172.2741208
 10
248.98899139
 20
172.2741208
 10
249.07599439
 20
172.18558199
 10
249.16839539
 20
172.10621827
 10
249.26618239
 20
172.03606375
 10
249.36934339
 20
171.97515254
 10
249.47786639
 20
171.92351872
 10
249.59173939
 20
171.8811964
 10
249.71095039
 20
171.84821969
 10
249.83548739
 20
171.82462267
 10
249.96533839
 20
171.81043945
 10
250.10049139
 20
171.80570414
 10
250.10049139
 20
171.80570414
 10
250.10049139
 20
171.80570414
  0
HATCH
  5
17B
100
AcDbEntity
  8
MST_1_1
 62
    12
100
AcDbHatch
 10
0.0
 20
0.0
 30
0.0
210
0.0
220
0.0
230
1.0
  2
SOLID
 70
     1
 71
     1
 91
        1
 92
        7
 72
     0
 73
     1
 93
       80
 10
250.10049139
 20
171.80570414
 10
250.23570856
 20
171.81043945
 10
250.36546872
 20
171.82462267
 10
250.48978489
 20
171.84821969
 10
250.60867006
 20
171.8811964
 10
250.72213722
 20
171.92351872
 10
250.83019939
 20
171.97515254
 10
250.93286956
 20
172.03606375
 10
251.03016072
 20
172.10621827
 10
251.12208589
 20
172.18558199
 10
251.20865806
 20
172.2741208
 10
251.28835056
 20
172.37124582
 10
251.35971806
 20
172.47436694
 10
251.42274556
 20
172.58352325
 10
251.47741806
 20
172.69875387
 10
251.52372056
 20
172.82009789
 10
251.56163806
 20
172.9475944
 10
251.59115556
 20
173.08128252
 10
251.61225806
 20
173.22120134
 10
251.62493056
 20
173.36738995
 10
251.62915806
 20
173.51988747
 10
251.62493056
 20
173.673133
 10
251.61225806
 20
173.82014174
 10
251.59115556
 20
173.96094687
 10
251.56163806
 20
174.0955816
 10
251.52372056
 20
174.22407914
 10
251.47741806
 20
174.34647267
 10
251.42274556
 20
174.4627954
 10
251.35971806
 20
174.57308054
 10
251.28835056
 20
174.67736127
 10
251.20865806
 20
174.7756708
 10
251.12208589
 20
174.86569619
 10
251.03016072
 20
174.94631187
 10
250.93286956
 20
175.01750215
 10
250.83019939
 20
175.07925134
 10
250.72213722
 20
175.13154372
 10
250.60867006
 20
175.1743636
 10
250.48978489
 20
175.20769529
 10
250.36546872
 20
175.23152307
 10
250.23570856
 20
175.24583125
 10
250.10049139
 20
175.25060414
 10
249.96533839
 20
175.24582719
 10
249.83548739
 20
175.23149054
 10
249.71095039
 20
175.20758549
 10
249.59173939
 20
175.17410334
 10
249.47786639
 20
175.13103539
 10
249.36934339
 20
175.07837294
 10
249.26618239
 20
175.01610729
 10
249.16839539
 20
174.94422974
 10
249.07599439
 20
174.86273159
 10
248.98899139
 20
174.77160414
 10
248.90864472
 20
174.67324017
 10
248.83679806
 20
174.5689184
 10
248.77344139
 20
174.45863904
 10
248.71856472
 20
174.34240227
 10
248.67215806
 20
174.2202083
 10
248.63421139
 20
174.09205734
 10
248.60471472
 20
173.95794957
 10
248.58365806
 20
173.8178852
 10
248.57103139
 20
173.67186444
 10
248.56682472
 20
173.51988747
 10
248.57103139
 20
173.36738995
 10
248.58365806
 20
173.22120134
 10
248.60471472
 20
173.08128252
 10
248.63421139
 20
172.9475944
 10
248.67215806
 20
172.82009789
 10
248.71856472
 20
172.69875387
 10
248.77344139
 20
172.58352325
 10
248.83679806
 20
172.47436694
 10
248.90864472
 20
172.37124582
 10
248.98899139
 20
172.2741208
 10
249.07599439
 20
172.18558199
 10
249.16839539
 20
172.10621827
 10
249.26618239
 20
172.03606375
 10
249.36934339
 20
171.97515254
 10
249.47786639
 20
171.92351872
 10
249.59173939
 20
171.8811964
 10
249.71095039
 20
171.84821969
 10
249.83548739
 20
171.82462267
 10
249.96533839
 20
171.81043945
 97
        1
330
17A
 75
     0
 76
     2
 47
0.775229
 98
        1
 10
0.0
 20
0.0
  0
LWPOLYLINE
  5
17C
102
{ACAD_REACTORS
330
17D
102
}
100
AcDbEntity
  8
MST_1_1
 62
   190
100
AcDbPolyline
 90
       60
 70
     1
 43
0.0
 10
236.46145806
 20
168.99473747
 10
236.46145806
 20
178.08125414
 10
236.46145806
 20
178.08125414
 10
240.57172472
 20
178.08125414
 10
240.57172472
 20
178.08125414
 10
240.92046049
 20
178.0733535
 10
241.25240286
 20
178.04966107
 10
241.56754442
 20
178.01019104
 10
241.86587779
 20
177.9549576
 10
242.14739556
 20
177.88397497
 10
242.41209032
 20
177.79725734
 10
242.65995469
 20
177.6948189
 10
242.89098126
 20
177.57667387
 10
243.10516262
 20
177.44283644
 10
243.30249139
 20
177.2933208
 10
243.30249139
 20
177.2933208
 10
243.48169722
 20
177.12873175
 10
243.64201806
 20
176.9501664
 10
243.78345889
 20
176.75765745
 10
243.90602472
 20
176.5512376
 10
244.00972056
 20
176.33093955
 10
244.09455139
 20
176.096796
 10
244.16052222
 20
175.84883965
 10
244.20763806
 20
175.5871032
 10
244.23590389
 20
175.31161935
 10
244.24532472
 20
175.0224208
 10
244.24532472
 20
175.0224208
 10
244.24054306
 20
174.83193624
 10
244.22621139
 20
174.64829027
 10
244.20234972
 20
174.4714945
 10
244.16897806
 20
174.30156054
 10
244.12611639
 20
174.13849997
 10
244.07378472
 20
173.9823244
 10
244.01200306
 20
173.83304544
 10
243.94079139
 20
173.69067467
 10
243.86016972
 20
173.5552237
 10
243.77015806
 20
173.42670414
 10
243.77015806
 20
173.42670414
 10
243.67171706
 20
173.30611189
 10
243.56677006
 20
173.19607614
 10
243.45528106
 20
173.09658339
 10
243.33721406
 20
173.00762014
 10
243.21253306
 20
172.92917289
 10
243.08120206
 20
172.86122814
 10
242.94318506
 20
172.80377239
 10
242.79844606
 20
172.75679214
 10
242.64694906
 20
172.72027389
 10
242.48865806
 20
172.69420414
 10
242.48865806
 20
172.69420414
 10
244.91499139
 20
168.99473747
 10
244.91499139
 20
168.99473747
 10
241.25449139
 20
168.99473747
 10
241.25449139
 20
168.99473747
 10
239.66450806
 20
171.99205414
 10
239.66450806
 20
171.99205414
 10
239.66450806
 20
168.99473747
 10
239.66450806
 20
168.99473747
 10
236.46145806
 20
168.99473747
 10
236.46145806
 20
168.99473747
 10
236.46145806
 20
168.99473747
  0
HATCH
  5
17D
100
AcDbEntity
  8
MST_1_1
 62
   190
100
AcDbHatch
 10
0.0
 20
0.0
 30
0.0
210
0.0
220
0.0
230
1.0
  2
SOLID
 70
     1
 71
     1
 91
        1
 92
        7
 72
     0
 73
     1
 93
       47
 10
236.46145806
 20
168.99473747
 10
236.46145806
 20
178.08125414
 10
240.57172472
 20
178.08125414
 10
240.92046049
 20
178.0733535
 10
241.25240286
 20
178.04966107
 10
241.56754442
 20
178.01019104
 10
241.86587779
 20
177.9549576
 10
242.14739556
 20
177.88397497
 10
242.41209032
 20
177.79725734
 10
242.65995469
 20
177.6948189
 10
242.89098126
 20
177.57667387
 10
243.10516262
 20
177.44283644
 10
243.30249139
 20
177.2933208
 10
243.48169722
 20
177.12873175
 10
243.64201806
 20
176.9501664
 10
243.78345889
 20
176.75765745
 10
243.90602472
 20
176.5512376
 10
244.00972056
 20
176.33093955
 10
244.09455139
 20
176.096796
 10
244.16052222
 20
175.84883965
 10
244.20763806
 20
175.5871032
 10
244.23590389
 20
175.31161935
 10
244.24532472
 20
175.0224208
 10
244.24054306
 20
174.83193624
 10
244.22621139
 20
174.64829027
 10
244.20234972
 20
174.4714945
 10
244.16897806
 20
174.30156054
 10
244.12611639
 20
174.13849997
 10
244.07378472
 20
173.9823244
 10
244.01200306
 20
173.83304544
 10
243.94079139
 20
173.69067467
 10
243.86016972
 20
173.5552237
 10
243.77015806
 20
173.42670414
 10
243.67171706
 20
173.30611189
 10
243.56677006
 20
173.19607614
 10
243.45528106
 20
173.09658339
 10
243.33721406
 20
173.00762014
 10
243.21253306
 20
172.92917289
 10
243.08120206
 20
172.86122814
 10
242.94318506
 20
172.80377239
 10
242.79844606
 20
172.75679214
 10
242.64694906
 20
172.72027389
 10
242.48865806
 20
172.69420414
 10
244.91499139
 20
168.99473747
 10
241.25449139
 20
168.99473747
 10
239.66450806
 20
171.99205414
 10
239.66450806
 20
168.99473747
 97
        1
330
17C
 75
     0
 76
     2
 47
0.775229
 98
        1
 10
0.0
 20
0.0
  0
LWPOLYLINE
  5
17E
102
{ACAD_REACTORS
330
17F
102
}
100
AcDbEntity
  8
MST_1_1
 62
    12
100
AcDbPolyline
 90
       52
 70
     1
 43
0.0
 10
239.66450806
 20
175.7426208
 10
239.66450806
 20
173.9675708
 10
239.66450806
 20
173.9675708
 10
240.17362472
 20
173.9675708
 10
240.17362472
 20
173.9675708
 10
240.26467117
 20
173.9698422
 10
240.35135032
 20
173.976652
 10
240.43367687
 20
173.9879936
 10
240.51166552
 20
174.0038604
 10
240.58533097
 20
174.0242458
 10
240.65468792
 20
174.0491432
 10
240.71975107
 20
174.078546
 10
240.78053512
 20
174.1124476
 10
240.83705477
 20
174.1508414
 10
240.88932472
 20
174.1937208
 10
240.88932472
 20
174.1937208
 10
240.93716889
 20
174.24080429
 10
240.97999806
 20
174.29182667
 10
241.01780722
 20
174.34679085
 10
241.05059139
 20
174.40569974
 10
241.07834556
 20
174.46855622
 10
241.10106472
 20
174.5353632
 10
241.11874389
 20
174.60612359
 10
241.13137806
 20
174.68084027
 10
241.13896222
 20
174.75951615
 10
241.14149139
 20
174.84215414
 10
241.14149139
 20
174.84215414
 10
241.13896222
 20
174.92699294
 10
241.13137806
 20
175.00782254
 10
241.11874389
 20
175.08463274
 10
241.10106472
 20
175.15741334
 10
241.07834556
 20
175.22615414
 10
241.05059139
 20
175.29084494
 10
241.01780722
 20
175.35147554
 10
240.97999806
 20
175.40803574
 10
240.93716889
 20
175.46051534
 10
240.88932472
 20
175.50890414
 10
240.88932472
 20
175.50890414
 10
240.83705477
 20
175.5530403
 10
240.78053512
 20
175.59261547
 10
240.71975107
 20
175.62760964
 10
240.65468792
 20
175.6580028
 10
240.58533097
 20
175.68377497
 10
240.51166552
 20
175.70490614
 10
240.43367687
 20
175.7213763
 10
240.35135032
 20
175.73316547
 10
240.26467117
 20
175.74025364
 10
240.17362472
 20
175.7426208
 10
240.17362472
 20
175.7426208
 10
239.66450806
 20
175.7426208
 10
239.66450806
 20
175.7426208
 10
239.66450806
 20
175.7426208
  0
HATCH
  5
17F
100
AcDbEntity
  8
MST_1_1
 62
    12
100
AcDbHatch
 10
0.0
 20
0.0
 30
0.0
210
0.0
220
0.0
230
1.0
  2
SOLID
 70
     1
 71
     1
 91
        1
 92
        7
 72
     0
 73
     1
 93
       43
 10
239.66450806
 20
175.7426208
 10
239.66450806
 20
173.9675708
 10
240.17362472
 20
173.9675708
 10
240.26467117
 20
173.9698422
 10
240.35135032
 20
173.976652
 10
240.43367687
 20
173.9879936
 10
240.51166552
 20
174.0038604
 10
240.58533097
 20
174.0242458
 10
240.65468792
 20
174.0491432
 10
240.71975107
 20
174.078546
 10
240.78053512
 20
174.1124476
 10
240.83705477
 20
174.1508414
 10
240.88932472
 20
174.1937208
 10
240.93716889
 20
174.24080429
 10
240.97999806
 20
174.29182667
 10
241.01780722
 20
174.34679085
 10
241.05059139
 20
174.40569974
 10
241.07834556
 20
174.46855622
 10
241.10106472
 20
174.5353632
 10
241.11874389
 20
174.60612359
 10
241.13137806
 20
174.68084027
 10
241.13896222
 20
174.75951615
 10
241.14149139
 20
174.84215414
 10
241.13896222
 20
174.92699294
 10
241.13137806
 20
175.00782254
 10
241.11874389
 20
175.08463274
 10
241.10106472
 20
175.15741334
 10
241.07834556
 20
175.22615414
 10
241.05059139
 20
175.29084494
 10
241.01780722
 20
175.35147554
 10
240.97999806
 20
175.40803574
 10
240.93716889
 20
175.46051534
 10
240.88932472
 20
175.50890414
 10
240.83705477
 20
175.5530403
 10
240.78053512
 20
175.59261547
 10
240.71975107
 20
175.62760964
 10
240.65468792
 20
175.6580028
 10
240.58533097
 20
175.68377497
 10
240.51166552
 20
175.70490614
 10
240.43367687
 20
175.7213763
 10
240.35135032
 20
175.73316547
 10
240.26467117
 20
175.74025364
 10
240.17362472
 20
175.7426208
 97
        1
330
17E
 75
     0
 76
     2
 47
0.775229
 98
        1
 10
0.0
 20
0.0
  0
LWPOLYLINE
  5
180
102
{ACAD_REACTORS
330
181
102
}
100
AcDbEntity
  8
MST_1_1
 62
   190
100
AcDbPolyline
 90
       56
 70
     1
 43
0.0
 10
227.46185806
 20
168.99473747
 10
227.46185806
 20
178.08125414
 10
227.46185806
 20
178.08125414
 10
231.36657472
 20
178.08125414
 10
231.36657472
 20
178.08125414
 10
231.76735087
 20
178.07330547
 10
232.14600192
 20
178.0494628
 10
232.50253177
 20
178.00973114
 10
232.83694432
 20
177.95411547
 10
233.14924347
 20
177.8826208
 10
233.43943312
 20
177.79525214
 10
233.70751717
 20
177.69201447
 10
233.95349952
 20
177.5729128
 10
234.17738407
 20
177.43795214
 10
234.37917472
 20
177.28713747
 10
234.37917472
 20
177.28713747
 10
234.56022992
 20
177.11877614
 10
234.72223432
 20
176.9318888
 10
234.86518612
 20
176.72645547
 10
234.98908352
 20
176.50245614
 10
235.09392472
 20
176.2598708
 10
235.17970792
 20
175.99867947
 10
235.24643132
 20
175.71886214
 10
235.29409312
 20
175.4203988
 10
235.32269152
 20
175.10326947
 10
235.33222472
 20
174.76745414
 10
235.33222472
 20
174.76745414
 10
235.32365482
 20
174.45446212
 10
235.29795152
 20
174.1588
 10
235.25512442
 20
173.88047369
 10
235.19518312
 20
173.61948907
 10
235.11813722
 20
173.37585205
 10
235.02399632
 20
173.14956854
 10
234.91277002
 20
172.94064442
 10
234.78446792
 20
172.7490856
 10
234.63909962
 20
172.57489799
 10
234.47667472
 20
172.41808747
 10
234.47667472
 20
172.41808747
 10
234.29492206
 20
172.27753002
 10
234.09311939
 20
172.15171587
 10
233.87125972
 20
172.04065732
 10
233.62933606
 20
171.94436667
 10
233.36734139
 20
171.86285622
 10
233.08526872
 20
171.79613827
 10
232.78311106
 20
171.74422512
 10
232.46086139
 20
171.70712907
 10
232.11851272
 20
171.68486242
 10
231.75605806
 20
171.67743747
 10
231.75605806
 20
171.67743747
 10
230.73310806
 20
171.67743747
 10
230.73310806
 20
171.67743747
 10
230.73310806
 20
168.99473747
 10
230.73310806
 20
168.99473747
 10
227.46185806
 20
168.99473747
 10
227.46185806
 20
168.99473747
 10
227.46185806
 20
168.99473747
  0
HATCH
  5
181
100
AcDbEntity
  8
MST_1_1
 62
   190
100
AcDbHatch
 10
0.0
 20
0.0
 30
0.0
210
0.0
220
0.0
230
1.0
  2
SOLID
 70
     1
 71
     1
 91
        1
 92
        7
 72
     0
 73
     1
 93
       45
 10
227.46185806
 20
168.99473747
 10
227.46185806
 20
178.08125414
 10
231.36657472
 20
178.08125414
 10
231.76735087
 20
178.07330547
 10
232.14600192
 20
178.0494628
 10
232.50253177
 20
178.00973114
 10
232.83694432
 20
177.95411547
 10
233.14924347
 20
177.8826208
 10
233.43943312
 20
177.79525214
 10
233.70751717
 20
177.69201447
 10
233.95349952
 20
177.5729128
 10
234.17738407
 20
177.43795214
 10
234.37917472
 20
177.28713747
 10
234.56022992
 20
177.11877614
 10
234.72223432
 20
176.9318888
 10
234.86518612
 20
176.72645547
 10
234.98908352
 20
176.50245614
 10
235.09392472
 20
176.2598708
 10
235.17970792
 20
175.99867947
 10
235.24643132
 20
175.71886214
 10
235.29409312
 20
175.4203988
 10
235.32269152
 20
175.10326947
 10
235.33222472
 20
174.76745414
 10
235.32365482
 20
174.45446212
 10
235.29795152
 20
174.1588
 10
235.25512442
 20
173.88047369
 10
235.19518312
 20
173.61948907
 10
235.11813722
 20
173.37585205
 10
235.02399632
 20
173.14956854
 10
234.91277002
 20
172.94064442
 10
234.78446792
 20
172.7490856
 10
234.63909962
 20
172.57489799
 10
234.47667472
 20
172.41808747
 10
234.29492206
 20
172.27753002
 10
234.09311939
 20
172.15171587
 10
233.87125972
 20
172.04065732
 10
233.62933606
 20
171.94436667
 10
233.36734139
 20
171.86285622
 10
233.08526872
 20
171.79613827
 10
232.78311106
 20
171.74422512
 10
232.46086139
 20
171.70712907
 10
232.11851272
 20
171.68486242
 10
231.75605806
 20
171.67743747
 10
230.73310806
 20
171.67743747
 10
230.73310806
 20
168.99473747
 97
        1
330
180
 75
     0
 76
     2
 47
0.775229
 98
        1
 10
0.0
 20
0.0
  0
LWPOLYLINE
  5
182
102
{ACAD_REACTORS
330
183
102
}
100
AcDbEntity
  8
MST_1_1
 62
    12
100
AcDbPolyline
 90
       52
 70
     1
 43
0.0
 10
230.74587472
 20
175.55570414
 10
230.74587472
 20
174.04113747
 10
230.74587472
 20
174.04113747
 10
231.25352472
 20
174.04113747
 10
231.25352472
 20
174.04113747
 10
231.34436284
 20
174.04310577
 10
231.43096766
 20
174.04900387
 10
231.51330987
 20
174.05882157
 10
231.59136019
 20
174.07254867
 10
231.66508931
 20
174.09017497
 10
231.73446792
 20
174.11169027
 10
231.79946674
 20
174.13708437
 10
231.86005646
 20
174.16634707
 10
231.91620777
 20
174.19946817
 10
231.96789139
 20
174.23643747
 10
231.96789139
 20
174.23643747
 10
232.01496014
 20
174.27725484
 10
232.05709339
 20
174.3213424
 10
232.09428664
 20
174.36870837
 10
232.12653539
 20
174.41936094
 10
232.15383514
 20
174.4733083
 10
232.17618139
 20
174.53055867
 10
232.19356964
 20
174.59112024
 10
232.20599539
 20
174.6550012
 10
232.21345414
 20
174.72220977
 10
232.21594139
 20
174.79275414
 10
232.21594139
 20
174.79275414
 10
232.21340762
 20
174.86301182
 10
232.20579926
 20
174.9301276
 10
232.19310569
 20
174.99410559
 10
232.17531632
 20
175.05494987
 10
232.15242056
 20
175.11266455
 10
232.12440779
 20
175.16725374
 10
232.09126742
 20
175.21872152
 10
232.05298886
 20
175.267072
 10
232.00956149
 20
175.31230929
 10
231.96097472
 20
175.35443747
 10
231.96097472
 20
175.35443747
 10
231.90822882
 20
175.39246889
 10
231.85150552
 20
175.4265628
 10
231.79079642
 20
175.45670372
 10
231.72609312
 20
175.48287614
 10
231.65738722
 20
175.50506455
 10
231.58467032
 20
175.52325347
 10
231.50793402
 20
175.53742739
 10
231.42716992
 20
175.5475708
 10
231.34236962
 20
175.55366822
 10
231.25352472
 20
175.55570414
 10
231.25352472
 20
175.55570414
 10
230.74587472
 20
175.55570414
 10
230.74587472
 20
175.55570414
 10
230.74587472
 20
175.55570414
  0
HATCH
  5
183
100
AcDbEntity
  8
MST_1_1
 62
    12
100
AcDbHatch
 10
0.0
 20
0.0
 30
0.0
210
0.0
220
0.0
230
1.0
  2
SOLID
 70
     1
 71
     1
 91
        1
 92
        7
 72
     0
 73
     1
 93
       43
 10
230.74587472
 20
175.55570414
 10
230.74587472
 20
174.04113747
 10
231.25352472
 20
174.04113747
 10
231.34436284
 20
174.04310577
 10
231.43096766
 20
174.04900387
 10
231.51330987
 20
174.05882157
 10
231.59136019
 20
174.07254867
 10
231.66508931
 20
174.09017497
 10
231.73446792
 20
174.11169027
 10
231.79946674
 20
174.13708437
 10
231.86005646
 20
174.16634707
 10
231.91620777
 20
174.19946817
 10
231.96789139
 20
174.23643747
 10
232.01496014
 20
174.27725484
 10
232.05709339
 20
174.3213424
 10
232.09428664
 20
174.36870837
 10
232.12653539
 20
174.41936094
 10
232.15383514
 20
174.4733083
 10
232.17618139
 20
174.53055867
 10
232.19356964
 20
174.59112024
 10
232.20599539
 20
174.6550012
 10
232.21345414
 20
174.72220977
 10
232.21594139
 20
174.79275414
 10
232.21340762
 20
174.86301182
 10
232.20579926
 20
174.9301276
 10
232.19310569
 20
174.99410559
 10
232.17531632
 20
175.05494987
 10
232.15242056
 20
175.11266455
 10
232.12440779
 20
175.16725374
 10
232.09126742
 20
175.21872152
 10
232.05298886
 20
175.267072
 10
232.00956149
 20
175.31230929
 10
231.96097472
 20
175.35443747
 10
231.90822882
 20
175.39246889
 10
231.85150552
 20
175.4265628
 10
231.79079642
 20
175.45670372
 10
231.72609312
 20
175.48287614
 10
231.65738722
 20
175.50506455
 10
231.58467032
 20
175.52325347
 10
231.50793402
 20
175.53742739
 10
231.42716992
 20
175.5475708
 10
231.34236962
 20
175.55366822
 10
231.25352472
 20
175.55570414
 97
        1
330
182
 75
     0
 76
     2
 47
0.775229
 98
        1
 10
0.0
 20
0.0
  0
LWPOLYLINE
  5
184
102
{ACAD_REACTORS
330
185
102
}
100
AcDbEntity
  8
MST_1_1
 62
    12
100
AcDbPolyline
 90
       10
 70
     1
 43
0.0
 10
268.50832472
 20
168.99473747
 10
268.50832472
 20
178.08125414
 10
268.50832472
 20
178.08125414
 10
272.97615806
 20
178.08125414
 10
272.97615806
 20
178.08125414
 10
272.97615806
 20
168.99473747
 10
272.97615806
 20
168.99473747
 10
268.50832472
 20
168.99473747
 10
268.50832472
 20
168.99473747
 10
268.50832472
 20
168.99473747
  0
HATCH
  5
185
100
AcDbEntity
  8
MST_1_1
 62
    12
100
AcDbHatch
 10
0.0
 20
0.0
 30
0.0
210
0.0
220
0.0
230
1.0
  2
SOLID
 70
     1
 71
     1
 91
        1
 92
        7
 72
     0
 73
     1
 93
        4
 10
268.50832472
 20
168.99473747
 10
268.50832472
 20
178.08125414
 10
272.97615806
 20
178.08125414
 10
272.97615806
 20
168.99473747
 97
        1
330
184
 75
     0
 76
     2
 47
0.775229
 98
        1
 10
0.0
 20
0.0
  0
LWPOLYLINE
  5
186
102
{ACAD_REACTORS
330
187
102
}
100
AcDbEntity
  8
MST_1_1
 62
    12
100
AcDbPolyline
 90
      114
 70
     1
 43
0.0
 10
280.72549139
 20
171.05585414
 10
280.69113739
 20
171.11067249
 10
280.65857939
 20
171.16322294
 10
280.62782339
 20
171.21352859
 10
280.59887539
 20
171.26161254
 10
280.57174139
 20
171.30749789
 10
280.54642739
 20
171.35120774
 10
280.52293939
 20
171.39276519
 10
280.50128339
 20
171.43219334
 10
280.48146539
 20
171.46951529
 10
280.46349139
 20
171.50475414
 10
280.46349139
 20
171.50475414
 10
280.44618872
 20
171.5387053
 10
280.42987006
 20
171.57191547
 10
280.41451939
 20
171.60439464
 10
280.40012072
 20
171.6361528
 10
280.38665806
 20
171.66719997
 10
280.37411539
 20
171.69754614
 10
280.36247672
 20
171.7272013
 10
280.35172606
 20
171.75617547
 10
280.34184739
 20
171.78447864
 10
280.33282472
 20
171.8121208
 10
280.33282472
 20
171.8121208
 10
280.32516039
 20
171.78591682
 10
280.31673006
 20
171.75915294
 10
280.30747772
 20
171.73182625
 10
280.29734739
 20
171.70393387
 10
280.28628306
 20
171.67547289
 10
280.27422872
 20
171.6464404
 10
280.26112839
 20
171.61683352
 10
280.24692606
 20
171.58664934
 10
280.23156572
 20
171.55588495
 10
280.21499139
 20
171.52453747
 10
280.21499139
 20
171.52453747
 10
280.19765506
 20
171.49113149
 10
280.17766072
 20
171.4546936
 10
280.15503039
 20
171.41523892
 10
280.12978606
 20
171.37278254
 10
280.10194972
 20
171.32733955
 10
280.07154339
 20
171.27892507
 10
280.03858906
 20
171.22755419
 10
280.00310872
 20
171.173242
 10
279.96512439
 20
171.11600362
 10
279.92465806
 20
171.05585414
 10
279.92465806
 20
171.05585414
 10
278.53499139
 20
168.99473747
 10
278.53499139
 20
168.99473747
 10
273.50732472
 20
168.99473747
 10
273.50732472
 20
168.99473747
 10
277.85015806
 20
173.83475414
 10
277.85015806
 20
173.83475414
 10
274.01815806
 20
178.08125414
 10
274.01815806
 20
178.08125414
 10
279.03765806
 20
178.08125414
 10
279.03765806
 20
178.08125414
 10
279.94099139
 20
176.5981708
 10
279.94099139
 20
176.5981708
 10
279.94381739
 20
176.59265772
 10
279.94717939
 20
176.58656014
 10
279.95105339
 20
176.57988055
 10
279.95541539
 20
176.57262147
 10
279.96024139
 20
176.56478539
 10
279.96550739
 20
176.5563748
 10
279.97118939
 20
176.54739222
 10
279.97726339
 20
176.53784014
 10
279.98370539
 20
176.52772105
 10
279.99049139
 20
176.51703747
 10
279.99049139
 20
176.51703747
 10
280.03922672
 20
176.43438455
 10
280.08473406
 20
176.35513614
 10
280.12701539
 20
176.27930772
 10
280.16607272
 20
176.2069148
 10
280.20190806
 20
176.13797289
 10
280.23452339
 20
176.07249747
 10
280.26392072
 20
176.01050405
 10
280.29010206
 20
175.95200814
 10
280.31306939
 20
175.89702522
 10
280.33282472
 20
175.8455708
 10
280.33282472
 20
175.8455708
 10
280.34493839
 20
175.8782141
 10
280.35759406
 20
175.9109632
 10
280.37081372
 20
175.9438319
 10
280.38461939
 20
175.976834
 10
280.39903306
 20
176.0099833
 10
280.41407672
 20
176.0432936
 10
280.42977239
 20
176.0767787
 10
280.44614206
 20
176.1104524
 10
280.46320772
 20
176.1443285
 10
280.48099139
 20
176.1784208
 10
280.48099139
 20
176.1784208
 10
280.49827772
 20
176.21350315
 10
280.51690206
 20
176.2501436
 10
280.53681239
 20
176.28833225
 10
280.55795672
 20
176.3280592
 10
280.58028306
 20
176.36931455
 10
280.60373939
 20
176.4120884
 10
280.62827372
 20
176.45637085
 10
280.65383406
 20
176.502152
 10
280.68036839
 20
176.54942195
 10
280.70782472
 20
176.5981708
 10
280.70782472
 20
176.5981708
 10
281.63532472
 20
178.08125414
 10
281.63532472
 20
178.08125414
 10
286.63199139
 20
178.08125414
 10
286.63199139
 20
178.08125414
 10
282.81265806
 20
173.83475414
 10
282.81265806
 20
173.83475414
 10
287.16032472
 20
168.99473747
 10
287.16032472
 20
168.99473747
 10
282.12815806
 20
168.99473747
 10
282.12815806
 20
168.99473747
 10
280.72549139
 20
171.05585414
 10
280.72549139
 20
171.05585414
 10
280.72549139
 20
171.05585414
  0
HATCH
  5
187
100
AcDbEntity
  8
MST_1_1
 62
    12
100
AcDbHatch
 10
0.0
 20
0.0
 30
0.0
210
0.0
220
0.0
230
1.0
  2
SOLID
 70
     1
 71
     1
 91
        1
 92
        7
 72
     0
 73
     1
 93
       92
 10
280.72549139
 20
171.05585414
 10
280.69113739
 20
171.11067249
 10
280.65857939
 20
171.16322294
 10
280.62782339
 20
171.21352859
 10
280.59887539
 20
171.26161254
 10
280.57174139
 20
171.30749789
 10
280.54642739
 20
171.35120774
 10
280.52293939
 20
171.39276519
 10
280.50128339
 20
171.43219334
 10
280.48146539
 20
171.46951529
 10
280.46349139
 20
171.50475414
 10
280.44618872
 20
171.5387053
 10
280.42987006
 20
171.57191547
 10
280.41451939
 20
171.60439464
 10
280.40012072
 20
171.6361528
 10
280.38665806
 20
171.66719997
 10
280.37411539
 20
171.69754614
 10
280.36247672
 20
171.7272013
 10
280.35172606
 20
171.75617547
 10
280.34184739
 20
171.78447864
 10
280.33282472
 20
171.8121208
 10
280.32516039
 20
171.78591682
 10
280.31673006
 20
171.75915294
 10
280.30747772
 20
171.73182625
 10
280.29734739
 20
171.70393387
 10
280.28628306
 20
171.67547289
 10
280.27422872
 20
171.6464404
 10
280.26112839
 20
171.61683352
 10
280.24692606
 20
171.58664934
 10
280.23156572
 20
171.55588495
 10
280.21499139
 20
171.52453747
 10
280.19765506
 20
171.49113149
 10
280.17766072
 20
171.4546936
 10
280.15503039
 20
171.41523892
 10
280.12978606
 20
171.37278254
 10
280.10194972
 20
171.32733955
 10
280.07154339
 20
171.27892507
 10
280.03858906
 20
171.22755419
 10
280.00310872
 20
171.173242
 10
279.96512439
 20
171.11600362
 10
279.92465806
 20
171.05585414
 10
278.53499139
 20
168.99473747
 10
273.50732472
 20
168.99473747
 10
277.85015806
 20
173.83475414
 10
274.01815806
 20
178.08125414
 10
279.03765806
 20
178.08125414
 10
279.94099139
 20
176.5981708
 10
279.94381739
 20
176.59265772
 10
279.94717939
 20
176.58656014
 10
279.95105339
 20
176.57988055
 10
279.95541539
 20
176.57262147
 10
279.96024139
 20
176.56478539
 10
279.96550739
 20
176.5563748
 10
279.97118939
 20
176.54739222
 10
279.97726339
 20
176.53784014
 10
279.98370539
 20
176.52772105
 10
279.99049139
 20
176.51703747
 10
280.03922672
 20
176.43438455
 10
280.08473406
 20
176.35513614
 10
280.12701539
 20
176.27930772
 10
280.16607272
 20
176.2069148
 10
280.20190806
 20
176.13797289
 10
280.23452339
 20
176.07249747
 10
280.26392072
 20
176.01050405
 10
280.29010206
 20
175.95200814
 10
280.31306939
 20
175.89702522
 10
280.33282472
 20
175.8455708
 10
280.34493839
 20
175.8782141
 10
280.35759406
 20
175.9109632
 10
280.37081372
 20
175.9438319
 10
280.38461939
 20
175.976834
 10
280.39903306
 20
176.0099833
 10
280.41407672
 20
176.0432936
 10
280.42977239
 20
176.0767787
 10
280.44614206
 20
176.1104524
 10
280.46320772
 20
176.1443285
 10
280.48099139
 20
176.1784208
 10
280.49827772
 20
176.21350315
 10
280.51690206
 20
176.2501436
 10
280.53681239
 20
176.28833225
 10
280.55795672
 20
176.3280592
 10
280.58028306
 20
176.36931455
 10
280.60373939
 20
176.4120884
 10
280.62827372
 20
176.45637085
 10
280.65383406
 20
176.502152
 10
280.68036839
 20
176.54942195
 10
280.70782472
 20
176.5981708
 10
281.63532472
 20
178.08125414
 10
286.63199139
 20
178.08125414
 10
282.81265806
 20
173.83475414
 10
287.16032472
 20
168.99473747
 10
282.12815806
 20
168.99473747
 97
        1
330
186
 75
     0
 76
     2
 47
0.775229
 98
        1
 10
0.0
 20
0.0
  0
LWPOLYLINE
  5
188
102
{ACAD_REACTORS
330
189
102
}
100
AcDbEntity
  8
MST_1_1
 62
     7
100
AcDbPolyline
 90
       46
 70
     1
 43
0.0
 10
291.47549139
 20
184.20730414
 10
291.58802189
 20
184.19819064
 10
291.69493539
 20
184.17181614
 10
291.79476489
 20
184.12962964
 10
291.88604339
 20
184.07308014
 10
291.96730389
 20
184.00361664
 10
292.03707939
 20
183.92268814
 10
292.09390289
 20
183.83174364
 10
292.13630739
 20
183.73223214
 10
292.16282589
 20
183.62560264
 10
292.17199139
 20
183.51330414
 10
292.17199139
 20
183.51330414
 10
292.16282589
 20
183.40115047
 10
292.13630739
 20
183.2946548
 10
292.09390289
 20
183.19526514
 10
292.03707939
 20
183.10442947
 10
291.96730389
 20
183.0235958
 10
291.88604339
 20
182.95421214
 10
291.79476489
 20
182.89772647
 10
291.69493539
 20
182.8555868
 10
291.58802189
 20
182.82924114
 10
291.47549139
 20
182.82013747
 10
291.47549139
 20
182.82013747
 10
291.36237056
 20
182.82924114
 10
291.25506472
 20
182.8555868
 10
291.15500889
 20
182.89772647
 10
291.06363806
 20
182.95421214
 10
290.98238722
 20
183.0235958
 10
290.91269139
 20
183.10442947
 10
290.85598556
 20
183.19526514
 10
290.81370472
 20
183.2946548
 10
290.78728389
 20
183.40115047
 10
290.77815806
 20
183.51330414
 10
290.77815806
 20
183.51330414
 10
290.78728389
 20
183.62560264
 10
290.81370472
 20
183.73223214
 10
290.85598556
 20
183.83174364
 10
290.91269139
 20
183.92268814
 10
290.98238722
 20
184.00361664
 10
291.06363806
 20
184.07308014
 10
291.15500889
 20
184.12962964
 10
291.25506472
 20
184.17181614
 10
291.36237056
 20
184.19819064
 10
291.47549139
 20
184.20730414
 10
291.47549139
 20
184.20730414
 10
291.47549139
 20
184.20730414
  0
HATCH
  5
189
100
AcDbEntity
  8
MST_1_1
 62
     7
100
AcDbHatch
 10
0.0
 20
0.0
 30
0.0
210
0.0
220
0.0
230
1.0
  2
SOLID
 70
     1
 71
     1
 91
        1
 92
        7
 72
     0
 73
     1
 93
       40
 10
291.47549139
 20
184.20730414
 10
291.58802189
 20
184.19819064
 10
291.69493539
 20
184.17181614
 10
291.79476489
 20
184.12962964
 10
291.88604339
 20
184.07308014
 10
291.96730389
 20
184.00361664
 10
292.03707939
 20
183.92268814
 10
292.09390289
 20
183.83174364
 10
292.13630739
 20
183.73223214
 10
292.16282589
 20
183.62560264
 10
292.17199139
 20
183.51330414
 10
292.16282589
 20
183.40115047
 10
292.13630739
 20
183.2946548
 10
292.09390289
 20
183.19526514
 10
292.03707939
 20
183.10442947
 10
291.96730389
 20
183.0235958
 10
291.88604339
 20
182.95421214
 10
291.79476489
 20
182.89772647
 10
291.69493539
 20
182.8555868
 10
291.58802189
 20
182.82924114
 10
291.47549139
 20
182.82013747
 10
291.36237056
 20
182.82924114
 10
291.25506472
 20
182.8555868
 10
291.15500889
 20
182.89772647
 10
291.06363806
 20
182.95421214
 10
290.98238722
 20
183.0235958
 10
290.91269139
 20
183.10442947
 10
290.85598556
 20
183.19526514
 10
290.81370472
 20
183.2946548
 10
290.78728389
 20
183.40115047
 10
290.77815806
 20
183.51330414
 10
290.78728389
 20
183.62560264
 10
290.81370472
 20
183.73223214
 10
290.85598556
 20
183.83174364
 10
290.91269139
 20
183.92268814
 10
290.98238722
 20
184.00361664
 10
291.06363806
 20
184.07308014
 10
291.15500889
 20
184.12962964
 10
291.25506472
 20
184.17181614
 10
291.36237056
 20
184.19819064
 97
        1
330
188
 75
     0
 76
     2
 47
0.775229
 98
        1
 10
0.0
 20
0.0
  0
LWPOLYLINE
  5
18A
102
{ACAD_REACTORS
330
18B
102
}
100
AcDbEntity
  8
MST_1_1
 62
    12
100
AcDbPolyline
 90
       29
 70
     1
 43
0.0
 10
291.15582472
 20
183.99530414
 10
291.15582472
 20
183.08863747
 10
291.15582472
 20
183.08863747
 10
291.28999139
 20
183.08863747
 10
291.28999139
 20
183.08863747
 10
291.28999139
 20
183.49563747
 10
291.28999139
 20
183.49563747
 10
291.46832472
 20
183.49563747
 10
291.46832472
 20
183.49563747
 10
291.72765806
 20
183.09463747
 10
291.72765806
 20
183.09463747
 10
291.86382472
 20
183.09463747
 10
291.86382472
 20
183.09463747
 10
291.60499139
 20
183.5029708
 10
291.60499139
 20
183.5029708
 10
291.69357839
 20
183.52139247
 10
291.76324739
 20
183.56154414
 10
291.81371039
 20
183.6178558
 10
291.84467939
 20
183.68475747
 10
291.85586639
 20
183.75667914
 10
291.84698339
 20
183.8280508
 10
291.81774239
 20
183.89330247
 10
291.76785539
 20
183.94686414
 10
291.69703439
 20
183.9831658
 10
291.60499139
 20
183.99663747
 10
291.60499139
 20
183.99663747
 10
291.15582472
 20
183.99530414
 10
291.15582472
 20
183.99530414
 10
291.15582472
 20
183.99530414
  0
HATCH
  5
18B
100
AcDbEntity
  8
MST_1_1
 62
    12
100
AcDbHatch
 10
0.0
 20
0.0
 30
0.0
210
0.0
220
0.0
230
1.0
  2
SOLID
 70
     1
 71
     1
 91
        1
 92
        7
 72
     0
 73
     1
 93
       18
 10
291.15582472
 20
183.99530414
 10
291.15582472
 20
183.08863747
 10
291.28999139
 20
183.08863747
 10
291.28999139
 20
183.49563747
 10
291.46832472
 20
183.49563747
 10
291.72765806
 20
183.09463747
 10
291.86382472
 20
183.09463747
 10
291.60499139
 20
183.5029708
 10
291.69357839
 20
183.52139247
 10
291.76324739
 20
183.56154414
 10
291.81371039
 20
183.6178558
 10
291.84467939
 20
183.68475747
 10
291.85586639
 20
183.75667914
 10
291.84698339
 20
183.8280508
 10
291.81774239
 20
183.89330247
 10
291.76785539
 20
183.94686414
 10
291.69703439
 20
183.9831658
 10
291.60499139
 20
183.99663747
 97
        1
330
18A
 75
     0
 76
     2
 47
0.775229
 98
        1
 10
0.0
 20
0.0
  0
LWPOLYLINE
  5
18C
102
{ACAD_REACTORS
330
18D
102
}
100
AcDbEntity
  8
MST_1_1
 62
     7
100
AcDbPolyline
 90
       19
 70
     1
 43
0.0
 10
291.28999139
 20
183.89213747
 10
291.28999139
 20
183.6014708
 10
291.28999139
 20
183.6014708
 10
291.59132472
 20
183.60230414
 10
291.59132472
 20
183.60230414
 10
291.64430322
 20
183.61415447
 10
291.68577272
 20
183.6385268
 10
291.71563422
 20
183.67215314
 10
291.73378872
 20
183.71176547
 10
291.74013722
 20
183.7540958
 10
291.73458072
 20
183.79587614
 10
291.71702022
 20
183.83383847
 10
291.68735672
 20
183.8647148
 10
291.64549122
 20
183.88523714
 10
291.59132472
 20
183.89213747
 10
291.59132472
 20
183.89213747
 10
291.28999139
 20
183.89213747
 10
291.28999139
 20
183.89213747
 10
291.28999139
 20
183.89213747
  0
HATCH
  5
18D
100
AcDbEntity
  8
MST_1_1
 62
     7
100
AcDbHatch
 10
0.0
 20
0.0
 30
0.0
210
0.0
220
0.0
230
1.0
  2
SOLID
 70
     1
 71
     1
 91
        1
 92
        7
 72
     0
 73
     1
 93
       13
 10
291.28999139
 20
183.89213747
 10
291.28999139
 20
183.6014708
 10
291.59132472
 20
183.60230414
 10
291.64430322
 20
183.61415447
 10
291.68577272
 20
183.6385268
 10
291.71563422
 20
183.67215314
 10
291.73378872
 20
183.71176547
 10
291.74013722
 20
183.7540958
 10
291.73458072
 20
183.79587614
 10
291.71702022
 20
183.83383847
 10
291.68735672
 20
183.8647148
 10
291.64549122
 20
183.88523714
 10
291.59132472
 20
183.89213747
 97
        1
330
18C
 75
     0
 76
     2
 47
0.775229
 98
        1
 10
0.0
 20
0.0
  0
TEXT
  5
18E
100
AcDbEntity
  8
MST_1_1
 62
     7
100
AcDbText
 10
18.93749597
 20
28.54545025
 30
0.0
 40
5.0
  1
16
  7
ARIAL
 50
89.9999975
 41
0.8
 51
0.0
100
AcDbText
  0
TEXT
  5
18F
100
AcDbEntity
  8
MST_1_1
 62
     7
100
AcDbText
 10
-74.03786152
 20
-53.95454975
 30
0.0
 40
5.0
  1
HECO-FIX-plus SK 2.5x16
  7
ARIAL
 50
0.0
 41
0.8
 51
0.0
100
AcDbText
  0
TEXT
  5
190
100
AcDbEntity
  8
MST_1_1
 62
     7
100
AcDbText
 10
-125.01578694
 20
-53.95454975
 30
0.0
 40
5.0
  1
T-Drive T8
  7
ARIAL
 50
0.0
 41
0.8
 51
0.0
100
AcDbText
  0
TEXT
  5
191
100
AcDbEntity
  8
MST_1_1
 62
     7
100
AcDbText
 10
-74.03786152
 20
-23.95454975
 30
0.0
 40
5.0
  1
HECO-FIX-plus SK 2.5x12
  7
ARIAL
 50
0.0
 41
0.8
 51
0.0
100
AcDbText
  0
TEXT
  5
192
100
AcDbEntity
  8
MST_1_1
 62
     7
100
AcDbText
 10
-125.01578694
 20
-23.95454975
 30
0.0
 40
5.0
  1
T-Drive T8
  7
ARIAL
 50
0.0
 41
0.8
 51
0.0
100
AcDbText
  0
TEXT
  5
193
100
AcDbEntity
  8
MST_1_1
 62
     7
100
AcDbText
 10
-74.03786152
 20
6.04545025
 30
0.0
 40
5.0
  1
HECO-FIX-plus SK 2.5x10
  7
ARIAL
 50
0.0
 41
0.8
 51
0.0
100
AcDbText
  0
TEXT
  5
194
100
AcDbEntity
  8
MST_1_1
 62
     7
100
AcDbText
 10
-125.01578694
 20
6.04545025
 30
0.0
 40
5.0
  1
T-Drive T8
  7
ARIAL
 50
0.0
 41
0.8
 51
0.0
100
AcDbText
  0
TEXT
  5
195
100
AcDbEntity
  8
MST_1_1
 62
     7
100
AcDbText
 10
14.93749597
 20
23.54545025
 30
0.0
 40
5.0
  1
12
  7
ARIAL
 50
89.9999975
 41
0.8
 51
0.0
100
AcDbText
  0
TEXT
  5
196
100
AcDbEntity
  8
MST_1_1
 62
     7
100
AcDbText
 10
12.93749597
 20
28.54545025
 30
0.0
 40
5.0
  1
10
  7
ARIAL
 50
89.9999975
 41
0.8
 51
0.0
100
AcDbText
  0
ENDSEC
  0
SECTION
  2
OBJECTS
  0
DICTIONARY
  5
1
100
AcDbDictionary
  3
ACAD_GROUP
350
2
  3
ACAD_MLINESTYLE
350
3
  0
DICTIONARY
  5
2
102
{CDWK_REACTORS
330
1
102
}
100
AcDbDictionary
  0
DICTIONARY
  5
3
102
{CDWK_REACTORS
330
1
102
}
100
AcDbDictionary
  3
STANDARD
350
4
  0
MLINESTYLE
  5
4
102
{CDWK_REACTORS
330
3
102
}
100
AcDbMlineStyle
  2
STANDARD
 70
     0
  3

 62
     0
 51
90.0
 52
90.0
 71
     2
 49
0.5
 62
   256
  6
BYLAYER
 49
-0.5
 62
   256
  6
BYLAYER
  0
ENDSEC
  0
EOF
