  0
SECTION
  2
HEADER
  9
$ACADVER
  1
AC1012
  9
$DWGCODEPAGE
  3
ANSI_1252
  9
$INSBASE
 10
0.0
 20
0.0
 30
0.0
  9
$EXTMIN
 10
-139.11436701
 20
-389.45750379
  9
$EXTMAX
 10
284.49807221
 20
188.45489003
  9
$LIMMIN
 10
-139.11436701
 20
-389.45750379
  9
$LIMMAX
 10
284.49807221
 20
188.45489003
  9
$ORTHOMODE
 70
     0
  9
$REGENMODE
 70
     1
  9
$FILLMODE
 70
     1
  9
$QTEXTMODE
 70
     0
  9
$MIRRTEXT
 70
     1
  9
$DRAGMODE
 70
     2
  9
$LTSCALE
 40
1.0
  9
$OSMODE
 70
     0
  9
$ATTMODE
 70
     1
  9
$TEXTSIZE
 40
3.5
  9
$TRACEWID
 40
1.0
  9
$TEXTSTYLE
  7
STANDARD
  9
$CLAYER
  8
0
  9
$CELTYPE
  6
BYLAYER
  9
$CECOLOR
 62
   256
  9
$DIMSCALE
 40
1.0
  9
$DIMASZ
 40
2.0
  9
$DIMEXO
 40
5.0
  9
$DIMDLI
 40
10.0
  9
$DIMRND
 40
0.0
  9
$DIMDLE
 40
2.0
  9
$DIMEXE
 40
2.0
  9
$DIMTP
 40
0.0
  9
$DIMTM
 40
0.0
  9
$DIMTXT
 40
2.5
  9
$DIMCEN
 40
1.5
  9
$DIMTSZ
 40
0.0
  9
$DIMTOL
 70
     0
  9
$DIMLIM
 70
     0
  9
$DIMTIH
 70
     1
  9
$DIMTOH
 70
     0
  9
$DIMSE1
 70
     0
  9
$DIMSE2
 70
     0
  9
$DIMTAD
 70
     1
  9
$DIMZIN
 70
     8
  9
$DIMBLK
  1

  9
$DIMASO
 70
     1
  9
$DIMSHO
 70
     1
  9
$DIMPOST
  1

  9
$DIMAPOST
  1

  9
$DIMALT
 70
     0
  9
$DIMALTD
 70
     2
  9
$DIMALTF
 40
25.4
  9
$DIMLFAC
 40
1.0
  9
$DIMTOFL
 70
     0
  9
$DIMTVP
 40
0.0
  9
$DIMTIX
 70
     0
  9
$DIMSOXD
 70
     0
  9
$DIMSAH
 70
     0
  9
$DIMBLK1
  1

  9
$DIMBLK2
  1

  9
$DIMSTYLE
  2
*UNNAMED
  9
$DIMCLRD
 70
     9
  9
$DIMCLRE
 70
     9
  9
$DIMCLRT
 70
     7
  9
$DIMTFAC
 40
1.0
  9
$DIMGAP
 40
0.09
  9
$DIMUNIT
 70
     2
  9
$LUNITS
 70
     2
  9
$LUPREC
 70
     6
  9
$AXISMODE
 70
     0
  9
$AXISUNIT
 10
0.0
 20
0.0
  9
$SKETCHINC
 40
0.1
  9
$FILLETRAD
 40
0.0
  9
$AUNITS
 70
     0
  9
$AUPREC
 70
     0
  9
$MENU
  1
ACAD
  9
$ELEVATION
 40
0.0
  9
$PELEVATION
 40
0.0
  9
$THICKNESS
 40
0.0
  9
$LIMCHECK
 70
     0
  9
$BLIPMODE
 70
     1
  9
$CHAMFERA
 40
0.0
  9
$CHAMFERB
 40
0.0
  9
$SKPOLY
 70
     1
  9
$TDCREATE
 40
2456119.0000000000
  9
$TDUPDATE
 40
2456119.0000000000
  9
$TDINDWG
 40
0.0
  9
$TDUSRTIMER
 40
0.0
  9
$USRTIMER
 70
     1
  9
$ANGBASE
 50
0.0
  9
$ANGDIR
 70
     0
  9
$PDMODE
 70
     0
  9
$PDSIZE
 40
0.0
  9
$PLINEWID
 40
0.0
  9
$COORDS
 70
     2
  9
$SPLFRAME
 70
     0
  9
$SPLINETYPE
 70
     6
  9
$SPLINESEGS
 70
     8
  9
$ATTDIA
 70
     1
  9
$ATTREQ
 70
     1
  9
$HANDLING
 70
     1
  9
$HANDSEED
  5
     441
  9
$SURFTAB1
 70
     6
  9
$SURFTAB2
 70
     6
  9
$SURFTYPE
 70
     6
  9
$SURFU
 70
     6
  9
$SURFV
 70
     6
  9
$UCSNAME
  2

  9
$UCSORG
 10
0.0
 20
0.0
 30
0.0
  9
$UCSXDIR
 10
1.0
 20
0.0
 30
0.0
  9
$UCSYDIR
 10
0.0
 20
1.0
 30
0.0
  9
$PUCSNAME
  2

  9
$PUCSORG
 10
0.0
 20
0.0
 30
0.0
  9
$PUCSXDIR
 10
1.0
 20
0.0
 30
0.0
  9
$PUCSYDIR
 10
0.0
 20
1.0
 30
0.0
  9
$USERI1
 70
     0
  9
$USERI2
 70
     0
  9
$USERI3
 70
     0
  9
$USERI4
 70
     0
  9
$USERI5
 70
     0
  9
$USERR1
 40
0.0
  9
$USERR2
 40
0.0
  9
$USERR3
 40
0.0
  9
$USERR4
 40
0.0
  9
$USERR5
 40
0.0
  9
$WORLDVIEW
 70
     1
  9
$SHADEDGE
 70
     3
  9
$SHADEDIF
 70
    70
  9
$TILEMODE
 70
     1
  9
$MAXACTVP
 70
    16
  9
$PINSBASE
 10
0.0
 20
0.0
 30
0.0
  9
$PLIMCHECK
 70
     0
  9
$PEXTMIN
 10
1.0000000000000E+20
 20
1.0000000000000E+20
 30
1.0000000000000E+20
  9
$PEXTMAX
 10
-1.0000000000000E+20
 20
-1.0000000000000E+20
 30
-1.0000000000000E+20
  9
$PLIMMIN
 10
0.0
 20
0.0
  9
$UNITMODE
 70
     0
  9
$VISRETAIN
 70
     0
  9
$MEASUREMENT
 70
     1
  0
ENDSEC
  0
SECTION
  2
TABLES
  0
TABLE
  2
VPORT
  5
3B
100
AcDbSymbolTable
 70
     1
  0
ENDTAB
  0
TABLE
  2
STYLE
  5
3C
100
AcDbSymbolTable
 70
     4
  0
STYLE
  5
3D
100
AcDbSymbolTableRecord
100
AcDbTextStyleTableRecord
  2
STANDARD
 70
     0
 40
0.0
 41
1.0
 50
0.0
 71
     0
 42
3.5
  3
MONOTXT
  4

  0
STYLE
  5
3E
100
AcDbSymbolTableRecord
100
AcDbTextStyleTableRecord
  2
CADWORK1
 70
     0
 40
0.0
 41
1.0
 50
0.0
 71
     0
 42
3.5
  3
MONOTXT
  4

  0
STYLE
  5
3F
100
AcDbSymbolTableRecord
100
AcDbTextStyleTableRecord
  2
MONOTXT
 70
     0
 40
0.0
 41
1.0
 50
0.0
 71
     0
 42
3.5
  3
MONOTXT
  4

  0
STYLE
  5
40
100
AcDbSymbolTableRecord
100
AcDbTextStyleTableRecord
  2
TAHOMA
 70
     0
 40
0.0
 41
1.0
 50
0.0
 71
     0
 42
3.5
  3

  4

1001
ACAD
1000
Tahoma
1071
        0
  0
STYLE
  5
41
100
AcDbSymbolTableRecord
100
AcDbTextStyleTableRecord
  2
ARIAL
 70
     0
 40
0.0
 41
1.0
 50
0.0
 71
     0
 42
3.5
  3

  4

1001
ACAD
1000
Arial
1071
        0
  0
ENDTAB
  0
TABLE
  2
LTYPE
  5
42
100
AcDbSymbolTable
 70
    12
  0
LTYPE
  5
43
100
AcDbSymbolTableRecord
100
AcDbLinetypeTableRecord
  2
BYBLOCK
 70
    64
  3

 72
    65
 73
     0
 40
0.0
  0
LTYPE
  5
44
100
AcDbSymbolTableRecord
100
AcDbLinetypeTableRecord
  2
BYLAYER
 70
    64
  3

 72
    65
 73
     0
 40
0.0
  0
LTYPE
  5
45
100
AcDbSymbolTableRecord
100
AcDbLinetypeTableRecord
  2
CONTINUOUS
 70
    64
  3
Solid line
 72
    65
 73
     0
 40
0.0
  0
LTYPE
  5
46
100
AcDbSymbolTableRecord
100
AcDbLinetypeTableRecord
  2
DOT
 70
    64
  3
. . . . . . . . . . . . . . . . . . . . . . . .
 72
    65
 73
     2
 40
2.5
 49
0.0
 74
     0
 49
-2.5
 74
     0
  0
LTYPE
  5
47
100
AcDbSymbolTableRecord
100
AcDbLinetypeTableRecord
  2
DASHED
 70
    64
  3
__ __ __ __ __ __ __ __ __ __ __ __ __ __ __ __
 72
    65
 73
     2
 40
7.5
 49
5.0
 74
     0
 49
-2.5
 74
     0
  0
LTYPE
  5
48
100
AcDbSymbolTableRecord
100
AcDbLinetypeTableRecord
  2
BORDER
 70
    64
  3
 __ __ . __ __ . __ __ . __ __ . __ __ . __ __ .
 72
    65
 73
     6
 40
17.0
 49
5.0
 74
     0
 49
-2.0
 74
     0
 49
5.0
 74
     0
 49
-2.0
 74
     0
 49
1.0
 74
     0
 49
-2.0
 74
     0
  0
LTYPE
  5
49
100
AcDbSymbolTableRecord
100
AcDbLinetypeTableRecord
  2
DAL
 70
    64
  3
Solid line (for MAPS)
 72
    65
 73
     0
 40
0.0
  0
LTYPE
  5
4A
100
AcDbSymbolTableRecord
100
AcDbLinetypeTableRecord
  2
MUR
 70
    64
  3
Solid line (for MAPS)
 72
    65
 73
     0
 40
0.0
  0
LTYPE
  5
4B
100
AcDbSymbolTableRecord
100
AcDbLinetypeTableRecord
  2
SOM
 70
    64
  3
Solid line (for MAPS)
 72
    65
 73
     0
 40
0.0
  0
LTYPE
  5
4C
100
AcDbSymbolTableRecord
100
AcDbLinetypeTableRecord
  2
COL
 70
    64
  3
Solid line (for MAPS)
 72
    65
 73
     0
 40
0.0
  0
LTYPE
  5
4D
100
AcDbSymbolTableRecord
100
AcDbLinetypeTableRecord
  2
LGN
 70
    64
  3
Solid line (for MAPS)
 72
    65
 73
     0
 40
0.0
  0
LTYPE
  5
4E
100
AcDbSymbolTableRecord
100
AcDbLinetypeTableRecord
  2
PNT
 70
    64
  3
Solid line (for MAPS)
 72
    65
 73
     0
 40
0.0
  0
ENDTAB
  0
TABLE
  2
LAYER
  5
4F
100
AcDbSymbolTable
 70
     1
  0
LAYER
  5
50
100
AcDbSymbolTableRecord
100
AcDbLayerTableRecord
  2
0
 70
     0
 62
     1
  6
CONTINUOUS
  0
LAYER
  5
51
100
AcDbSymbolTableRecord
100
AcDbLayerTableRecord
  2
MST_1_1
 70
     0
 62
     7
  6
CONTINUOUS
  0
ENDTAB
  0
TABLE
  2
VIEW
  5
52
100
AcDbSymbolTable
 70
     0
  0
ENDTAB
  0
TABLE
  2
UCS
  5
53
100
AcDbSymbolTable
 70
     0
  0
ENDTAB
  0
TABLE
  2
APPID
  5
54
100
AcDbSymbolTable
 70
     1
  0
APPID
  5
55
100
AcDbSymbolTableRecord
100
AcDbRegAppTableRecord
  2
ACAD
 70
     0
  0
ENDTAB
  0
TABLE
  2
DIMSTYLE
  5
56
100
AcDbSymbolTable
 70
     0
  0
ENDTAB
  0
TABLE
  2
BLOCK_RECORD
  5
57
100
AcDbSymbolTable
 70
     0
  0
BLOCK_RECORD
  5
58
100
AcDbSymbolTableRecord
100
AcDbBlockTableRecord
  2
*MODEL_SPACE
  0
BLOCK_RECORD
  5
59
100
AcDbSymbolTableRecord
100
AcDbBlockTableRecord
  2
*PAPER_SPACE
  0
BLOCK_RECORD
  5
5A
100
AcDbSymbolTableRecord
100
AcDbBlockTableRecord
  2
CDWK_EXTR_0
  0
BLOCK_RECORD
  5
5B
100
AcDbSymbolTableRecord
100
AcDbBlockTableRecord
  2
CDWK_EXTR_1D
  0
BLOCK_RECORD
  5
5C
100
AcDbSymbolTableRecord
100
AcDbBlockTableRecord
  2
CDWK_EXTR_1G
  0
BLOCK_RECORD
  5
5D
100
AcDbSymbolTableRecord
100
AcDbBlockTableRecord
  2
CDWK_EXTR_2
  0
BLOCK_RECORD
  5
5E
100
AcDbSymbolTableRecord
100
AcDbBlockTableRecord
  2
CDWK_EXTR_3
  0
BLOCK_RECORD
  5
5F
100
AcDbSymbolTableRecord
100
AcDbBlockTableRecord
  2
CDWK_EXTR_4
  0
BLOCK_RECORD
  5
60
100
AcDbSymbolTableRecord
100
AcDbBlockTableRecord
  2
CDWK_PTTYP0
  0
ENDTAB
  0
ENDSEC
  0
SECTION
  2
BLOCKS
  0
BLOCK
  5
61
100
AcDbEntity
  8
0
100
AcDbBlockBegin
  2
*MODEL_SPACE
 70
     0
 10
0.0
 20
0.0
 30
0.0
  3
*MODEL_SPACE
  1

  0
ENDBLK
  5
62
100
AcDbEntity
100
AcDbBlockEnd
  0
BLOCK
  5
63
100
AcDbEntity
  8
0
100
AcDbBlockBegin
  2
*PAPER_SPACE
 70
     0
 10
0.0
 20
0.0
 30
0.0
  3
*PAPER_SPACE
  1

  0
ENDBLK
  5
64
100
AcDbEntity
100
AcDbBlockEnd
  0
BLOCK
  5
65
100
AcDbEntity
  8
0
100
AcDbBlockBegin
  2
CDWK_EXTR_0
 70
     0
 10
0.0
 20
0.0
 30
0.0
  3
CDWK_EXTR_0
  1

  4
Cadwork line-extremity
  0
LINE
  5
66
100
AcDbEntity
  8
0
 62
     0
100
AcDbLine
 10
0.0
 20
0.0
 30
0.0
 11
2.0
 21
0.5
 31
0.0
  0
LINE
  5
67
100
AcDbEntity
  8
0
 62
     0
100
AcDbLine
 10
0.0
 20
0.0
 30
0.0
 11
2.0
 21
-0.5
 31
0.0
  0
LINE
  5
68
100
AcDbEntity
  8
0
 62
     0
100
AcDbLine
 10
2.0
 20
0.5
 30
0.0
 11
2.0
 21
-0.5
 31
0.0
  0
ENDBLK
  5
69
100
AcDbEntity
100
AcDbBlockEnd
  0
BLOCK
  5
6A
100
AcDbEntity
  8
0
100
AcDbBlockBegin
  2
CDWK_EXTR_1D
 70
     0
 10
0.0
 20
0.0
 30
0.0
  3
CDWK_EXTR_1D
  1

  4
Cadwork line-extremity
  0
LINE
  5
6B
100
AcDbEntity
  8
0
 62
     0
100
AcDbLine
 10
0.0
 20
0.0
 30
0.0
 11
0.0
 21
1.0
 31
0.0
  0
LINE
  5
6C
100
AcDbEntity
  8
0
 62
     0
100
AcDbLine
 10
0.0
 20
1.0
 30
0.0
 11
0.5
 21
1.5
 31
0.0
  0
LINE
  5
6D
100
AcDbEntity
  8
0
 62
     0
100
AcDbLine
 10
0.5
 20
1.5
 30
0.0
 11
1.5
 21
1.5
 31
0.0
  0
ENDBLK
  5
6E
100
AcDbEntity
100
AcDbBlockEnd
  0
BLOCK
  5
6F
100
AcDbEntity
  8
0
100
AcDbBlockBegin
  2
CDWK_EXTR_1G
 70
     0
 10
0.0
 20
0.0
 30
0.0
  3
CDWK_EXTR_1G
  1

  4
Cadwork line-extremity
  0
LINE
  5
70
100
AcDbEntity
  8
0
 62
     0
100
AcDbLine
 10
0.0
 20
0.0
 30
0.0
 11
0.0
 21
-1.0
 31
0.0
  0
LINE
  5
71
100
AcDbEntity
  8
0
 62
     0
100
AcDbLine
 10
0.0
 20
-1.0
 30
0.0
 11
0.5
 21
-1.5
 31
0.0
  0
LINE
  5
72
100
AcDbEntity
  8
0
 62
     0
100
AcDbLine
 10
0.5
 20
-1.5
 30
0.0
 11
1.5
 21
-1.5
 31
0.0
  0
ENDBLK
  5
73
100
AcDbEntity
100
AcDbBlockEnd
  0
BLOCK
  5
74
100
AcDbEntity
  8
0
100
AcDbBlockBegin
  2
CDWK_EXTR_2
 70
     0
 10
0.0
 20
0.0
 30
0.0
  3
CDWK_EXTR_2
  1

  4
Cadwork line-extremity
  0
SOLID
  5
75
100
AcDbEntity
  8
0
 62
     0
100
AcDbTrace
 10
0.0
 20
0.0
 11
2.0
 21
0.5
 12
2.0
 22
-0.5
 13
2.0
 23
-0.5
  0
ENDBLK
  5
76
100
AcDbEntity
100
AcDbBlockEnd
  0
BLOCK
  5
77
100
AcDbEntity
  8
0
100
AcDbBlockBegin
  2
CDWK_EXTR_3
 70
     0
 10
0.0
 20
0.0
 30
0.0
  3
CDWK_EXTR_3
  1

  4
Cadwork line-extremity
  0
SOLID
  5
78
100
AcDbEntity
  8
0
 62
     0
100
AcDbTrace
 10
0.0
 20
0.0
 11
2.0
 21
0.5
 12
2.0
 22
-0.5
 13
2.0
 23
-0.5
  0
LINE
  5
79
100
AcDbEntity
  8
0
 62
     0
100
AcDbLine
 10
0.0
 20
1.0
 30
0.0
 11
0.0
 21
-1.0
 31
0.0
  0
ENDBLK
  5
7A
100
AcDbEntity
100
AcDbBlockEnd
  0
BLOCK
  5
7B
100
AcDbEntity
  8
0
100
AcDbBlockBegin
  2
CDWK_EXTR_4
 70
     0
 10
0.0
 20
0.0
 30
0.0
  3
CDWK_EXTR_4
  1

  4
Cadwork line-extremity
  0
POLYLINE
  5
7C
100
AcDbEntity
  8
0
 62
     0
100
AcDb2dPolyline
 70
     1
 66
     1
 10
0.0
 20
0.0
 30
0.0
 40
0.5
 41
0.5
  0
VERTEX
  5
7D
100
AcDbEntity
  8
0
100
AcDbVertex
100
AcDb2dVertex
 10
-0.25
 20
0.0
 30
0.0
 42
1.0
  0
VERTEX
  5
7E
100
AcDbEntity
  8
0
100
AcDbVertex
100
AcDb2dVertex
 10
0.25
 20
0.0
 30
0.0
 42
1.0
  0
SEQEND
  5
7F
100
AcDbEntity
  0
ENDBLK
  5
80
100
AcDbEntity
100
AcDbBlockEnd
  0
BLOCK
  5
81
100
AcDbEntity
  8
0
100
AcDbBlockBegin
  2
CDWK_PTTYP0
 70
     0
 10
0.0
 20
0.0
 30
0.0
  3
CDWK_PTTYP0
  1

  4
Cadwork point
  0
POINT
  5
82
100
AcDbEntity
  8
0
 62
     0
100
AcDbPoint
 10
0.0
 20
0.0
 30
0.0
  0
ENDBLK
  5
83
100
AcDbEntity
100
AcDbBlockEnd
  0
ENDSEC
  0
SECTION
  2
ENTITIES
  0
LINE
  5
84
100
AcDbEntity
  8
MST_1_1
 62
     7
  6
DASHED
100
AcDbLine
 10
-2.06250403
 20
28.54545025
 30
0.0
 11
-2.06250403
 21
-246.45454975
 31
0.0
  0
LINE
  5
85
100
AcDbEntity
  8
MST_1_1
 62
     7
  6
DASHED
100
AcDbLine
 10
47.93749597
 20
28.54545025
 30
0.0
 11
47.93749597
 21
-246.45454975
 31
0.0
  0
LINE
  5
86
100
AcDbEntity
  8
MST_1_1
 62
     7
  6
DASHED
100
AcDbLine
 10
37.93749597
 20
28.54545025
 30
0.0
 11
37.93749597
 21
-186.45454975
 31
0.0
  0
LINE
  5
87
100
AcDbEntity
  8
MST_1_1
 62
     7
  6
DASHED
100
AcDbLine
 10
32.93749597
 20
18.54545025
 30
0.0
 11
32.93749597
 21
-156.45454975
 31
0.0
  0
LINE
  5
88
100
AcDbEntity
  8
MST_1_1
 62
     7
  6
DASHED
100
AcDbLine
 10
27.93749597
 20
28.54545025
 30
0.0
 11
27.93749597
 21
-126.45454975
 31
0.0
  0
LWPOLYLINE
  5
89
100
AcDbEntity
  8
MST_1_1
 62
     1
  6
BORDER
100
AcDbPolyline
 90
        3
 70
     0
 43
0.0
 10
22.93749597
 20
-81.45454975
 10
-2.06250403
 20
-81.45454975
 10
-7.06250403
 20
-81.45454975
  0
LINE
  5
8A
100
AcDbEntity
  8
MST_1_1
 62
   137
  6
CONTINUOUS
100
AcDbLine
 10
-2.06250403
 20
-81.45454975
 30
0.0
 11
-2.06250403
 21
-77.45454975
 31
0.0
  0
LINE
  5
8B
100
AcDbEntity
  8
MST_1_1
 62
   137
  6
CONTINUOUS
100
AcDbLine
 10
-2.06250403
 20
-77.45454975
 30
0.0
 11
-1.96250406
 21
-77.45454975
 31
0.0
  0
LWPOLYLINE
  5
8C
100
AcDbEntity
  8
MST_1_1
 62
   137
  6
CONTINUOUS
100
AcDbPolyline
 90
        6
 70
     0
 43
0.0
 38
2500.0
 10
3.22904766
 20
-79.45454961
 10
3.05178168
 20
-80.22026403
 10
4.55051101
 20
-83.45454975
 10
4.72777705
 20
-82.68883546
 10
3.22904766
 20
-79.45454961
 10
4.55051101
 20
-83.45454975
  0
LINE
  5
8D
100
AcDbEntity
  8
MST_1_1
 62
   137
  6
CONTINUOUS
100
AcDbLine
 10
0.43749597
 20
-80.22026403
 30
2500.0
 11
3.05178168
 21
-80.22026403
 31
2500.0
  0
LWPOLYLINE
  5
8E
100
AcDbEntity
  8
MST_1_1
 62
   137
  6
CONTINUOUS
100
AcDbPolyline
 90
        4
 70
     0
 43
0.0
 38
2500.0
 10
1.90997388
 20
-82.68883546
 10
2.26479673
 20
-83.45454975
 10
2.44206277
 20
-82.68883546
 10
2.17617646
 20
-82.11504788
  0
LINE
  5
8F
100
AcDbEntity
  8
MST_1_1
 62
   137
  6
CONTINUOUS
100
AcDbLine
 10
1.96946672
 20
-82.56060134
 30
2500.0
 11
2.26479673
 21
-83.45454975
 31
2500.0
  0
LINE
  5
90
100
AcDbEntity
  8
MST_1_1
 62
   137
  6
CONTINUOUS
100
AcDbLine
 10
1.90997388
 20
-82.68883546
 30
2500.0
 11
2.17617646
 21
-82.11504788
 31
2500.0
  0
LINE
  5
91
100
AcDbEntity
  8
MST_1_1
 62
   137
  6
CONTINUOUS
100
AcDbLine
 10
4.19568817
 20
-82.68883546
 30
2500.0
 11
2.44206277
 21
-82.68883546
 31
2500.0
  0
LINE
  5
92
100
AcDbEntity
  8
MST_1_1
 62
   137
  6
CONTINUOUS
100
AcDbLine
 10
1.90997388
 20
-82.68883546
 30
2500.0
 11
0.43749597
 21
-82.68883546
 31
2500.0
  0
LINE
  5
93
100
AcDbEntity
  8
MST_1_1
 62
     7
  6
DASHED
100
AcDbLine
 10
22.93749597
 20
18.54545025
 30
0.0
 11
22.93749597
 21
-96.45454975
 31
0.0
  0
LINE
  5
94
100
AcDbEntity
  8
MST_1_1
 62
     7
  6
DASHED
100
AcDbLine
 10
17.93749597
 20
28.54545025
 30
0.0
 11
17.93749597
 21
-66.45454975
 31
0.0
  0
LINE
  5
95
100
AcDbEntity
  8
MST_1_1
 62
     7
  6
DASHED
100
AcDbLine
 10
13.93749597
 20
18.54545025
 30
0.0
 11
13.93749597
 21
-36.45454975
 31
0.0
  0
LINE
  5
96
100
AcDbEntity
  8
MST_1_1
 62
     7
  6
DASHED
100
AcDbLine
 10
9.93749597
 20
28.54545025
 30
0.0
 11
9.93749597
 21
-6.45454975
 31
0.0
  0
LINE
  5
97
100
AcDbEntity
  8
MST_1_1
 62
   137
  6
CONTINUOUS
100
AcDbLine
 10
-1.96250406
 20
-77.45454975
 30
0.0
 11
0.43749597
 21
-80.22026403
 31
0.0
  0
LINE
  5
98
100
AcDbEntity
  8
MST_1_1
 62
   137
  6
CONTINUOUS
100
AcDbLine
 10
0.43749597
 20
-82.68883546
 30
0.0
 11
-1.96250406
 21
-85.45454975
 31
0.0
  0
LINE
  5
99
100
AcDbEntity
  8
MST_1_1
 62
   137
  6
CONTINUOUS
100
AcDbLine
 10
-1.96250406
 20
-85.45454975
 30
0.0
 11
-2.06250403
 21
-85.45454975
 31
0.0
  0
LINE
  5
9A
100
AcDbEntity
  8
MST_1_1
 62
   137
  6
CONTINUOUS
100
AcDbLine
 10
-2.06250403
 20
-85.45454975
 30
0.0
 11
-2.06250403
 21
-81.45454975
 31
0.0
  0
LWPOLYLINE
  5
9B
100
AcDbEntity
  8
MST_1_1
 62
   137
  6
CONTINUOUS
100
AcDbPolyline
 90
        6
 70
     0
 43
0.0
 38
2500.0
 10
5.51476195
 20
-79.45454961
 10
5.33749597
 20
-80.22026403
 10
6.8362253
 20
-83.45454975
 10
7.01349134
 20
-82.68883546
 10
5.51476195
 20
-79.45454961
 10
6.8362253
 20
-83.45454975
  0
LWPOLYLINE
  5
9C
100
AcDbEntity
  8
MST_1_1
 62
   137
  6
CONTINUOUS
100
AcDbPolyline
 90
        6
 70
     0
 43
0.0
 38
2500.0
 10
7.80047623
 20
-79.45454961
 10
7.62321025
 20
-80.22026403
 10
9.12193958
 20
-83.45454975
 10
9.29920563
 20
-82.68883546
 10
7.80047623
 20
-79.45454961
 10
9.12193958
 20
-83.45454975
  0
LWPOLYLINE
  5
9D
100
AcDbEntity
  8
MST_1_1
 62
   137
  6
CONTINUOUS
100
AcDbPolyline
 90
        6
 70
     0
 43
0.0
 38
2500.0
 10
10.08619052
 20
-79.45454961
 10
9.90892454
 20
-80.22026403
 10
11.40765387
 20
-83.45454975
 10
11.58491991
 20
-82.68883546
 10
10.08619052
 20
-79.45454961
 10
11.40765387
 20
-83.45454975
  0
LWPOLYLINE
  5
9E
100
AcDbEntity
  8
MST_1_1
 62
   137
  6
CONTINUOUS
100
AcDbPolyline
 90
        6
 70
     0
 43
0.0
 38
2500.0
 10
12.37190481
 20
-79.45454961
 10
12.19463883
 20
-80.22026403
 10
13.69336815
 20
-83.45454975
 10
13.8706342
 20
-82.68883546
 10
12.37190481
 20
-79.45454961
 10
13.69336815
 20
-83.45454975
  0
LWPOLYLINE
  5
9F
100
AcDbEntity
  8
MST_1_1
 62
   137
  6
CONTINUOUS
100
AcDbPolyline
 90
        6
 70
     0
 43
0.0
 38
2500.0
 10
14.65761909
 20
-79.45454961
 10
14.48035311
 20
-80.22026403
 10
15.97908244
 20
-83.45454975
 10
16.12933982
 20
-82.63055028
 10
14.65761909
 20
-79.45454961
 10
15.97908244
 20
-83.45454975
  0
LWPOLYLINE
  5
A0
100
AcDbEntity
  8
MST_1_1
 62
   137
  6
CONTINUOUS
100
AcDbPolyline
 90
        6
 70
     0
 43
0.0
 38
2500.0
 10
16.90965284
 20
-79.71476598
 10
16.7660674
 20
-80.33499467
 10
18.00374447
 20
-83.00592477
 10
18.14732991
 20
-82.38569608
 10
16.90965284
 20
-79.71476598
 10
17.98003815
 20
-82.95476609
  0
LINE
  5
A1
100
AcDbEntity
  8
MST_1_1
 62
   251
  6
CONTINUOUS
100
AcDbLine
 10
4.72777705
 20
-82.68883546
 30
2500.0
 11
6.48140245
 21
-82.68883546
 31
2500.0
  0
LINE
  5
A2
100
AcDbEntity
  8
MST_1_1
 62
   251
  6
CONTINUOUS
100
AcDbLine
 10
7.01349134
 20
-82.68883546
 30
2500.0
 11
8.76711674
 21
-82.68883546
 31
2500.0
  0
LINE
  5
A3
100
AcDbEntity
  8
MST_1_1
 62
   251
  6
CONTINUOUS
100
AcDbLine
 10
9.29920563
 20
-82.68883546
 30
2500.0
 11
11.05283102
 21
-82.68883546
 31
2500.0
  0
LINE
  5
A4
100
AcDbEntity
  8
MST_1_1
 62
   251
  6
CONTINUOUS
100
AcDbLine
 10
11.58491991
 20
-82.68883546
 30
2500.0
 11
13.33854531
 21
-82.68883546
 31
2500.0
  0
LINE
  5
A5
100
AcDbEntity
  8
MST_1_1
 62
   251
  6
CONTINUOUS
100
AcDbLine
 10
13.8706342
 20
-82.68883546
 30
2500.0
 11
15.01478424
 21
-82.68378087
 31
2500.0
  0
LINE
  5
A6
100
AcDbEntity
  8
MST_1_1
 62
   251
  6
CONTINUOUS
100
AcDbLine
 10
5.33749597
 20
-80.22026403
 30
2500.0
 11
3.58387057
 21
-80.22026403
 31
2500.0
  0
LINE
  5
A7
100
AcDbEntity
  8
MST_1_1
 62
   251
  6
CONTINUOUS
100
AcDbLine
 10
7.62321025
 20
-80.22026403
 30
2500.0
 11
5.86958486
 21
-80.22026403
 31
2500.0
  0
LINE
  5
A8
100
AcDbEntity
  8
MST_1_1
 62
   251
  6
CONTINUOUS
100
AcDbLine
 10
9.90892454
 20
-80.22026403
 30
2500.0
 11
8.15529914
 21
-80.22026403
 31
2500.0
  0
LINE
  5
A9
100
AcDbEntity
  8
MST_1_1
 62
   251
  6
CONTINUOUS
100
AcDbLine
 10
12.19463883
 20
-80.22026403
 30
2500.0
 11
10.44101343
 21
-80.22026403
 31
2500.0
  0
LINE
  5
AA
100
AcDbEntity
  8
MST_1_1
 62
   251
  6
CONTINUOUS
100
AcDbLine
 10
14.48035311
 20
-80.22026403
 30
2500.0
 11
12.72672771
 21
-80.22026403
 31
2500.0
  0
ARC
  5
AB
100
AcDbEntity
  8
MST_1_1
 62
   251
  6
CONTINUOUS
100
AcDbCircle
 10
14.54363085
 20
-101.78548655
 30
2500.0
 40
21.56531535
100
AcDbArc
 50
84.08482032
 51
88.74811714
  0
LWPOLYLINE
  5
AC
100
AcDbEntity
  8
MST_1_1
 62
   251
  6
CONTINUOUS
100
AcDbPolyline
 90
        3
 70
     0
 43
0.0
 38
2500.0
 10
22.93749597
 20
-81.45454975
 10
18.68913071
 20
-80.62236634
 42
0.01723995
 10
17.22117589
 20
-80.3870385
  0
ARC
  5
AD
100
AcDbEntity
  8
MST_1_1
 62
   251
  6
CONTINUOUS
100
AcDbCircle
 10
14.54363085
 20
-61.12361295
 30
2500.0
 40
21.56531535
100
AcDbArc
 50
271.25189287
 51
272.83975061
  0
LWPOLYLINE
  5
AE
100
AcDbEntity
  8
MST_1_1
 62
   251
  6
CONTINUOUS
100
AcDbPolyline
 90
        3
 70
     0
 43
0.0
 38
2500.0
 10
22.93749597
 20
-81.45454975
 10
18.68913071
 20
-82.28673316
 42
-0.0063851
 10
18.14732991
 20
-82.38569608
  0
ARC
  5
AF
100
AcDbEntity
  8
MST_1_1
 62
   251
  6
CONTINUOUS
100
AcDbCircle
 10
14.54363085
 20
-61.12361295
 30
2500.0
 40
21.56531535
100
AcDbArc
 50
274.21680449
 51
278.53995004
  0
LWPOLYLINE
  5
B0
100
AcDbEntity
  8
MST_1_1
 62
   137
  6
CONTINUOUS
100
AcDbPolyline
 90
        6
 70
     0
 43
0.0
 38
2500.0
 10
19.14654808
 20
-80.28405264
 10
19.05178168
 20
-80.69340357
 10
19.86864855
 20
-82.45621744
 10
19.95927534
 20
-82.03793316
 10
19.14654808
 20
-80.28405264
 10
19.85300238
 20
-82.42245271
  0
LWPOLYLINE
  5
B1
100
AcDbEntity
  8
MST_1_1
 62
     1
  6
BORDER
100
AcDbPolyline
 90
        3
 70
     0
 43
0.0
 10
17.93749597
 20
-51.45454975
 10
-2.06250403
 20
-51.45454975
 10
-7.06250403
 20
-51.45454975
  0
LWPOLYLINE
  5
B2
100
AcDbEntity
  8
MST_1_1
 62
     1
  6
BORDER
100
AcDbPolyline
 90
        3
 70
     0
 43
0.0
 10
13.93749597
 20
-21.45454975
 10
-2.06250403
 20
-21.45454975
 10
-7.06250403
 20
-21.45454975
  0
LWPOLYLINE
  5
B3
100
AcDbEntity
  8
MST_1_1
 62
     1
  6
BORDER
100
AcDbPolyline
 90
        3
 70
     0
 43
0.0
 10
9.93749597
 20
8.54545025
 10
-2.06250403
 20
8.54545025
 10
-7.06250403
 20
8.54545025
  0
LWPOLYLINE
  5
B4
100
AcDbEntity
  8
MST_1_1
 62
     1
  6
BORDER
100
AcDbPolyline
 90
        3
 70
     0
 43
0.0
 10
27.93749597
 20
-111.45454975
 10
-2.06250403
 20
-111.45454975
 10
-7.06250403
 20
-111.45454975
  0
LWPOLYLINE
  5
B5
100
AcDbEntity
  8
MST_1_1
 62
     1
  6
BORDER
100
AcDbPolyline
 90
        3
 70
     0
 43
0.0
 10
32.93749597
 20
-141.45454975
 10
-2.06250403
 20
-141.45454975
 10
-7.06250403
 20
-141.45454975
  0
LWPOLYLINE
  5
B6
100
AcDbEntity
  8
MST_1_1
 62
     1
  6
BORDER
100
AcDbPolyline
 90
        3
 70
     0
 43
0.0
 10
37.93749597
 20
-171.45454975
 10
-2.06250403
 20
-171.45454975
 10
-7.06250403
 20
-171.45454975
  0
LWPOLYLINE
  5
B7
100
AcDbEntity
  8
MST_1_1
 62
     1
  6
BORDER
100
AcDbPolyline
 90
        3
 70
     0
 43
0.0
 10
42.93749597
 20
-201.45454975
 10
-2.06250403
 20
-201.45454975
 10
-7.06250403
 20
-201.45454975
  0
LINE
  5
B8
100
AcDbEntity
  8
MST_1_1
 62
     7
  6
DASHED
100
AcDbLine
 10
42.93749597
 20
18.54545025
 30
0.0
 11
42.93749597
 21
-216.45454975
 31
0.0
  0
LINE
  5
B9
100
AcDbEntity
  8
MST_1_1
 62
   137
  6
CONTINUOUS
100
AcDbLine
 10
-2.06250403
 20
-51.45454975
 30
0.0
 11
-2.06250403
 21
-47.45454975
 31
0.0
  0
LINE
  5
BA
100
AcDbEntity
  8
MST_1_1
 62
   137
  6
CONTINUOUS
100
AcDbLine
 10
-2.06250403
 20
-47.45454975
 30
0.0
 11
-1.96250406
 21
-47.45454975
 31
0.0
  0
LWPOLYLINE
  5
BB
100
AcDbEntity
  8
MST_1_1
 62
   137
  6
CONTINUOUS
100
AcDbPolyline
 90
        6
 70
     0
 43
0.0
 38
2500.0
 10
2.80047623
 20
-49.45454961
 10
2.62321025
 20
-50.22026403
 10
4.12193958
 20
-53.45454975
 10
4.29920563
 20
-52.68883546
 10
2.80047623
 20
-49.45454961
 10
4.12193958
 20
-53.45454975
  0
LINE
  5
BC
100
AcDbEntity
  8
MST_1_1
 62
   137
  6
CONTINUOUS
100
AcDbLine
 10
0.43749597
 20
-50.22026403
 30
2500.0
 11
2.62321025
 21
-50.22026403
 31
2500.0
  0
LWPOLYLINE
  5
BD
100
AcDbEntity
  8
MST_1_1
 62
   137
  6
CONTINUOUS
100
AcDbPolyline
 90
        4
 70
     0
 43
0.0
 38
2500.0
 10
1.48140245
 20
-52.68883546
 10
1.8362253
 20
-53.45454975
 10
2.01349134
 20
-52.68883546
 10
1.74760504
 20
-52.11504788
  0
LINE
  5
BE
100
AcDbEntity
  8
MST_1_1
 62
   137
  6
CONTINUOUS
100
AcDbLine
 10
1.54089529
 20
-52.56060134
 30
2500.0
 11
1.8362253
 21
-53.45454975
 31
2500.0
  0
LINE
  5
BF
100
AcDbEntity
  8
MST_1_1
 62
   137
  6
CONTINUOUS
100
AcDbLine
 10
1.48140245
 20
-52.68883546
 30
2500.0
 11
1.74760504
 21
-52.11504788
 31
2500.0
  0
LINE
  5
C0
100
AcDbEntity
  8
MST_1_1
 62
   137
  6
CONTINUOUS
100
AcDbLine
 10
3.76711674
 20
-52.68883546
 30
2500.0
 11
2.01349134
 21
-52.68883546
 31
2500.0
  0
LINE
  5
C1
100
AcDbEntity
  8
MST_1_1
 62
   137
  6
CONTINUOUS
100
AcDbLine
 10
1.48140245
 20
-52.68883546
 30
2500.0
 11
0.43749597
 21
-52.68883546
 31
2500.0
  0
LINE
  5
C2
100
AcDbEntity
  8
MST_1_1
 62
   137
  6
CONTINUOUS
100
AcDbLine
 10
-1.96250406
 20
-47.45454975
 30
0.0
 11
0.43749597
 21
-50.22026403
 31
0.0
  0
LINE
  5
C3
100
AcDbEntity
  8
MST_1_1
 62
   137
  6
CONTINUOUS
100
AcDbLine
 10
0.43749597
 20
-52.68883546
 30
0.0
 11
-1.96250406
 21
-55.45454975
 31
0.0
  0
LINE
  5
C4
100
AcDbEntity
  8
MST_1_1
 62
   137
  6
CONTINUOUS
100
AcDbLine
 10
-1.96250406
 20
-55.45454975
 30
0.0
 11
-2.06250403
 21
-55.45454975
 31
0.0
  0
LINE
  5
C5
100
AcDbEntity
  8
MST_1_1
 62
   137
  6
CONTINUOUS
100
AcDbLine
 10
-2.06250403
 20
-55.45454975
 30
0.0
 11
-2.06250403
 21
-51.45454975
 31
0.0
  0
LWPOLYLINE
  5
C6
100
AcDbEntity
  8
MST_1_1
 62
   137
  6
CONTINUOUS
100
AcDbPolyline
 90
        6
 70
     0
 43
0.0
 38
2500.0
 10
5.08619052
 20
-49.45454961
 10
4.90892454
 20
-50.22026403
 10
6.40765387
 20
-53.45454975
 10
6.58491991
 20
-52.68883546
 10
5.08619052
 20
-49.45454961
 10
6.40765387
 20
-53.45454975
  0
LWPOLYLINE
  5
C7
100
AcDbEntity
  8
MST_1_1
 62
   137
  6
CONTINUOUS
100
AcDbPolyline
 90
        6
 70
     0
 43
0.0
 38
2500.0
 10
7.37190481
 20
-49.45454961
 10
7.19463883
 20
-50.22026403
 10
8.69336815
 20
-53.45454975
 10
8.8706342
 20
-52.68883546
 10
7.37190481
 20
-49.45454961
 10
8.69336815
 20
-53.45454975
  0
LWPOLYLINE
  5
C8
100
AcDbEntity
  8
MST_1_1
 62
   137
  6
CONTINUOUS
100
AcDbPolyline
 90
        6
 70
     0
 43
0.0
 38
2500.0
 10
9.65761909
 20
-49.45454961
 10
9.48035311
 20
-50.22026403
 10
10.97908244
 20
-53.45454975
 10
11.12933982
 20
-52.63055028
 10
9.65761909
 20
-49.45454961
 10
10.97908244
 20
-53.45454975
  0
LWPOLYLINE
  5
C9
100
AcDbEntity
  8
MST_1_1
 62
   137
  6
CONTINUOUS
100
AcDbPolyline
 90
        6
 70
     0
 43
0.0
 38
2500.0
 10
11.90965284
 20
-49.71476598
 10
11.7660674
 20
-50.33499467
 10
13.00374447
 20
-53.00592477
 10
13.14732991
 20
-52.38569608
 10
11.90965284
 20
-49.71476598
 10
12.98003815
 20
-52.95476609
  0
LINE
  5
CA
100
AcDbEntity
  8
MST_1_1
 62
   251
  6
CONTINUOUS
100
AcDbLine
 10
4.29920563
 20
-52.68883546
 30
2500.0
 11
6.05283102
 21
-52.68883546
 31
2500.0
  0
LINE
  5
CB
100
AcDbEntity
  8
MST_1_1
 62
   251
  6
CONTINUOUS
100
AcDbLine
 10
6.58491991
 20
-52.68883546
 30
2500.0
 11
8.33854531
 21
-52.68883546
 31
2500.0
  0
LINE
  5
CC
100
AcDbEntity
  8
MST_1_1
 62
   251
  6
CONTINUOUS
100
AcDbLine
 10
8.8706342
 20
-52.68883546
 30
2500.0
 11
10.01478424
 21
-52.68378087
 31
2500.0
  0
LINE
  5
CD
100
AcDbEntity
  8
MST_1_1
 62
   251
  6
CONTINUOUS
100
AcDbLine
 10
4.90892454
 20
-50.22026403
 30
2500.0
 11
3.15529914
 21
-50.22026403
 31
2500.0
  0
LINE
  5
CE
100
AcDbEntity
  8
MST_1_1
 62
   251
  6
CONTINUOUS
100
AcDbLine
 10
7.19463883
 20
-50.22026403
 30
2500.0
 11
5.44101343
 21
-50.22026403
 31
2500.0
  0
LINE
  5
CF
100
AcDbEntity
  8
MST_1_1
 62
   251
  6
CONTINUOUS
100
AcDbLine
 10
9.48035311
 20
-50.22026403
 30
2500.0
 11
7.72672771
 21
-50.22026403
 31
2500.0
  0
ARC
  5
D0
100
AcDbEntity
  8
MST_1_1
 62
   251
  6
CONTINUOUS
100
AcDbCircle
 10
9.54363085
 20
-71.78548655
 30
2500.0
 40
21.56531535
100
AcDbArc
 50
84.08482032
 51
88.74811714
  0
LWPOLYLINE
  5
D1
100
AcDbEntity
  8
MST_1_1
 62
   251
  6
CONTINUOUS
100
AcDbPolyline
 90
        3
 70
     0
 43
0.0
 38
2500.0
 10
17.93749597
 20
-51.45454975
 10
13.68913071
 20
-50.62236634
 42
0.01723995
 10
12.22117589
 20
-50.3870385
  0
ARC
  5
D2
100
AcDbEntity
  8
MST_1_1
 62
   251
  6
CONTINUOUS
100
AcDbCircle
 10
9.54363085
 20
-31.12361295
 30
2500.0
 40
21.56531535
100
AcDbArc
 50
271.25189287
 51
272.83975061
  0
LWPOLYLINE
  5
D3
100
AcDbEntity
  8
MST_1_1
 62
   251
  6
CONTINUOUS
100
AcDbPolyline
 90
        3
 70
     0
 43
0.0
 38
2500.0
 10
17.93749597
 20
-51.45454975
 10
13.68913071
 20
-52.28673316
 42
-0.0063851
 10
13.14732991
 20
-52.38569608
  0
ARC
  5
D4
100
AcDbEntity
  8
MST_1_1
 62
   251
  6
CONTINUOUS
100
AcDbCircle
 10
9.54363085
 20
-31.12361295
 30
2500.0
 40
21.56531535
100
AcDbArc
 50
274.21680449
 51
278.53995004
  0
LWPOLYLINE
  5
D5
100
AcDbEntity
  8
MST_1_1
 62
   137
  6
CONTINUOUS
100
AcDbPolyline
 90
        6
 70
     0
 43
0.0
 38
2500.0
 10
14.14654808
 20
-50.28405264
 10
14.05178168
 20
-50.69340357
 10
14.86864855
 20
-52.45621744
 10
14.95927534
 20
-52.03793316
 10
14.14654808
 20
-50.28405264
 10
14.85300238
 20
-52.42245271
  0
LINE
  5
D6
100
AcDbEntity
  8
MST_1_1
 62
   137
  6
CONTINUOUS
100
AcDbLine
 10
-2.06250403
 20
-21.45454975
 30
0.0
 11
-2.06250403
 21
-17.45454975
 31
0.0
  0
LINE
  5
D7
100
AcDbEntity
  8
MST_1_1
 62
   137
  6
CONTINUOUS
100
AcDbLine
 10
-2.06250403
 20
-17.45454975
 30
0.0
 11
-1.96250406
 21
-17.45454975
 31
0.0
  0
LWPOLYLINE
  5
D8
100
AcDbEntity
  8
MST_1_1
 62
   137
  6
CONTINUOUS
100
AcDbPolyline
 90
        6
 70
     0
 43
0.0
 38
2500.0
 10
3.37190481
 20
-19.45454961
 10
3.19463883
 20
-20.22026403
 10
4.69336815
 20
-23.45454975
 10
4.8706342
 20
-22.68883546
 10
3.37190481
 20
-19.45454961
 10
4.69336815
 20
-23.45454975
  0
LINE
  5
D9
100
AcDbEntity
  8
MST_1_1
 62
   137
  6
CONTINUOUS
100
AcDbLine
 10
0.43749597
 20
-20.22026403
 30
2500.0
 11
3.19463883
 21
-20.22026403
 31
2500.0
  0
LWPOLYLINE
  5
DA
100
AcDbEntity
  8
MST_1_1
 62
   137
  6
CONTINUOUS
100
AcDbPolyline
 90
        4
 70
     0
 43
0.0
 38
2500.0
 10
2.05283102
 20
-22.68883546
 10
2.40765387
 20
-23.45454975
 10
2.58491991
 20
-22.68883546
 10
2.31903361
 20
-22.11504788
  0
LINE
  5
DB
100
AcDbEntity
  8
MST_1_1
 62
   137
  6
CONTINUOUS
100
AcDbLine
 10
2.11232387
 20
-22.56060134
 30
2500.0
 11
2.40765387
 21
-23.45454975
 31
2500.0
  0
LINE
  5
DC
100
AcDbEntity
  8
MST_1_1
 62
   137
  6
CONTINUOUS
100
AcDbLine
 10
2.05283102
 20
-22.68883546
 30
2500.0
 11
2.31903361
 21
-22.11504788
 31
2500.0
  0
LINE
  5
DD
100
AcDbEntity
  8
MST_1_1
 62
   137
  6
CONTINUOUS
100
AcDbLine
 10
4.33854531
 20
-22.68883546
 30
2500.0
 11
2.58491991
 21
-22.68883546
 31
2500.0
  0
LINE
  5
DE
100
AcDbEntity
  8
MST_1_1
 62
   137
  6
CONTINUOUS
100
AcDbLine
 10
2.05283102
 20
-22.68883546
 30
2500.0
 11
0.43749597
 21
-22.68883546
 31
2500.0
  0
LINE
  5
DF
100
AcDbEntity
  8
MST_1_1
 62
   137
  6
CONTINUOUS
100
AcDbLine
 10
-1.96250406
 20
-17.45454975
 30
0.0
 11
0.43749597
 21
-20.22026403
 31
0.0
  0
LINE
  5
E0
100
AcDbEntity
  8
MST_1_1
 62
   137
  6
CONTINUOUS
100
AcDbLine
 10
0.43749597
 20
-22.68883546
 30
0.0
 11
-1.96250406
 21
-25.45454975
 31
0.0
  0
LINE
  5
E1
100
AcDbEntity
  8
MST_1_1
 62
   137
  6
CONTINUOUS
100
AcDbLine
 10
-1.96250406
 20
-25.45454975
 30
0.0
 11
-2.06250403
 21
-25.45454975
 31
0.0
  0
LINE
  5
E2
100
AcDbEntity
  8
MST_1_1
 62
   137
  6
CONTINUOUS
100
AcDbLine
 10
-2.06250403
 20
-25.45454975
 30
0.0
 11
-2.06250403
 21
-21.45454975
 31
0.0
  0
LWPOLYLINE
  5
E3
100
AcDbEntity
  8
MST_1_1
 62
   137
  6
CONTINUOUS
100
AcDbPolyline
 90
        6
 70
     0
 43
0.0
 38
2500.0
 10
5.65761909
 20
-19.45454961
 10
5.48035311
 20
-20.22026403
 10
6.97908244
 20
-23.45454975
 10
7.12933982
 20
-22.63055028
 10
5.65761909
 20
-19.45454961
 10
6.97908244
 20
-23.45454975
  0
LWPOLYLINE
  5
E4
100
AcDbEntity
  8
MST_1_1
 62
   137
  6
CONTINUOUS
100
AcDbPolyline
 90
        6
 70
     0
 43
0.0
 38
2500.0
 10
7.90965284
 20
-19.71476598
 10
7.7660674
 20
-20.33499467
 10
9.00374447
 20
-23.00592477
 10
9.14732991
 20
-22.38569608
 10
7.90965284
 20
-19.71476598
 10
8.98003815
 20
-22.95476609
  0
LINE
  5
E5
100
AcDbEntity
  8
MST_1_1
 62
   251
  6
CONTINUOUS
100
AcDbLine
 10
4.8706342
 20
-22.68883546
 30
2500.0
 11
6.01478424
 21
-22.68378087
 31
2500.0
  0
LINE
  5
E6
100
AcDbEntity
  8
MST_1_1
 62
   251
  6
CONTINUOUS
100
AcDbLine
 10
5.48035311
 20
-20.22026403
 30
2500.0
 11
3.72672771
 21
-20.22026403
 31
2500.0
  0
ARC
  5
E7
100
AcDbEntity
  8
MST_1_1
 62
   251
  6
CONTINUOUS
100
AcDbCircle
 10
5.54363085
 20
-41.78548655
 30
2500.0
 40
21.56531535
100
AcDbArc
 50
84.08482032
 51
88.74811714
  0
LWPOLYLINE
  5
E8
100
AcDbEntity
  8
MST_1_1
 62
   251
  6
CONTINUOUS
100
AcDbPolyline
 90
        3
 70
     0
 43
0.0
 38
2500.0
 10
13.93749597
 20
-21.45454975
 10
9.68913071
 20
-20.62236634
 42
0.01723995
 10
8.22117589
 20
-20.3870385
  0
ARC
  5
E9
100
AcDbEntity
  8
MST_1_1
 62
   251
  6
CONTINUOUS
100
AcDbCircle
 10
5.54363085
 20
-1.12361295
 30
2500.0
 40
21.56531535
100
AcDbArc
 50
271.25189287
 51
272.83975061
  0
LWPOLYLINE
  5
EA
100
AcDbEntity
  8
MST_1_1
 62
   251
  6
CONTINUOUS
100
AcDbPolyline
 90
        3
 70
     0
 43
0.0
 38
2500.0
 10
13.93749597
 20
-21.45454975
 10
9.68913071
 20
-22.28673316
 42
-0.0063851
 10
9.14732991
 20
-22.38569608
  0
ARC
  5
EB
100
AcDbEntity
  8
MST_1_1
 62
   251
  6
CONTINUOUS
100
AcDbCircle
 10
5.54363085
 20
-1.12361295
 30
2500.0
 40
21.56531535
100
AcDbArc
 50
274.21680449
 51
278.53995004
  0
LWPOLYLINE
  5
EC
100
AcDbEntity
  8
MST_1_1
 62
   137
  6
CONTINUOUS
100
AcDbPolyline
 90
        6
 70
     0
 43
0.0
 38
2500.0
 10
10.14654808
 20
-20.28405264
 10
10.05178168
 20
-20.69340357
 10
10.86864855
 20
-22.45621744
 10
10.95927534
 20
-22.03793316
 10
10.14654808
 20
-20.28405264
 10
10.85300238
 20
-22.42245271
  0
LINE
  5
ED
100
AcDbEntity
  8
MST_1_1
 62
   137
  6
CONTINUOUS
100
AcDbLine
 10
-2.06250403
 20
8.54545025
 30
0.0
 11
-2.06250403
 21
12.54545025
 31
0.0
  0
LINE
  5
EE
100
AcDbEntity
  8
MST_1_1
 62
   137
  6
CONTINUOUS
100
AcDbLine
 10
-2.06250403
 20
12.54545025
 30
0.0
 11
-1.96250406
 21
12.54545025
 31
0.0
  0
LINE
  5
EF
100
AcDbEntity
  8
MST_1_1
 62
   137
  6
CONTINUOUS
100
AcDbLine
 10
0.8706342
 20
7.31116454
 30
2500.0
 11
0.43749597
 21
7.31116454
 31
2500.0
  0
LINE
  5
F0
100
AcDbEntity
  8
MST_1_1
 62
   137
  6
CONTINUOUS
100
AcDbLine
 10
-1.96250406
 20
12.54545025
 30
0.0
 11
0.43749597
 21
9.77973597
 31
0.0
  0
LINE
  5
F1
100
AcDbEntity
  8
MST_1_1
 62
   137
  6
CONTINUOUS
100
AcDbLine
 10
0.43749597
 20
7.31116454
 30
0.0
 11
-1.96250406
 21
4.54545025
 31
0.0
  0
LINE
  5
F2
100
AcDbEntity
  8
MST_1_1
 62
   137
  6
CONTINUOUS
100
AcDbLine
 10
-1.96250406
 20
4.54545025
 30
0.0
 11
-2.06250403
 21
4.54545025
 31
0.0
  0
LINE
  5
F3
100
AcDbEntity
  8
MST_1_1
 62
   137
  6
CONTINUOUS
100
AcDbLine
 10
-2.06250403
 20
4.54545025
 30
0.0
 11
-2.06250403
 21
8.54545025
 31
0.0
  0
LWPOLYLINE
  5
F4
100
AcDbEntity
  8
MST_1_1
 62
   137
  6
CONTINUOUS
100
AcDbPolyline
 90
        6
 70
     0
 43
0.0
 38
2500.0
 10
1.65761909
 20
10.54545039
 10
1.48035311
 20
9.77973597
 10
2.97908244
 20
6.54545025
 10
3.12933982
 20
7.36944972
 10
1.65761909
 20
10.54545039
 10
2.97908244
 20
6.54545025
  0
LWPOLYLINE
  5
F5
100
AcDbEntity
  8
MST_1_1
 62
   137
  6
CONTINUOUS
100
AcDbPolyline
 90
        6
 70
     0
 43
0.0
 38
2500.0
 10
3.90965284
 20
10.28523402
 10
3.7660674
 20
9.66500533
 10
5.00374447
 20
6.99407523
 10
5.14732991
 20
7.61430392
 10
3.90965284
 20
10.28523402
 10
4.98003815
 20
7.04523391
  0
LINE
  5
F6
100
AcDbEntity
  8
MST_1_1
 62
   251
  6
CONTINUOUS
100
AcDbLine
 10
0.8706342
 20
7.31116454
 30
2500.0
 11
2.01478424
 21
7.31621913
 31
2500.0
  0
LINE
  5
F7
100
AcDbEntity
  8
MST_1_1
 62
   251
  6
CONTINUOUS
100
AcDbLine
 10
1.48035311
 20
9.77973597
 30
2500.0
 11
0.43749597
 21
9.77973597
 31
2500.0
  0
ARC
  5
F8
100
AcDbEntity
  8
MST_1_1
 62
   251
  6
CONTINUOUS
100
AcDbCircle
 10
1.54363085
 20
-11.78548655
 30
2500.0
 40
21.56531535
100
AcDbArc
 50
84.08482032
 51
88.74811714
  0
LWPOLYLINE
  5
F9
100
AcDbEntity
  8
MST_1_1
 62
   251
  6
CONTINUOUS
100
AcDbPolyline
 90
        3
 70
     0
 43
0.0
 38
2500.0
 10
9.93749597
 20
8.54545025
 10
5.68913071
 20
9.37763366
 42
0.01723995
 10
4.22117589
 20
9.6129615
  0
ARC
  5
FA
100
AcDbEntity
  8
MST_1_1
 62
   251
  6
CONTINUOUS
100
AcDbCircle
 10
1.54363085
 20
28.87638705
 30
2500.0
 40
21.56531535
100
AcDbArc
 50
271.25189287
 51
272.83975061
  0
LWPOLYLINE
  5
FB
100
AcDbEntity
  8
MST_1_1
 62
   251
  6
CONTINUOUS
100
AcDbPolyline
 90
        3
 70
     0
 43
0.0
 38
2500.0
 10
9.93749597
 20
8.54545025
 10
5.68913071
 20
7.71326684
 42
-0.0063851
 10
5.14732991
 20
7.61430392
  0
ARC
  5
FC
100
AcDbEntity
  8
MST_1_1
 62
   251
  6
CONTINUOUS
100
AcDbCircle
 10
1.54363085
 20
28.87638705
 30
2500.0
 40
21.56531535
100
AcDbArc
 50
274.21680449
 51
278.53995004
  0
LWPOLYLINE
  5
FD
100
AcDbEntity
  8
MST_1_1
 62
   137
  6
CONTINUOUS
100
AcDbPolyline
 90
        6
 70
     0
 43
0.0
 38
2500.0
 10
6.14654808
 20
9.71594736
 10
6.05178168
 20
9.30659643
 10
6.86864855
 20
7.54378256
 10
6.95927534
 20
7.96206684
 10
6.14654808
 20
9.71594736
 10
6.85300238
 20
7.57754729
  0
LINE
  5
FE
100
AcDbEntity
  8
MST_1_1
 62
   137
  6
CONTINUOUS
100
AcDbLine
 10
-2.06250403
 20
-141.45454975
 30
0.0
 11
-2.06250403
 21
-137.45454975
 31
0.0
  0
LINE
  5
FF
100
AcDbEntity
  8
MST_1_1
 62
   137
  6
CONTINUOUS
100
AcDbLine
 10
-2.06250403
 20
-137.45454975
 30
0.0
 11
-1.96250406
 21
-137.45454975
 31
0.0
  0
LWPOLYLINE
  5
100
100
AcDbEntity
  8
MST_1_1
 62
   137
  6
CONTINUOUS
100
AcDbPolyline
 90
        6
 70
     0
 43
0.0
 38
2500.0
 10
4.08619052
 20
-139.45454961
 10
3.90892454
 20
-140.22026403
 10
5.40765387
 20
-143.45454975
 10
5.58491991
 20
-142.68883546
 10
4.08619052
 20
-139.45454961
 10
5.40765387
 20
-143.45454975
  0
LINE
  5
101
100
AcDbEntity
  8
MST_1_1
 62
   137
  6
CONTINUOUS
100
AcDbLine
 10
0.43749597
 20
-140.22026403
 30
2500.0
 11
3.90892454
 21
-140.22026403
 31
2500.0
  0
LWPOLYLINE
  5
102
100
AcDbEntity
  8
MST_1_1
 62
   137
  6
CONTINUOUS
100
AcDbPolyline
 90
        4
 70
     0
 43
0.0
 38
2500.0
 10
2.76711674
 20
-142.68883546
 10
3.12193958
 20
-143.45454975
 10
3.29920563
 20
-142.68883546
 10
3.03331932
 20
-142.11504788
  0
LINE
  5
103
100
AcDbEntity
  8
MST_1_1
 62
   137
  6
CONTINUOUS
100
AcDbLine
 10
2.82660958
 20
-142.56060134
 30
2500.0
 11
3.12193958
 21
-143.45454975
 31
2500.0
  0
LINE
  5
104
100
AcDbEntity
  8
MST_1_1
 62
   137
  6
CONTINUOUS
100
AcDbLine
 10
2.76711674
 20
-142.68883546
 30
2500.0
 11
3.03331932
 21
-142.11504788
 31
2500.0
  0
LINE
  5
105
100
AcDbEntity
  8
MST_1_1
 62
   137
  6
CONTINUOUS
100
AcDbLine
 10
5.05283102
 20
-142.68883546
 30
2500.0
 11
3.29920563
 21
-142.68883546
 31
2500.0
  0
LINE
  5
106
100
AcDbEntity
  8
MST_1_1
 62
   137
  6
CONTINUOUS
100
AcDbLine
 10
2.76711674
 20
-142.68883546
 30
2500.0
 11
0.43749597
 21
-142.68883546
 31
2500.0
  0
LINE
  5
107
100
AcDbEntity
  8
MST_1_1
 62
   137
  6
CONTINUOUS
100
AcDbLine
 10
-1.96250406
 20
-137.45454975
 30
0.0
 11
0.43749597
 21
-140.22026403
 31
0.0
  0
LINE
  5
108
100
AcDbEntity
  8
MST_1_1
 62
   137
  6
CONTINUOUS
100
AcDbLine
 10
0.43749597
 20
-142.68883546
 30
0.0
 11
-1.96250406
 21
-145.45454975
 31
0.0
  0
LINE
  5
109
100
AcDbEntity
  8
MST_1_1
 62
   137
  6
CONTINUOUS
100
AcDbLine
 10
-1.96250406
 20
-145.45454975
 30
0.0
 11
-2.06250403
 21
-145.45454975
 31
0.0
  0
LINE
  5
10A
100
AcDbEntity
  8
MST_1_1
 62
   137
  6
CONTINUOUS
100
AcDbLine
 10
-2.06250403
 20
-145.45454975
 30
0.0
 11
-2.06250403
 21
-141.45454975
 31
0.0
  0
LWPOLYLINE
  5
10B
100
AcDbEntity
  8
MST_1_1
 62
   137
  6
CONTINUOUS
100
AcDbPolyline
 90
        6
 70
     0
 43
0.0
 38
2500.0
 10
6.37190481
 20
-139.45454961
 10
6.19463883
 20
-140.22026403
 10
7.69336815
 20
-143.45454975
 10
7.8706342
 20
-142.68883546
 10
6.37190481
 20
-139.45454961
 10
7.69336815
 20
-143.45454975
  0
LWPOLYLINE
  5
10C
100
AcDbEntity
  8
MST_1_1
 62
   137
  6
CONTINUOUS
100
AcDbPolyline
 90
        6
 70
     0
 43
0.0
 38
2500.0
 10
8.65761909
 20
-139.45454961
 10
8.48035311
 20
-140.22026403
 10
9.97908244
 20
-143.45454975
 10
10.15634848
 20
-142.68883546
 10
8.65761909
 20
-139.45454961
 10
9.97908244
 20
-143.45454975
  0
LWPOLYLINE
  5
10D
100
AcDbEntity
  8
MST_1_1
 62
   137
  6
CONTINUOUS
100
AcDbPolyline
 90
        6
 70
     0
 43
0.0
 38
2500.0
 10
10.94333338
 20
-139.45454961
 10
10.7660674
 20
-140.22026403
 10
12.26479673
 20
-143.45454975
 10
12.44206277
 20
-142.68883546
 10
10.94333338
 20
-139.45454961
 10
12.26479673
 20
-143.45454975
  0
LWPOLYLINE
  5
10E
100
AcDbEntity
  8
MST_1_1
 62
   137
  6
CONTINUOUS
100
AcDbPolyline
 90
        6
 70
     0
 43
0.0
 38
2500.0
 10
13.22904766
 20
-139.45454961
 10
13.05178168
 20
-140.22026403
 10
14.55051101
 20
-143.45454975
 10
14.72777705
 20
-142.68883546
 10
13.22904766
 20
-139.45454961
 10
14.55051101
 20
-143.45454975
  0
LWPOLYLINE
  5
10F
100
AcDbEntity
  8
MST_1_1
 62
   137
  6
CONTINUOUS
100
AcDbPolyline
 90
        6
 70
     0
 43
0.0
 38
2500.0
 10
24.65761909
 20
-139.45454961
 10
24.48035311
 20
-140.22026403
 10
25.97908244
 20
-143.45454975
 10
26.12933982
 20
-142.63055028
 10
24.65761909
 20
-139.45454961
 10
25.97908244
 20
-143.45454975
  0
LWPOLYLINE
  5
110
100
AcDbEntity
  8
MST_1_1
 62
   137
  6
CONTINUOUS
100
AcDbPolyline
 90
        6
 70
     0
 43
0.0
 38
2500.0
 10
26.90965284
 20
-139.71476598
 10
26.7660674
 20
-140.33499467
 10
28.00374447
 20
-143.00592477
 10
28.14732991
 20
-142.38569608
 10
26.90965284
 20
-139.71476598
 10
27.98003815
 20
-142.95476609
  0
LINE
  5
111
100
AcDbEntity
  8
MST_1_1
 62
   251
  6
CONTINUOUS
100
AcDbLine
 10
5.58491991
 20
-142.68883546
 30
2500.0
 11
7.33854531
 21
-142.68883546
 31
2500.0
  0
LINE
  5
112
100
AcDbEntity
  8
MST_1_1
 62
   251
  6
CONTINUOUS
100
AcDbLine
 10
7.8706342
 20
-142.68883546
 30
2500.0
 11
9.6242596
 21
-142.68883546
 31
2500.0
  0
LINE
  5
113
100
AcDbEntity
  8
MST_1_1
 62
   251
  6
CONTINUOUS
100
AcDbLine
 10
10.15634848
 20
-142.68883546
 30
2500.0
 11
11.90997388
 21
-142.68883546
 31
2500.0
  0
LINE
  5
114
100
AcDbEntity
  8
MST_1_1
 62
   251
  6
CONTINUOUS
100
AcDbLine
 10
12.44206277
 20
-142.68883546
 30
2500.0
 11
14.19568817
 21
-142.68883546
 31
2500.0
  0
LINE
  5
115
100
AcDbEntity
  8
MST_1_1
 62
   251
  6
CONTINUOUS
100
AcDbLine
 10
23.8706342
 20
-142.68883546
 30
2500.0
 11
25.01478424
 21
-142.68378087
 31
2500.0
  0
LINE
  5
116
100
AcDbEntity
  8
MST_1_1
 62
   251
  6
CONTINUOUS
100
AcDbLine
 10
6.19463883
 20
-140.22026403
 30
2500.0
 11
4.44101343
 21
-140.22026403
 31
2500.0
  0
LINE
  5
117
100
AcDbEntity
  8
MST_1_1
 62
   251
  6
CONTINUOUS
100
AcDbLine
 10
8.48035311
 20
-140.22026403
 30
2500.0
 11
6.72672771
 21
-140.22026403
 31
2500.0
  0
LINE
  5
118
100
AcDbEntity
  8
MST_1_1
 62
   251
  6
CONTINUOUS
100
AcDbLine
 10
10.7660674
 20
-140.22026403
 30
2500.0
 11
9.012442
 21
-140.22026403
 31
2500.0
  0
LINE
  5
119
100
AcDbEntity
  8
MST_1_1
 62
   251
  6
CONTINUOUS
100
AcDbLine
 10
13.05178168
 20
-140.22026403
 30
2500.0
 11
11.29815628
 21
-140.22026403
 31
2500.0
  0
LINE
  5
11A
100
AcDbEntity
  8
MST_1_1
 62
   251
  6
CONTINUOUS
100
AcDbLine
 10
24.48035311
 20
-140.22026403
 30
2500.0
 11
22.72672771
 21
-140.22026403
 31
2500.0
  0
ARC
  5
11B
100
AcDbEntity
  8
MST_1_1
 62
   251
  6
CONTINUOUS
100
AcDbCircle
 10
24.54363085
 20
-161.78548655
 30
2500.0
 40
21.56531535
100
AcDbArc
 50
84.08482032
 51
88.74811714
  0
LWPOLYLINE
  5
11C
100
AcDbEntity
  8
MST_1_1
 62
   251
  6
CONTINUOUS
100
AcDbPolyline
 90
        3
 70
     0
 43
0.0
 38
2500.0
 10
32.93749597
 20
-141.45454975
 10
28.68913071
 20
-140.62236634
 42
0.01723995
 10
27.22117589
 20
-140.3870385
  0
ARC
  5
11D
100
AcDbEntity
  8
MST_1_1
 62
   251
  6
CONTINUOUS
100
AcDbCircle
 10
24.54363085
 20
-121.12361295
 30
2500.0
 40
21.56531535
100
AcDbArc
 50
271.25189287
 51
272.83975061
  0
LWPOLYLINE
  5
11E
100
AcDbEntity
  8
MST_1_1
 62
   251
  6
CONTINUOUS
100
AcDbPolyline
 90
        3
 70
     0
 43
0.0
 38
2500.0
 10
32.93749597
 20
-141.45454975
 10
28.68913071
 20
-142.28673316
 42
-0.0063851
 10
28.14732991
 20
-142.38569608
  0
ARC
  5
11F
100
AcDbEntity
  8
MST_1_1
 62
   251
  6
CONTINUOUS
100
AcDbCircle
 10
24.54363085
 20
-121.12361295
 30
2500.0
 40
21.56531535
100
AcDbArc
 50
274.21680449
 51
278.53995004
  0
LWPOLYLINE
  5
120
100
AcDbEntity
  8
MST_1_1
 62
   137
  6
CONTINUOUS
100
AcDbPolyline
 90
        6
 70
     0
 43
0.0
 38
2500.0
 10
29.14654808
 20
-140.28405264
 10
29.05178168
 20
-140.69340357
 10
29.86864855
 20
-142.45621744
 10
29.95927534
 20
-142.03793316
 10
29.14654808
 20
-140.28405264
 10
29.85300238
 20
-142.42245271
  0
LINE
  5
121
100
AcDbEntity
  8
MST_1_1
 62
   137
  6
CONTINUOUS
100
AcDbLine
 10
-2.06250403
 20
-111.45454975
 30
0.0
 11
-2.06250403
 21
-107.45454975
 31
0.0
  0
LINE
  5
122
100
AcDbEntity
  8
MST_1_1
 62
   137
  6
CONTINUOUS
100
AcDbLine
 10
-2.06250403
 20
-107.45454975
 30
0.0
 11
-1.96250406
 21
-107.45454975
 31
0.0
  0
LWPOLYLINE
  5
123
100
AcDbEntity
  8
MST_1_1
 62
   137
  6
CONTINUOUS
100
AcDbPolyline
 90
        6
 70
     0
 43
0.0
 38
2500.0
 10
3.65761909
 20
-109.45454961
 10
3.48035311
 20
-110.22026403
 10
4.97908244
 20
-113.45454975
 10
5.15634848
 20
-112.68883546
 10
3.65761909
 20
-109.45454961
 10
4.97908244
 20
-113.45454975
  0
LINE
  5
124
100
AcDbEntity
  8
MST_1_1
 62
   137
  6
CONTINUOUS
100
AcDbLine
 10
0.43749597
 20
-110.22026403
 30
2500.0
 11
3.48035311
 21
-110.22026403
 31
2500.0
  0
LWPOLYLINE
  5
125
100
AcDbEntity
  8
MST_1_1
 62
   137
  6
CONTINUOUS
100
AcDbPolyline
 90
        4
 70
     0
 43
0.0
 38
2500.0
 10
2.33854531
 20
-112.68883546
 10
2.69336815
 20
-113.45454975
 10
2.8706342
 20
-112.68883546
 10
2.60474789
 20
-112.11504788
  0
LINE
  5
126
100
AcDbEntity
  8
MST_1_1
 62
   137
  6
CONTINUOUS
100
AcDbLine
 10
2.39803815
 20
-112.56060134
 30
2500.0
 11
2.69336815
 21
-113.45454975
 31
2500.0
  0
LINE
  5
127
100
AcDbEntity
  8
MST_1_1
 62
   137
  6
CONTINUOUS
100
AcDbLine
 10
2.33854531
 20
-112.68883546
 30
2500.0
 11
2.60474789
 21
-112.11504788
 31
2500.0
  0
LINE
  5
128
100
AcDbEntity
  8
MST_1_1
 62
   137
  6
CONTINUOUS
100
AcDbLine
 10
4.6242596
 20
-112.68883546
 30
2500.0
 11
2.8706342
 21
-112.68883546
 31
2500.0
  0
LINE
  5
129
100
AcDbEntity
  8
MST_1_1
 62
   137
  6
CONTINUOUS
100
AcDbLine
 10
2.33854531
 20
-112.68883546
 30
2500.0
 11
0.43749597
 21
-112.68883546
 31
2500.0
  0
LINE
  5
12A
100
AcDbEntity
  8
MST_1_1
 62
   137
  6
CONTINUOUS
100
AcDbLine
 10
-1.96250406
 20
-107.45454975
 30
0.0
 11
0.43749597
 21
-110.22026403
 31
0.0
  0
LINE
  5
12B
100
AcDbEntity
  8
MST_1_1
 62
   137
  6
CONTINUOUS
100
AcDbLine
 10
0.43749597
 20
-112.68883546
 30
0.0
 11
-1.96250406
 21
-115.45454975
 31
0.0
  0
LINE
  5
12C
100
AcDbEntity
  8
MST_1_1
 62
   137
  6
CONTINUOUS
100
AcDbLine
 10
-1.96250406
 20
-115.45454975
 30
0.0
 11
-2.06250403
 21
-115.45454975
 31
0.0
  0
LINE
  5
12D
100
AcDbEntity
  8
MST_1_1
 62
   137
  6
CONTINUOUS
100
AcDbLine
 10
-2.06250403
 20
-115.45454975
 30
0.0
 11
-2.06250403
 21
-111.45454975
 31
0.0
  0
LWPOLYLINE
  5
12E
100
AcDbEntity
  8
MST_1_1
 62
   137
  6
CONTINUOUS
100
AcDbPolyline
 90
        6
 70
     0
 43
0.0
 38
2500.0
 10
5.94333338
 20
-109.45454961
 10
5.7660674
 20
-110.22026403
 10
7.26479673
 20
-113.45454975
 10
7.44206277
 20
-112.68883546
 10
5.94333338
 20
-109.45454961
 10
7.26479673
 20
-113.45454975
  0
LWPOLYLINE
  5
12F
100
AcDbEntity
  8
MST_1_1
 62
   137
  6
CONTINUOUS
100
AcDbPolyline
 90
        6
 70
     0
 43
0.0
 38
2500.0
 10
8.22904766
 20
-109.45454961
 10
8.05178168
 20
-110.22026403
 10
9.55051101
 20
-113.45454975
 10
9.72777705
 20
-112.68883546
 10
8.22904766
 20
-109.45454961
 10
9.55051101
 20
-113.45454975
  0
LWPOLYLINE
  5
130
100
AcDbEntity
  8
MST_1_1
 62
   137
  6
CONTINUOUS
100
AcDbPolyline
 90
        6
 70
     0
 43
0.0
 38
2500.0
 10
10.51476195
 20
-109.45454961
 10
10.33749597
 20
-110.22026403
 10
11.8362253
 20
-113.45454975
 10
12.01349134
 20
-112.68883546
 10
10.51476195
 20
-109.45454961
 10
11.8362253
 20
-113.45454975
  0
LWPOLYLINE
  5
131
100
AcDbEntity
  8
MST_1_1
 62
   137
  6
CONTINUOUS
100
AcDbPolyline
 90
        6
 70
     0
 43
0.0
 38
2500.0
 10
12.80047623
 20
-109.45454961
 10
12.62321025
 20
-110.22026403
 10
14.12193958
 20
-113.45454975
 10
14.29920563
 20
-112.68883546
 10
12.80047623
 20
-109.45454961
 10
14.12193958
 20
-113.45454975
  0
LWPOLYLINE
  5
132
100
AcDbEntity
  8
MST_1_1
 62
   137
  6
CONTINUOUS
100
AcDbPolyline
 90
        6
 70
     0
 43
0.0
 38
2500.0
 10
19.65761909
 20
-109.45454961
 10
19.48035311
 20
-110.22026403
 10
20.97908244
 20
-113.45454975
 10
21.12933982
 20
-112.63055028
 10
19.65761909
 20
-109.45454961
 10
20.97908244
 20
-113.45454975
  0
LWPOLYLINE
  5
133
100
AcDbEntity
  8
MST_1_1
 62
   137
  6
CONTINUOUS
100
AcDbPolyline
 90
        6
 70
     0
 43
0.0
 38
2500.0
 10
21.90965284
 20
-109.71476598
 10
21.7660674
 20
-110.33499467
 10
23.00374447
 20
-113.00592477
 10
23.14732991
 20
-112.38569608
 10
21.90965284
 20
-109.71476598
 10
22.98003815
 20
-112.95476609
  0
LINE
  5
134
100
AcDbEntity
  8
MST_1_1
 62
   251
  6
CONTINUOUS
100
AcDbLine
 10
5.15634848
 20
-112.68883546
 30
2500.0
 11
6.90997388
 21
-112.68883546
 31
2500.0
  0
LINE
  5
135
100
AcDbEntity
  8
MST_1_1
 62
   251
  6
CONTINUOUS
100
AcDbLine
 10
7.44206277
 20
-112.68883546
 30
2500.0
 11
9.19568817
 21
-112.68883546
 31
2500.0
  0
LINE
  5
136
100
AcDbEntity
  8
MST_1_1
 62
   251
  6
CONTINUOUS
100
AcDbLine
 10
9.72777705
 20
-112.68883546
 30
2500.0
 11
11.48140245
 21
-112.68883546
 31
2500.0
  0
LINE
  5
137
100
AcDbEntity
  8
MST_1_1
 62
   251
  6
CONTINUOUS
100
AcDbLine
 10
12.01349134
 20
-112.68883546
 30
2500.0
 11
13.76711674
 21
-112.68883546
 31
2500.0
  0
LINE
  5
138
100
AcDbEntity
  8
MST_1_1
 62
   251
  6
CONTINUOUS
100
AcDbLine
 10
18.8706342
 20
-112.68883546
 30
2500.0
 11
20.01478424
 21
-112.68378087
 31
2500.0
  0
LINE
  5
139
100
AcDbEntity
  8
MST_1_1
 62
   251
  6
CONTINUOUS
100
AcDbLine
 10
5.7660674
 20
-110.22026403
 30
2500.0
 11
4.012442
 21
-110.22026403
 31
2500.0
  0
LINE
  5
13A
100
AcDbEntity
  8
MST_1_1
 62
   251
  6
CONTINUOUS
100
AcDbLine
 10
8.05178168
 20
-110.22026403
 30
2500.0
 11
6.29815628
 21
-110.22026403
 31
2500.0
  0
LINE
  5
13B
100
AcDbEntity
  8
MST_1_1
 62
   251
  6
CONTINUOUS
100
AcDbLine
 10
10.33749597
 20
-110.22026403
 30
2500.0
 11
8.58387057
 21
-110.22026403
 31
2500.0
  0
LINE
  5
13C
100
AcDbEntity
  8
MST_1_1
 62
   251
  6
CONTINUOUS
100
AcDbLine
 10
12.62321025
 20
-110.22026403
 30
2500.0
 11
10.86958486
 21
-110.22026403
 31
2500.0
  0
LINE
  5
13D
100
AcDbEntity
  8
MST_1_1
 62
   251
  6
CONTINUOUS
100
AcDbLine
 10
19.48035311
 20
-110.22026403
 30
2500.0
 11
17.72672771
 21
-110.22026403
 31
2500.0
  0
ARC
  5
13E
100
AcDbEntity
  8
MST_1_1
 62
   251
  6
CONTINUOUS
100
AcDbCircle
 10
19.54363085
 20
-131.78548655
 30
2500.0
 40
21.56531535
100
AcDbArc
 50
84.08482032
 51
88.74811714
  0
LWPOLYLINE
  5
13F
100
AcDbEntity
  8
MST_1_1
 62
   251
  6
CONTINUOUS
100
AcDbPolyline
 90
        3
 70
     0
 43
0.0
 38
2500.0
 10
27.93749597
 20
-111.45454975
 10
23.68913071
 20
-110.62236634
 42
0.01723995
 10
22.22117589
 20
-110.3870385
  0
ARC
  5
140
100
AcDbEntity
  8
MST_1_1
 62
   251
  6
CONTINUOUS
100
AcDbCircle
 10
19.54363085
 20
-91.12361295
 30
2500.0
 40
21.56531535
100
AcDbArc
 50
271.25189287
 51
272.83975061
  0
LWPOLYLINE
  5
141
100
AcDbEntity
  8
MST_1_1
 62
   251
  6
CONTINUOUS
100
AcDbPolyline
 90
        3
 70
     0
 43
0.0
 38
2500.0
 10
27.93749597
 20
-111.45454975
 10
23.68913071
 20
-112.28673316
 42
-0.0063851
 10
23.14732991
 20
-112.38569608
  0
ARC
  5
142
100
AcDbEntity
  8
MST_1_1
 62
   251
  6
CONTINUOUS
100
AcDbCircle
 10
19.54363085
 20
-91.12361295
 30
2500.0
 40
21.56531535
100
AcDbArc
 50
274.21680449
 51
278.53995004
  0
LWPOLYLINE
  5
143
100
AcDbEntity
  8
MST_1_1
 62
   137
  6
CONTINUOUS
100
AcDbPolyline
 90
        6
 70
     0
 43
0.0
 38
2500.0
 10
24.14654808
 20
-110.28405264
 10
24.05178168
 20
-110.69340357
 10
24.86864855
 20
-112.45621744
 10
24.95927534
 20
-112.03793316
 10
24.14654808
 20
-110.28405264
 10
24.85300238
 20
-112.42245271
  0
LINE
  5
144
100
AcDbEntity
  8
MST_1_1
 62
   137
  6
CONTINUOUS
100
AcDbLine
 10
-2.06250403
 20
-171.45454975
 30
0.0
 11
-2.06250403
 21
-167.45454975
 31
0.0
  0
LINE
  5
145
100
AcDbEntity
  8
MST_1_1
 62
   137
  6
CONTINUOUS
100
AcDbLine
 10
-2.06250403
 20
-167.45454975
 30
0.0
 11
-1.96250406
 21
-167.45454975
 31
0.0
  0
LWPOLYLINE
  5
146
100
AcDbEntity
  8
MST_1_1
 62
   137
  6
CONTINUOUS
100
AcDbPolyline
 90
        6
 70
     0
 43
0.0
 38
2500.0
 10
4.51476195
 20
-169.45454961
 10
4.33749597
 20
-170.22026403
 10
5.8362253
 20
-173.45454975
 10
6.01349134
 20
-172.68883546
 10
4.51476195
 20
-169.45454961
 10
5.8362253
 20
-173.45454975
  0
LINE
  5
147
100
AcDbEntity
  8
MST_1_1
 62
   137
  6
CONTINUOUS
100
AcDbLine
 10
5.48140245
 20
-172.68883546
 30
2500.0
 11
3.72777705
 21
-172.68883546
 31
2500.0
  0
LINE
  5
148
100
AcDbEntity
  8
MST_1_1
 62
   137
  6
CONTINUOUS
100
AcDbLine
 10
3.19568817
 20
-172.68883546
 30
2500.0
 11
0.43749597
 21
-172.68883546
 31
2500.0
  0
LINE
  5
149
100
AcDbEntity
  8
MST_1_1
 62
   137
  6
CONTINUOUS
100
AcDbLine
 10
-1.96250406
 20
-167.45454975
 30
0.0
 11
0.43749597
 21
-170.22026403
 31
0.0
  0
LINE
  5
14A
100
AcDbEntity
  8
MST_1_1
 62
   137
  6
CONTINUOUS
100
AcDbLine
 10
0.43749597
 20
-172.68883546
 30
0.0
 11
-1.96250406
 21
-175.45454975
 31
0.0
  0
LINE
  5
14B
100
AcDbEntity
  8
MST_1_1
 62
   137
  6
CONTINUOUS
100
AcDbLine
 10
-1.96250406
 20
-175.45454975
 30
0.0
 11
-2.06250403
 21
-175.45454975
 31
0.0
  0
LINE
  5
14C
100
AcDbEntity
  8
MST_1_1
 62
   137
  6
CONTINUOUS
100
AcDbLine
 10
-2.06250403
 20
-175.45454975
 30
0.0
 11
-2.06250403
 21
-171.45454975
 31
0.0
  0
LWPOLYLINE
  5
14D
100
AcDbEntity
  8
MST_1_1
 62
   137
  6
CONTINUOUS
100
AcDbPolyline
 90
        6
 70
     0
 43
0.0
 38
2500.0
 10
6.80047623
 20
-169.45454961
 10
6.62321025
 20
-170.22026403
 10
8.12193958
 20
-173.45454975
 10
8.29920563
 20
-172.68883546
 10
6.80047623
 20
-169.45454961
 10
8.12193958
 20
-173.45454975
  0
LWPOLYLINE
  5
14E
100
AcDbEntity
  8
MST_1_1
 62
   137
  6
CONTINUOUS
100
AcDbPolyline
 90
        6
 70
     0
 43
0.0
 38
2500.0
 10
9.08619052
 20
-169.45454961
 10
8.90892454
 20
-170.22026403
 10
10.40765387
 20
-173.45454975
 10
10.58491991
 20
-172.68883546
 10
9.08619052
 20
-169.45454961
 10
10.40765387
 20
-173.45454975
  0
LWPOLYLINE
  5
14F
100
AcDbEntity
  8
MST_1_1
 62
   137
  6
CONTINUOUS
100
AcDbPolyline
 90
        6
 70
     0
 43
0.0
 38
2500.0
 10
11.37190481
 20
-169.45454961
 10
11.19463883
 20
-170.22026403
 10
12.69336815
 20
-173.45454975
 10
12.8706342
 20
-172.68883546
 10
11.37190481
 20
-169.45454961
 10
12.69336815
 20
-173.45454975
  0
LWPOLYLINE
  5
150
100
AcDbEntity
  8
MST_1_1
 62
   137
  6
CONTINUOUS
100
AcDbPolyline
 90
        6
 70
     0
 43
0.0
 38
2500.0
 10
27.37190481
 20
-169.45454961
 10
27.19463883
 20
-170.22026403
 10
28.69336815
 20
-173.45454975
 10
28.8706342
 20
-172.68883546
 10
27.37190481
 20
-169.45454961
 10
28.69336815
 20
-173.45454975
  0
LWPOLYLINE
  5
151
100
AcDbEntity
  8
MST_1_1
 62
   137
  6
CONTINUOUS
100
AcDbPolyline
 90
        6
 70
     0
 43
0.0
 38
2500.0
 10
29.65761909
 20
-169.45454961
 10
29.48035311
 20
-170.22026403
 10
30.97908244
 20
-173.45454975
 10
31.12933982
 20
-172.63055028
 10
29.65761909
 20
-169.45454961
 10
30.97908244
 20
-173.45454975
  0
LWPOLYLINE
  5
152
100
AcDbEntity
  8
MST_1_1
 62
   137
  6
CONTINUOUS
100
AcDbPolyline
 90
        6
 70
     0
 43
0.0
 38
2500.0
 10
31.90965284
 20
-169.71476598
 10
31.7660674
 20
-170.33499467
 10
33.00374447
 20
-173.00592477
 10
33.14732991
 20
-172.38569608
 10
31.90965284
 20
-169.71476598
 10
32.98003815
 20
-172.95476609
  0
LINE
  5
153
100
AcDbEntity
  8
MST_1_1
 62
   251
  6
CONTINUOUS
100
AcDbLine
 10
6.01349134
 20
-172.68883546
 30
2500.0
 11
7.76711674
 21
-172.68883546
 31
2500.0
  0
LINE
  5
154
100
AcDbEntity
  8
MST_1_1
 62
   251
  6
CONTINUOUS
100
AcDbLine
 10
8.29920563
 20
-172.68883546
 30
2500.0
 11
10.05283102
 21
-172.68883546
 31
2500.0
  0
LINE
  5
155
100
AcDbEntity
  8
MST_1_1
 62
   251
  6
CONTINUOUS
100
AcDbLine
 10
10.58491991
 20
-172.68883546
 30
2500.0
 11
12.33854531
 21
-172.68883546
 31
2500.0
  0
LINE
  5
156
100
AcDbEntity
  8
MST_1_1
 62
   251
  6
CONTINUOUS
100
AcDbLine
 10
26.58491991
 20
-172.68883546
 30
2500.0
 11
28.33854531
 21
-172.68883546
 31
2500.0
  0
LINE
  5
157
100
AcDbEntity
  8
MST_1_1
 62
   251
  6
CONTINUOUS
100
AcDbLine
 10
28.8706342
 20
-172.68883546
 30
2500.0
 11
30.01478424
 21
-172.68378087
 31
2500.0
  0
LINE
  5
158
100
AcDbEntity
  8
MST_1_1
 62
   251
  6
CONTINUOUS
100
AcDbLine
 10
6.62321025
 20
-170.22026403
 30
2500.0
 11
4.86958486
 21
-170.22026403
 31
2500.0
  0
LINE
  5
159
100
AcDbEntity
  8
MST_1_1
 62
   251
  6
CONTINUOUS
100
AcDbLine
 10
8.90892454
 20
-170.22026403
 30
2500.0
 11
7.15529914
 21
-170.22026403
 31
2500.0
  0
LINE
  5
15A
100
AcDbEntity
  8
MST_1_1
 62
   251
  6
CONTINUOUS
100
AcDbLine
 10
11.19463883
 20
-170.22026403
 30
2500.0
 11
9.44101343
 21
-170.22026403
 31
2500.0
  0
LINE
  5
15B
100
AcDbEntity
  8
MST_1_1
 62
   251
  6
CONTINUOUS
100
AcDbLine
 10
27.19463883
 20
-170.22026403
 30
2500.0
 11
25.44101343
 21
-170.22026403
 31
2500.0
  0
LINE
  5
15C
100
AcDbEntity
  8
MST_1_1
 62
   251
  6
CONTINUOUS
100
AcDbLine
 10
29.48035311
 20
-170.22026403
 30
2500.0
 11
27.72672771
 21
-170.22026403
 31
2500.0
  0
ARC
  5
15D
100
AcDbEntity
  8
MST_1_1
 62
   251
  6
CONTINUOUS
100
AcDbCircle
 10
29.54363085
 20
-191.78548655
 30
2500.0
 40
21.56531535
100
AcDbArc
 50
84.08482032
 51
88.74811714
  0
LWPOLYLINE
  5
15E
100
AcDbEntity
  8
MST_1_1
 62
   251
  6
CONTINUOUS
100
AcDbPolyline
 90
        3
 70
     0
 43
0.0
 38
2500.0
 10
37.93749597
 20
-171.45454975
 10
33.68913071
 20
-170.62236634
 42
0.01723995
 10
32.22117589
 20
-170.3870385
  0
ARC
  5
15F
100
AcDbEntity
  8
MST_1_1
 62
   251
  6
CONTINUOUS
100
AcDbCircle
 10
29.54363085
 20
-151.12361295
 30
2500.0
 40
21.56531535
100
AcDbArc
 50
271.25189287
 51
272.83975061
  0
LWPOLYLINE
  5
160
100
AcDbEntity
  8
MST_1_1
 62
   251
  6
CONTINUOUS
100
AcDbPolyline
 90
        3
 70
     0
 43
0.0
 38
2500.0
 10
37.93749597
 20
-171.45454975
 10
33.68913071
 20
-172.28673316
 42
-0.0063851
 10
33.14732991
 20
-172.38569608
  0
ARC
  5
161
100
AcDbEntity
  8
MST_1_1
 62
   251
  6
CONTINUOUS
100
AcDbCircle
 10
29.54363085
 20
-151.12361295
 30
2500.0
 40
21.56531535
100
AcDbArc
 50
274.21680449
 51
278.53995004
  0
LWPOLYLINE
  5
162
100
AcDbEntity
  8
MST_1_1
 62
   137
  6
CONTINUOUS
100
AcDbPolyline
 90
        6
 70
     0
 43
0.0
 38
2500.0
 10
34.14654808
 20
-170.28405264
 10
34.05178168
 20
-170.69340357
 10
34.86864855
 20
-172.45621744
 10
34.95927534
 20
-172.03793316
 10
34.14654808
 20
-170.28405264
 10
34.85300238
 20
-172.42245271
  0
LINE
  5
163
100
AcDbEntity
  8
MST_1_1
 62
   137
  6
CONTINUOUS
100
AcDbLine
 10
-2.06250403
 20
-201.45454975
 30
0.0
 11
-2.06250403
 21
-197.45454975
 31
0.0
  0
LINE
  5
164
100
AcDbEntity
  8
MST_1_1
 62
   137
  6
CONTINUOUS
100
AcDbLine
 10
-2.06250403
 20
-197.45454975
 30
0.0
 11
-1.96250406
 21
-197.45454975
 31
0.0
  0
LWPOLYLINE
  5
165
100
AcDbEntity
  8
MST_1_1
 62
   137
  6
CONTINUOUS
100
AcDbPolyline
 90
        6
 70
     0
 43
0.0
 38
2500.0
 10
2.65761909
 20
-199.45454961
 10
2.48035311
 20
-200.22026403
 10
3.97908244
 20
-203.45454975
 10
4.15634848
 20
-202.68883546
 10
2.65761909
 20
-199.45454961
 10
3.97908244
 20
-203.45454975
  0
LINE
  5
166
100
AcDbEntity
  8
MST_1_1
 62
   137
  6
CONTINUOUS
100
AcDbLine
 10
0.43749597
 20
-200.22026403
 30
2500.0
 11
2.48035311
 21
-200.22026403
 31
2500.0
  0
LWPOLYLINE
  5
167
100
AcDbEntity
  8
MST_1_1
 62
   137
  6
CONTINUOUS
100
AcDbPolyline
 90
        4
 70
     0
 43
0.0
 38
2500.0
 10
1.33854531
 20
-202.68883546
 10
1.69336815
 20
-203.45454975
 10
1.8706342
 20
-202.68883546
 10
1.60474789
 20
-202.11504788
  0
LINE
  5
168
100
AcDbEntity
  8
MST_1_1
 62
   137
  6
CONTINUOUS
100
AcDbLine
 10
1.39803815
 20
-202.56060134
 30
2500.0
 11
1.69336815
 21
-203.45454975
 31
2500.0
  0
LINE
  5
169
100
AcDbEntity
  8
MST_1_1
 62
   137
  6
CONTINUOUS
100
AcDbLine
 10
1.33854531
 20
-202.68883546
 30
2500.0
 11
1.60474789
 21
-202.11504788
 31
2500.0
  0
LINE
  5
16A
100
AcDbEntity
  8
MST_1_1
 62
   137
  6
CONTINUOUS
100
AcDbLine
 10
3.6242596
 20
-202.68883546
 30
2500.0
 11
1.8706342
 21
-202.68883546
 31
2500.0
  0
LINE
  5
16B
100
AcDbEntity
  8
MST_1_1
 62
   137
  6
CONTINUOUS
100
AcDbLine
 10
1.33854531
 20
-202.68883546
 30
2500.0
 11
0.43749597
 21
-202.68883546
 31
2500.0
  0
LINE
  5
16C
100
AcDbEntity
  8
MST_1_1
 62
   137
  6
CONTINUOUS
100
AcDbLine
 10
-1.96250406
 20
-197.45454975
 30
0.0
 11
0.43749597
 21
-200.22026403
 31
0.0
  0
LINE
  5
16D
100
AcDbEntity
  8
MST_1_1
 62
   137
  6
CONTINUOUS
100
AcDbLine
 10
0.43749597
 20
-202.68883546
 30
0.0
 11
-1.96250406
 21
-205.45454975
 31
0.0
  0
LINE
  5
16E
100
AcDbEntity
  8
MST_1_1
 62
   137
  6
CONTINUOUS
100
AcDbLine
 10
-1.96250406
 20
-205.45454975
 30
0.0
 11
-2.06250403
 21
-205.45454975
 31
0.0
  0
LINE
  5
16F
100
AcDbEntity
  8
MST_1_1
 62
   137
  6
CONTINUOUS
100
AcDbLine
 10
-2.06250403
 20
-205.45454975
 30
0.0
 11
-2.06250403
 21
-201.45454975
 31
0.0
  0
LWPOLYLINE
  5
170
100
AcDbEntity
  8
MST_1_1
 62
   137
  6
CONTINUOUS
100
AcDbPolyline
 90
        6
 70
     0
 43
0.0
 38
2500.0
 10
4.94333338
 20
-199.45454961
 10
4.7660674
 20
-200.22026403
 10
6.26479673
 20
-203.45454975
 10
6.44206277
 20
-202.68883546
 10
4.94333338
 20
-199.45454961
 10
6.26479673
 20
-203.45454975
  0
LWPOLYLINE
  5
171
100
AcDbEntity
  8
MST_1_1
 62
   137
  6
CONTINUOUS
100
AcDbPolyline
 90
        6
 70
     0
 43
0.0
 38
2500.0
 10
7.22904766
 20
-199.45454961
 10
7.05178168
 20
-200.22026403
 10
8.55051101
 20
-203.45454975
 10
8.72777705
 20
-202.68883546
 10
7.22904766
 20
-199.45454961
 10
8.55051101
 20
-203.45454975
  0
LWPOLYLINE
  5
172
100
AcDbEntity
  8
MST_1_1
 62
   137
  6
CONTINUOUS
100
AcDbPolyline
 90
        6
 70
     0
 43
0.0
 38
2500.0
 10
9.51476195
 20
-199.45454961
 10
9.33749597
 20
-200.22026403
 10
10.8362253
 20
-203.45454975
 10
11.01349134
 20
-202.68883546
 10
9.51476195
 20
-199.45454961
 10
10.8362253
 20
-203.45454975
  0
LWPOLYLINE
  5
173
100
AcDbEntity
  8
MST_1_1
 62
   137
  6
CONTINUOUS
100
AcDbPolyline
 90
        6
 70
     0
 43
0.0
 38
2500.0
 10
11.80047623
 20
-199.45454961
 10
11.62321025
 20
-200.22026403
 10
13.12193958
 20
-203.45454975
 10
13.29920563
 20
-202.68883546
 10
11.80047623
 20
-199.45454961
 10
13.12193958
 20
-203.45454975
  0
LWPOLYLINE
  5
174
100
AcDbEntity
  8
MST_1_1
 62
   137
  6
CONTINUOUS
100
AcDbPolyline
 90
        6
 70
     0
 43
0.0
 38
2500.0
 10
34.65761909
 20
-199.45454961
 10
34.48035311
 20
-200.22026403
 10
35.97908244
 20
-203.45454975
 10
36.12933982
 20
-202.63055028
 10
34.65761909
 20
-199.45454961
 10
35.97908244
 20
-203.45454975
  0
LWPOLYLINE
  5
175
100
AcDbEntity
  8
MST_1_1
 62
   137
  6
CONTINUOUS
100
AcDbPolyline
 90
        6
 70
     0
 43
0.0
 38
2500.0
 10
36.90965284
 20
-199.71476598
 10
36.7660674
 20
-200.33499467
 10
38.00374447
 20
-203.00592477
 10
38.14732991
 20
-202.38569608
 10
36.90965284
 20
-199.71476598
 10
37.98003815
 20
-202.95476609
  0
LINE
  5
176
100
AcDbEntity
  8
MST_1_1
 62
   251
  6
CONTINUOUS
100
AcDbLine
 10
4.15634848
 20
-202.68883546
 30
2500.0
 11
5.90997388
 21
-202.68883546
 31
2500.0
  0
LINE
  5
177
100
AcDbEntity
  8
MST_1_1
 62
   251
  6
CONTINUOUS
100
AcDbLine
 10
6.44206277
 20
-202.68883546
 30
2500.0
 11
8.19568817
 21
-202.68883546
 31
2500.0
  0
LINE
  5
178
100
AcDbEntity
  8
MST_1_1
 62
   251
  6
CONTINUOUS
100
AcDbLine
 10
8.72777705
 20
-202.68883546
 30
2500.0
 11
10.48140245
 21
-202.68883546
 31
2500.0
  0
LINE
  5
179
100
AcDbEntity
  8
MST_1_1
 62
   251
  6
CONTINUOUS
100
AcDbLine
 10
11.01349134
 20
-202.68883546
 30
2500.0
 11
12.76711674
 21
-202.68883546
 31
2500.0
  0
LINE
  5
17A
100
AcDbEntity
  8
MST_1_1
 62
   251
  6
CONTINUOUS
100
AcDbLine
 10
33.8706342
 20
-202.68883546
 30
2500.0
 11
35.01478424
 21
-202.68378087
 31
2500.0
  0
LINE
  5
17B
100
AcDbEntity
  8
MST_1_1
 62
   251
  6
CONTINUOUS
100
AcDbLine
 10
4.7660674
 20
-200.22026403
 30
2500.0
 11
3.012442
 21
-200.22026403
 31
2500.0
  0
LINE
  5
17C
100
AcDbEntity
  8
MST_1_1
 62
   251
  6
CONTINUOUS
100
AcDbLine
 10
7.05178168
 20
-200.22026403
 30
2500.0
 11
5.29815628
 21
-200.22026403
 31
2500.0
  0
LINE
  5
17D
100
AcDbEntity
  8
MST_1_1
 62
   251
  6
CONTINUOUS
100
AcDbLine
 10
9.33749597
 20
-200.22026403
 30
2500.0
 11
7.58387057
 21
-200.22026403
 31
2500.0
  0
LINE
  5
17E
100
AcDbEntity
  8
MST_1_1
 62
   251
  6
CONTINUOUS
100
AcDbLine
 10
11.62321025
 20
-200.22026403
 30
2500.0
 11
9.86958486
 21
-200.22026403
 31
2500.0
  0
LINE
  5
17F
100
AcDbEntity
  8
MST_1_1
 62
   251
  6
CONTINUOUS
100
AcDbLine
 10
34.48035311
 20
-200.22026403
 30
2500.0
 11
32.72672771
 21
-200.22026403
 31
2500.0
  0
ARC
  5
180
100
AcDbEntity
  8
MST_1_1
 62
   251
  6
CONTINUOUS
100
AcDbCircle
 10
34.54363085
 20
-221.78548655
 30
2500.0
 40
21.56531535
100
AcDbArc
 50
84.08482032
 51
88.74811714
  0
LWPOLYLINE
  5
181
100
AcDbEntity
  8
MST_1_1
 62
   251
  6
CONTINUOUS
100
AcDbPolyline
 90
        3
 70
     0
 43
0.0
 38
2500.0
 10
42.93749597
 20
-201.45454975
 10
38.68913071
 20
-200.62236634
 42
0.01723995
 10
37.22117589
 20
-200.3870385
  0
ARC
  5
182
100
AcDbEntity
  8
MST_1_1
 62
   251
  6
CONTINUOUS
100
AcDbCircle
 10
34.54363085
 20
-181.12361295
 30
2500.0
 40
21.56531535
100
AcDbArc
 50
271.25189287
 51
272.83975061
  0
LWPOLYLINE
  5
183
100
AcDbEntity
  8
MST_1_1
 62
   251
  6
CONTINUOUS
100
AcDbPolyline
 90
        3
 70
     0
 43
0.0
 38
2500.0
 10
42.93749597
 20
-201.45454975
 10
38.68913071
 20
-202.28673316
 42
-0.0063851
 10
38.14732991
 20
-202.38569608
  0
ARC
  5
184
100
AcDbEntity
  8
MST_1_1
 62
   251
  6
CONTINUOUS
100
AcDbCircle
 10
34.54363085
 20
-181.12361295
 30
2500.0
 40
21.56531535
100
AcDbArc
 50
274.21680449
 51
278.53995004
  0
LWPOLYLINE
  5
185
100
AcDbEntity
  8
MST_1_1
 62
   137
  6
CONTINUOUS
100
AcDbPolyline
 90
        6
 70
     0
 43
0.0
 38
2500.0
 10
39.14654808
 20
-200.28405264
 10
39.05178168
 20
-200.69340357
 10
39.86864855
 20
-202.45621744
 10
39.95927534
 20
-202.03793316
 10
39.14654808
 20
-200.28405264
 10
39.85300238
 20
-202.42245271
  0
LWPOLYLINE
  5
186
100
AcDbEntity
  8
MST_1_1
 62
     1
  6
BORDER
100
AcDbPolyline
 90
        3
 70
     0
 43
0.0
 10
47.93749597
 20
-231.45454975
 10
-2.06250403
 20
-231.45454975
 10
-7.06250403
 20
-231.45454975
  0
LINE
  5
187
100
AcDbEntity
  8
MST_1_1
 62
   137
  6
CONTINUOUS
100
AcDbLine
 10
-2.06250403
 20
-231.45454975
 30
0.0
 11
-2.06250403
 21
-227.45454975
 31
0.0
  0
LINE
  5
188
100
AcDbEntity
  8
MST_1_1
 62
   137
  6
CONTINUOUS
100
AcDbLine
 10
-2.06250403
 20
-227.45454975
 30
0.0
 11
-1.96250406
 21
-227.45454975
 31
0.0
  0
LWPOLYLINE
  5
189
100
AcDbEntity
  8
MST_1_1
 62
   137
  6
CONTINUOUS
100
AcDbPolyline
 90
        6
 70
     0
 43
0.0
 38
2500.0
 10
3.08619052
 20
-229.45454961
 10
2.90892454
 20
-230.22026403
 10
4.40765387
 20
-233.45454975
 10
4.58491991
 20
-232.68883546
 10
3.08619052
 20
-229.45454961
 10
4.40765387
 20
-233.45454975
  0
LINE
  5
18A
100
AcDbEntity
  8
MST_1_1
 62
   137
  6
CONTINUOUS
100
AcDbLine
 10
0.43749597
 20
-230.22026403
 30
2500.0
 11
2.90892454
 21
-230.22026403
 31
2500.0
  0
LWPOLYLINE
  5
18B
100
AcDbEntity
  8
MST_1_1
 62
   137
  6
CONTINUOUS
100
AcDbPolyline
 90
        4
 70
     0
 43
0.0
 38
2500.0
 10
1.76711674
 20
-232.68883546
 10
2.12193958
 20
-233.45454975
 10
2.29920563
 20
-232.68883546
 10
2.03331932
 20
-232.11504788
  0
LINE
  5
18C
100
AcDbEntity
  8
MST_1_1
 62
   137
  6
CONTINUOUS
100
AcDbLine
 10
1.82660958
 20
-232.56060134
 30
2500.0
 11
2.12193958
 21
-233.45454975
 31
2500.0
  0
LINE
  5
18D
100
AcDbEntity
  8
MST_1_1
 62
   137
  6
CONTINUOUS
100
AcDbLine
 10
1.76711674
 20
-232.68883546
 30
2500.0
 11
2.03331932
 21
-232.11504788
 31
2500.0
  0
LINE
  5
18E
100
AcDbEntity
  8
MST_1_1
 62
   137
  6
CONTINUOUS
100
AcDbLine
 10
4.05283102
 20
-232.68883546
 30
2500.0
 11
2.29920563
 21
-232.68883546
 31
2500.0
  0
LINE
  5
18F
100
AcDbEntity
  8
MST_1_1
 62
   137
  6
CONTINUOUS
100
AcDbLine
 10
1.76711674
 20
-232.68883546
 30
2500.0
 11
0.43749597
 21
-232.68883546
 31
2500.0
  0
LINE
  5
190
100
AcDbEntity
  8
MST_1_1
 62
   137
  6
CONTINUOUS
100
AcDbLine
 10
-1.96250406
 20
-227.45454975
 30
0.0
 11
0.43749597
 21
-230.22026403
 31
0.0
  0
LINE
  5
191
100
AcDbEntity
  8
MST_1_1
 62
   137
  6
CONTINUOUS
100
AcDbLine
 10
0.43749597
 20
-232.68883546
 30
0.0
 11
-1.96250406
 21
-235.45454975
 31
0.0
  0
LINE
  5
192
100
AcDbEntity
  8
MST_1_1
 62
   137
  6
CONTINUOUS
100
AcDbLine
 10
-1.96250406
 20
-235.45454975
 30
0.0
 11
-2.06250403
 21
-235.45454975
 31
0.0
  0
LINE
  5
193
100
AcDbEntity
  8
MST_1_1
 62
   137
  6
CONTINUOUS
100
AcDbLine
 10
-2.06250403
 20
-235.45454975
 30
0.0
 11
-2.06250403
 21
-231.45454975
 31
0.0
  0
LWPOLYLINE
  5
194
100
AcDbEntity
  8
MST_1_1
 62
   137
  6
CONTINUOUS
100
AcDbPolyline
 90
        6
 70
     0
 43
0.0
 38
2500.0
 10
5.37190481
 20
-229.45454961
 10
5.19463883
 20
-230.22026403
 10
6.69336815
 20
-233.45454975
 10
6.8706342
 20
-232.68883546
 10
5.37190481
 20
-229.45454961
 10
6.69336815
 20
-233.45454975
  0
LWPOLYLINE
  5
195
100
AcDbEntity
  8
MST_1_1
 62
   137
  6
CONTINUOUS
100
AcDbPolyline
 90
        6
 70
     0
 43
0.0
 38
2500.0
 10
7.65761909
 20
-229.45454961
 10
7.48035311
 20
-230.22026403
 10
8.97908244
 20
-233.45454975
 10
9.15634848
 20
-232.68883546
 10
7.65761909
 20
-229.45454961
 10
8.97908244
 20
-233.45454975
  0
LWPOLYLINE
  5
196
100
AcDbEntity
  8
MST_1_1
 62
   137
  6
CONTINUOUS
100
AcDbPolyline
 90
        6
 70
     0
 43
0.0
 38
2500.0
 10
9.94333338
 20
-229.45454961
 10
9.7660674
 20
-230.22026403
 10
11.26479673
 20
-233.45454975
 10
11.44206277
 20
-232.68883546
 10
9.94333338
 20
-229.45454961
 10
11.26479673
 20
-233.45454975
  0
LWPOLYLINE
  5
197
100
AcDbEntity
  8
MST_1_1
 62
   137
  6
CONTINUOUS
100
AcDbPolyline
 90
        6
 70
     0
 43
0.0
 38
2500.0
 10
12.22904766
 20
-229.45454961
 10
12.05178168
 20
-230.22026403
 10
13.55051101
 20
-233.45454975
 10
13.72777705
 20
-232.68883546
 10
12.22904766
 20
-229.45454961
 10
13.55051101
 20
-233.45454975
  0
LWPOLYLINE
  5
198
100
AcDbEntity
  8
MST_1_1
 62
   137
  6
CONTINUOUS
100
AcDbPolyline
 90
        6
 70
     0
 43
0.0
 38
2500.0
 10
39.65761909
 20
-229.45454961
 10
39.48035311
 20
-230.22026403
 10
40.97908244
 20
-233.45454975
 10
41.12933982
 20
-232.63055028
 10
39.65761909
 20
-229.45454961
 10
40.97908244
 20
-233.45454975
  0
LWPOLYLINE
  5
199
100
AcDbEntity
  8
MST_1_1
 62
   137
  6
CONTINUOUS
100
AcDbPolyline
 90
        6
 70
     0
 43
0.0
 38
2500.0
 10
41.90965284
 20
-229.71476598
 10
41.7660674
 20
-230.33499467
 10
43.00374447
 20
-233.00592477
 10
43.14732991
 20
-232.38569608
 10
41.90965284
 20
-229.71476598
 10
42.98003815
 20
-232.95476609
  0
LINE
  5
19A
100
AcDbEntity
  8
MST_1_1
 62
   251
  6
CONTINUOUS
100
AcDbLine
 10
4.58491991
 20
-232.68883546
 30
2500.0
 11
6.33854531
 21
-232.68883546
 31
2500.0
  0
LINE
  5
19B
100
AcDbEntity
  8
MST_1_1
 62
   251
  6
CONTINUOUS
100
AcDbLine
 10
6.8706342
 20
-232.68883546
 30
2500.0
 11
8.6242596
 21
-232.68883546
 31
2500.0
  0
LINE
  5
19C
100
AcDbEntity
  8
MST_1_1
 62
   251
  6
CONTINUOUS
100
AcDbLine
 10
9.15634848
 20
-232.68883546
 30
2500.0
 11
10.90997388
 21
-232.68883546
 31
2500.0
  0
LINE
  5
19D
100
AcDbEntity
  8
MST_1_1
 62
   251
  6
CONTINUOUS
100
AcDbLine
 10
11.44206277
 20
-232.68883546
 30
2500.0
 11
13.19568817
 21
-232.68883546
 31
2500.0
  0
LINE
  5
19E
100
AcDbEntity
  8
MST_1_1
 62
   251
  6
CONTINUOUS
100
AcDbLine
 10
38.8706342
 20
-232.68883546
 30
2500.0
 11
40.01478424
 21
-232.68378087
 31
2500.0
  0
LINE
  5
19F
100
AcDbEntity
  8
MST_1_1
 62
   251
  6
CONTINUOUS
100
AcDbLine
 10
5.19463883
 20
-230.22026403
 30
2500.0
 11
3.44101343
 21
-230.22026403
 31
2500.0
  0
LINE
  5
1A0
100
AcDbEntity
  8
MST_1_1
 62
   251
  6
CONTINUOUS
100
AcDbLine
 10
7.48035311
 20
-230.22026403
 30
2500.0
 11
5.72672771
 21
-230.22026403
 31
2500.0
  0
LINE
  5
1A1
100
AcDbEntity
  8
MST_1_1
 62
   251
  6
CONTINUOUS
100
AcDbLine
 10
9.7660674
 20
-230.22026403
 30
2500.0
 11
8.012442
 21
-230.22026403
 31
2500.0
  0
LINE
  5
1A2
100
AcDbEntity
  8
MST_1_1
 62
   251
  6
CONTINUOUS
100
AcDbLine
 10
12.05178168
 20
-230.22026403
 30
2500.0
 11
10.29815628
 21
-230.22026403
 31
2500.0
  0
LINE
  5
1A3
100
AcDbEntity
  8
MST_1_1
 62
   251
  6
CONTINUOUS
100
AcDbLine
 10
39.48035311
 20
-230.22026403
 30
2500.0
 11
37.72672771
 21
-230.22026403
 31
2500.0
  0
ARC
  5
1A4
100
AcDbEntity
  8
MST_1_1
 62
   251
  6
CONTINUOUS
100
AcDbCircle
 10
39.54363085
 20
-251.78548655
 30
2500.0
 40
21.56531535
100
AcDbArc
 50
84.08482032
 51
88.74811714
  0
LWPOLYLINE
  5
1A5
100
AcDbEntity
  8
MST_1_1
 62
   251
  6
CONTINUOUS
100
AcDbPolyline
 90
        3
 70
     0
 43
0.0
 38
2500.0
 10
47.93749597
 20
-231.45454975
 10
43.68913071
 20
-230.62236634
 42
0.01723995
 10
42.22117589
 20
-230.3870385
  0
ARC
  5
1A6
100
AcDbEntity
  8
MST_1_1
 62
   251
  6
CONTINUOUS
100
AcDbCircle
 10
39.54363085
 20
-211.12361295
 30
2500.0
 40
21.56531535
100
AcDbArc
 50
271.25189287
 51
272.83975061
  0
LWPOLYLINE
  5
1A7
100
AcDbEntity
  8
MST_1_1
 62
   251
  6
CONTINUOUS
100
AcDbPolyline
 90
        3
 70
     0
 43
0.0
 38
2500.0
 10
47.93749597
 20
-231.45454975
 10
43.68913071
 20
-232.28673316
 42
-0.0063851
 10
43.14732991
 20
-232.38569608
  0
ARC
  5
1A8
100
AcDbEntity
  8
MST_1_1
 62
   251
  6
CONTINUOUS
100
AcDbCircle
 10
39.54363085
 20
-211.12361295
 30
2500.0
 40
21.56531535
100
AcDbArc
 50
274.21680449
 51
278.53995004
  0
LWPOLYLINE
  5
1A9
100
AcDbEntity
  8
MST_1_1
 62
   137
  6
CONTINUOUS
100
AcDbPolyline
 90
        6
 70
     0
 43
0.0
 38
2500.0
 10
44.14654808
 20
-230.28405264
 10
44.05178168
 20
-230.69340357
 10
44.86864855
 20
-232.45621744
 10
44.95927534
 20
-232.03793316
 10
44.14654808
 20
-230.28405264
 10
44.85300238
 20
-232.42245271
  0
LWPOLYLINE
  5
1AA
100
AcDbEntity
  8
MST_1_1
 62
   137
  6
CONTINUOUS
100
AcDbPolyline
 90
        6
 70
     0
 43
0.0
 38
2500.0
 10
15.08619052
 20
-109.45454961
 10
14.90892454
 20
-110.22026403
 10
16.40765387
 20
-113.45454975
 10
16.58491991
 20
-112.68883546
 10
15.08619052
 20
-109.45454961
 10
16.40765387
 20
-113.45454975
  0
LWPOLYLINE
  5
1AB
100
AcDbEntity
  8
MST_1_1
 62
   137
  6
CONTINUOUS
100
AcDbPolyline
 90
        6
 70
     0
 43
0.0
 38
2500.0
 10
17.37190481
 20
-109.45454961
 10
17.19463883
 20
-110.22026403
 10
18.69336815
 20
-113.45454975
 10
18.8706342
 20
-112.68883546
 10
17.37190481
 20
-109.45454961
 10
18.69336815
 20
-113.45454975
  0
LINE
  5
1AC
100
AcDbEntity
  8
MST_1_1
 62
   251
  6
CONTINUOUS
100
AcDbLine
 10
14.29920563
 20
-112.68883546
 30
2500.0
 11
16.05283102
 21
-112.68883546
 31
2500.0
  0
LINE
  5
1AD
100
AcDbEntity
  8
MST_1_1
 62
   251
  6
CONTINUOUS
100
AcDbLine
 10
16.58491991
 20
-112.68883546
 30
2500.0
 11
18.33854531
 21
-112.68883546
 31
2500.0
  0
LINE
  5
1AE
100
AcDbEntity
  8
MST_1_1
 62
   251
  6
CONTINUOUS
100
AcDbLine
 10
14.90892454
 20
-110.22026403
 30
2500.0
 11
13.15529914
 21
-110.22026403
 31
2500.0
  0
LINE
  5
1AF
100
AcDbEntity
  8
MST_1_1
 62
   251
  6
CONTINUOUS
100
AcDbLine
 10
17.19463883
 20
-110.22026403
 30
2500.0
 11
15.44101343
 21
-110.22026403
 31
2500.0
  0
LWPOLYLINE
  5
1B0
100
AcDbEntity
  8
MST_1_1
 62
   137
  6
CONTINUOUS
100
AcDbPolyline
 90
        6
 70
     0
 43
0.0
 38
2500.0
 10
17.80047623
 20
-139.45454961
 10
17.62321025
 20
-140.22026403
 10
19.12193958
 20
-143.45454975
 10
19.29920563
 20
-142.68883546
 10
17.80047623
 20
-139.45454961
 10
19.12193958
 20
-143.45454975
  0
LWPOLYLINE
  5
1B1
100
AcDbEntity
  8
MST_1_1
 62
   137
  6
CONTINUOUS
100
AcDbPolyline
 90
        6
 70
     0
 43
0.0
 38
2500.0
 10
20.08619052
 20
-139.45454961
 10
19.90892454
 20
-140.22026403
 10
21.40765387
 20
-143.45454975
 10
21.58491991
 20
-142.68883546
 10
20.08619052
 20
-139.45454961
 10
21.40765387
 20
-143.45454975
  0
LWPOLYLINE
  5
1B2
100
AcDbEntity
  8
MST_1_1
 62
   137
  6
CONTINUOUS
100
AcDbPolyline
 90
        6
 70
     0
 43
0.0
 38
2500.0
 10
22.37190481
 20
-139.45454961
 10
22.19463883
 20
-140.22026403
 10
23.69336815
 20
-143.45454975
 10
23.8706342
 20
-142.68883546
 10
22.37190481
 20
-139.45454961
 10
23.69336815
 20
-143.45454975
  0
LINE
  5
1B3
100
AcDbEntity
  8
MST_1_1
 62
   251
  6
CONTINUOUS
100
AcDbLine
 10
17.01349134
 20
-142.68883546
 30
2500.0
 11
18.76711674
 21
-142.68883546
 31
2500.0
  0
LINE
  5
1B4
100
AcDbEntity
  8
MST_1_1
 62
   251
  6
CONTINUOUS
100
AcDbLine
 10
19.29920563
 20
-142.68883546
 30
2500.0
 11
21.05283102
 21
-142.68883546
 31
2500.0
  0
LINE
  5
1B5
100
AcDbEntity
  8
MST_1_1
 62
   251
  6
CONTINUOUS
100
AcDbLine
 10
21.58491991
 20
-142.68883546
 30
2500.0
 11
23.33854531
 21
-142.68883546
 31
2500.0
  0
LINE
  5
1B6
100
AcDbEntity
  8
MST_1_1
 62
   251
  6
CONTINUOUS
100
AcDbLine
 10
17.62321025
 20
-140.22026403
 30
2500.0
 11
15.86958486
 21
-140.22026403
 31
2500.0
  0
LINE
  5
1B7
100
AcDbEntity
  8
MST_1_1
 62
   251
  6
CONTINUOUS
100
AcDbLine
 10
19.90892454
 20
-140.22026403
 30
2500.0
 11
18.15529914
 21
-140.22026403
 31
2500.0
  0
LINE
  5
1B8
100
AcDbEntity
  8
MST_1_1
 62
   251
  6
CONTINUOUS
100
AcDbLine
 10
22.19463883
 20
-140.22026403
 30
2500.0
 11
20.44101343
 21
-140.22026403
 31
2500.0
  0
LWPOLYLINE
  5
1B9
100
AcDbEntity
  8
MST_1_1
 62
   137
  6
CONTINUOUS
100
AcDbPolyline
 90
        6
 70
     0
 43
0.0
 38
2500.0
 10
15.51476195
 20
-139.45454961
 10
15.33749597
 20
-140.22026403
 10
16.8362253
 20
-143.45454975
 10
17.01349134
 20
-142.68883546
 10
15.51476195
 20
-139.45454961
 10
16.8362253
 20
-143.45454975
  0
LINE
  5
1BA
100
AcDbEntity
  8
MST_1_1
 62
   251
  6
CONTINUOUS
100
AcDbLine
 10
14.72777705
 20
-142.68883546
 30
2500.0
 11
16.48140245
 21
-142.68883546
 31
2500.0
  0
LINE
  5
1BB
100
AcDbEntity
  8
MST_1_1
 62
   251
  6
CONTINUOUS
100
AcDbLine
 10
15.33749597
 20
-140.22026403
 30
2500.0
 11
13.58387057
 21
-140.22026403
 31
2500.0
  0
LWPOLYLINE
  5
1BC
100
AcDbEntity
  8
MST_1_1
 62
   137
  6
CONTINUOUS
100
AcDbPolyline
 90
        6
 70
     0
 43
0.0
 38
2500.0
 10
20.51476195
 20
-169.45454961
 10
20.33749597
 20
-170.22026403
 10
21.8362253
 20
-173.45454975
 10
22.01349134
 20
-172.68883546
 10
20.51476195
 20
-169.45454961
 10
21.8362253
 20
-173.45454975
  0
LWPOLYLINE
  5
1BD
100
AcDbEntity
  8
MST_1_1
 62
   137
  6
CONTINUOUS
100
AcDbPolyline
 90
        6
 70
     0
 43
0.0
 38
2500.0
 10
22.80047623
 20
-169.45454961
 10
22.62321025
 20
-170.22026403
 10
24.12193958
 20
-173.45454975
 10
24.29920563
 20
-172.68883546
 10
22.80047623
 20
-169.45454961
 10
24.12193958
 20
-173.45454975
  0
LWPOLYLINE
  5
1BE
100
AcDbEntity
  8
MST_1_1
 62
   137
  6
CONTINUOUS
100
AcDbPolyline
 90
        6
 70
     0
 43
0.0
 38
2500.0
 10
25.08619052
 20
-169.45454961
 10
24.90892454
 20
-170.22026403
 10
26.40765387
 20
-173.45454975
 10
26.58491991
 20
-172.68883546
 10
25.08619052
 20
-169.45454961
 10
26.40765387
 20
-173.45454975
  0
LINE
  5
1BF
100
AcDbEntity
  8
MST_1_1
 62
   251
  6
CONTINUOUS
100
AcDbLine
 10
19.72777705
 20
-172.68883546
 30
2500.0
 11
21.48140245
 21
-172.68883546
 31
2500.0
  0
LINE
  5
1C0
100
AcDbEntity
  8
MST_1_1
 62
   251
  6
CONTINUOUS
100
AcDbLine
 10
22.01349134
 20
-172.68883546
 30
2500.0
 11
23.76711674
 21
-172.68883546
 31
2500.0
  0
LINE
  5
1C1
100
AcDbEntity
  8
MST_1_1
 62
   251
  6
CONTINUOUS
100
AcDbLine
 10
24.29920563
 20
-172.68883546
 30
2500.0
 11
26.05283102
 21
-172.68883546
 31
2500.0
  0
LINE
  5
1C2
100
AcDbEntity
  8
MST_1_1
 62
   251
  6
CONTINUOUS
100
AcDbLine
 10
20.33749597
 20
-170.22026403
 30
2500.0
 11
18.58387057
 21
-170.22026403
 31
2500.0
  0
LINE
  5
1C3
100
AcDbEntity
  8
MST_1_1
 62
   251
  6
CONTINUOUS
100
AcDbLine
 10
22.62321025
 20
-170.22026403
 30
2500.0
 11
20.86958486
 21
-170.22026403
 31
2500.0
  0
LINE
  5
1C4
100
AcDbEntity
  8
MST_1_1
 62
   251
  6
CONTINUOUS
100
AcDbLine
 10
24.90892454
 20
-170.22026403
 30
2500.0
 11
23.15529914
 21
-170.22026403
 31
2500.0
  0
LWPOLYLINE
  5
1C5
100
AcDbEntity
  8
MST_1_1
 62
   137
  6
CONTINUOUS
100
AcDbPolyline
 90
        6
 70
     0
 43
0.0
 38
2500.0
 10
13.65761909
 20
-169.45454961
 10
13.48035311
 20
-170.22026403
 10
14.97908244
 20
-173.45454975
 10
15.15634848
 20
-172.68883546
 10
13.65761909
 20
-169.45454961
 10
14.97908244
 20
-173.45454975
  0
LWPOLYLINE
  5
1C6
100
AcDbEntity
  8
MST_1_1
 62
   137
  6
CONTINUOUS
100
AcDbPolyline
 90
        6
 70
     0
 43
0.0
 38
2500.0
 10
15.94333338
 20
-169.45454961
 10
15.7660674
 20
-170.22026403
 10
17.26479673
 20
-173.45454975
 10
17.44206277
 20
-172.68883546
 10
15.94333338
 20
-169.45454961
 10
17.26479673
 20
-173.45454975
  0
LWPOLYLINE
  5
1C7
100
AcDbEntity
  8
MST_1_1
 62
   137
  6
CONTINUOUS
100
AcDbPolyline
 90
        6
 70
     0
 43
0.0
 38
2500.0
 10
18.22904766
 20
-169.45454961
 10
18.05178168
 20
-170.22026403
 10
19.55051101
 20
-173.45454975
 10
19.72777705
 20
-172.68883546
 10
18.22904766
 20
-169.45454961
 10
19.55051101
 20
-173.45454975
  0
LINE
  5
1C8
100
AcDbEntity
  8
MST_1_1
 62
   251
  6
CONTINUOUS
100
AcDbLine
 10
12.8706342
 20
-172.68883546
 30
2500.0
 11
14.6242596
 21
-172.68883546
 31
2500.0
  0
LINE
  5
1C9
100
AcDbEntity
  8
MST_1_1
 62
   251
  6
CONTINUOUS
100
AcDbLine
 10
15.15634848
 20
-172.68883546
 30
2500.0
 11
16.90997388
 21
-172.68883546
 31
2500.0
  0
LINE
  5
1CA
100
AcDbEntity
  8
MST_1_1
 62
   251
  6
CONTINUOUS
100
AcDbLine
 10
17.44206277
 20
-172.68883546
 30
2500.0
 11
19.19568817
 21
-172.68883546
 31
2500.0
  0
LINE
  5
1CB
100
AcDbEntity
  8
MST_1_1
 62
   251
  6
CONTINUOUS
100
AcDbLine
 10
13.48035311
 20
-170.22026403
 30
2500.0
 11
11.72672771
 21
-170.22026403
 31
2500.0
  0
LINE
  5
1CC
100
AcDbEntity
  8
MST_1_1
 62
   251
  6
CONTINUOUS
100
AcDbLine
 10
15.7660674
 20
-170.22026403
 30
2500.0
 11
14.012442
 21
-170.22026403
 31
2500.0
  0
LINE
  5
1CD
100
AcDbEntity
  8
MST_1_1
 62
   251
  6
CONTINUOUS
100
AcDbLine
 10
18.05178168
 20
-170.22026403
 30
2500.0
 11
16.29815628
 21
-170.22026403
 31
2500.0
  0
LWPOLYLINE
  5
1CE
100
AcDbEntity
  8
MST_1_1
 62
   137
  6
CONTINUOUS
100
AcDbPolyline
 90
        6
 70
     0
 43
0.0
 38
2500.0
 10
2.22904766
 20
-169.45454961
 10
2.05178168
 20
-170.22026403
 10
3.55051101
 20
-173.45454975
 10
3.72777705
 20
-172.68883546
 10
2.22904766
 20
-169.45454961
 10
3.55051101
 20
-173.45454975
  0
LINE
  5
1CF
100
AcDbEntity
  8
MST_1_1
 62
   251
  6
CONTINUOUS
100
AcDbLine
 10
4.33749597
 20
-170.22026403
 30
2500.0
 11
2.58387057
 21
-170.22026403
 31
2500.0
  0
LINE
  5
1D0
100
AcDbEntity
  8
MST_1_1
 62
   251
  6
CONTINUOUS
100
AcDbLine
 10
2.05178168
 20
-170.22026403
 30
2500.0
 11
0.43749597
 21
-170.22026403
 31
2500.0
  0
LWPOLYLINE
  5
1D1
100
AcDbEntity
  8
MST_1_1
 62
   137
  6
CONTINUOUS
100
AcDbPolyline
 90
        6
 70
     0
 43
0.0
 38
2500.0
 10
25.51476195
 20
-199.45454961
 10
25.33749597
 20
-200.22026403
 10
26.8362253
 20
-203.45454975
 10
27.01349134
 20
-202.68883546
 10
25.51476195
 20
-199.45454961
 10
26.8362253
 20
-203.45454975
  0
LWPOLYLINE
  5
1D2
100
AcDbEntity
  8
MST_1_1
 62
   137
  6
CONTINUOUS
100
AcDbPolyline
 90
        6
 70
     0
 43
0.0
 38
2500.0
 10
27.80047623
 20
-199.45454961
 10
27.62321025
 20
-200.22026403
 10
29.12193958
 20
-203.45454975
 10
29.29920563
 20
-202.68883546
 10
27.80047623
 20
-199.45454961
 10
29.12193958
 20
-203.45454975
  0
LWPOLYLINE
  5
1D3
100
AcDbEntity
  8
MST_1_1
 62
   137
  6
CONTINUOUS
100
AcDbPolyline
 90
        6
 70
     0
 43
0.0
 38
2500.0
 10
30.08619052
 20
-199.45454961
 10
29.90892454
 20
-200.22026403
 10
31.40765387
 20
-203.45454975
 10
31.58491991
 20
-202.68883546
 10
30.08619052
 20
-199.45454961
 10
31.40765387
 20
-203.45454975
  0
LWPOLYLINE
  5
1D4
100
AcDbEntity
  8
MST_1_1
 62
   137
  6
CONTINUOUS
100
AcDbPolyline
 90
        6
 70
     0
 43
0.0
 38
2500.0
 10
32.37190481
 20
-199.45454961
 10
32.19463883
 20
-200.22026403
 10
33.69336815
 20
-203.45454975
 10
33.8706342
 20
-202.68883546
 10
32.37190481
 20
-199.45454961
 10
33.69336815
 20
-203.45454975
  0
LINE
  5
1D5
100
AcDbEntity
  8
MST_1_1
 62
   251
  6
CONTINUOUS
100
AcDbLine
 10
24.72777705
 20
-202.68883546
 30
2500.0
 11
26.48140245
 21
-202.68883546
 31
2500.0
  0
LINE
  5
1D6
100
AcDbEntity
  8
MST_1_1
 62
   251
  6
CONTINUOUS
100
AcDbLine
 10
27.01349134
 20
-202.68883546
 30
2500.0
 11
28.76711674
 21
-202.68883546
 31
2500.0
  0
LINE
  5
1D7
100
AcDbEntity
  8
MST_1_1
 62
   251
  6
CONTINUOUS
100
AcDbLine
 10
29.29920563
 20
-202.68883546
 30
2500.0
 11
31.05283102
 21
-202.68883546
 31
2500.0
  0
LINE
  5
1D8
100
AcDbEntity
  8
MST_1_1
 62
   251
  6
CONTINUOUS
100
AcDbLine
 10
31.58491991
 20
-202.68883546
 30
2500.0
 11
33.33854531
 21
-202.68883546
 31
2500.0
  0
LINE
  5
1D9
100
AcDbEntity
  8
MST_1_1
 62
   251
  6
CONTINUOUS
100
AcDbLine
 10
25.33749597
 20
-200.22026403
 30
2500.0
 11
23.58387057
 21
-200.22026403
 31
2500.0
  0
LINE
  5
1DA
100
AcDbEntity
  8
MST_1_1
 62
   251
  6
CONTINUOUS
100
AcDbLine
 10
27.62321025
 20
-200.22026403
 30
2500.0
 11
25.86958486
 21
-200.22026403
 31
2500.0
  0
LINE
  5
1DB
100
AcDbEntity
  8
MST_1_1
 62
   251
  6
CONTINUOUS
100
AcDbLine
 10
29.90892454
 20
-200.22026403
 30
2500.0
 11
28.15529914
 21
-200.22026403
 31
2500.0
  0
LINE
  5
1DC
100
AcDbEntity
  8
MST_1_1
 62
   251
  6
CONTINUOUS
100
AcDbLine
 10
32.19463883
 20
-200.22026403
 30
2500.0
 11
30.44101343
 21
-200.22026403
 31
2500.0
  0
LWPOLYLINE
  5
1DD
100
AcDbEntity
  8
MST_1_1
 62
   137
  6
CONTINUOUS
100
AcDbPolyline
 90
        6
 70
     0
 43
0.0
 38
2500.0
 10
16.37190481
 20
-199.45454961
 10
16.19463883
 20
-200.22026403
 10
17.69336815
 20
-203.45454975
 10
17.8706342
 20
-202.68883546
 10
16.37190481
 20
-199.45454961
 10
17.69336815
 20
-203.45454975
  0
LWPOLYLINE
  5
1DE
100
AcDbEntity
  8
MST_1_1
 62
   137
  6
CONTINUOUS
100
AcDbPolyline
 90
        6
 70
     0
 43
0.0
 38
2500.0
 10
18.65761909
 20
-199.45454961
 10
18.48035311
 20
-200.22026403
 10
19.97908244
 20
-203.45454975
 10
20.15634848
 20
-202.68883546
 10
18.65761909
 20
-199.45454961
 10
19.97908244
 20
-203.45454975
  0
LWPOLYLINE
  5
1DF
100
AcDbEntity
  8
MST_1_1
 62
   137
  6
CONTINUOUS
100
AcDbPolyline
 90
        6
 70
     0
 43
0.0
 38
2500.0
 10
20.94333338
 20
-199.45454961
 10
20.7660674
 20
-200.22026403
 10
22.26479673
 20
-203.45454975
 10
22.44206277
 20
-202.68883546
 10
20.94333338
 20
-199.45454961
 10
22.26479673
 20
-203.45454975
  0
LWPOLYLINE
  5
1E0
100
AcDbEntity
  8
MST_1_1
 62
   137
  6
CONTINUOUS
100
AcDbPolyline
 90
        6
 70
     0
 43
0.0
 38
2500.0
 10
23.22904766
 20
-199.45454961
 10
23.05178168
 20
-200.22026403
 10
24.55051101
 20
-203.45454975
 10
24.72777705
 20
-202.68883546
 10
23.22904766
 20
-199.45454961
 10
24.55051101
 20
-203.45454975
  0
LINE
  5
1E1
100
AcDbEntity
  8
MST_1_1
 62
   251
  6
CONTINUOUS
100
AcDbLine
 10
15.58491991
 20
-202.68883546
 30
2500.0
 11
17.33854531
 21
-202.68883546
 31
2500.0
  0
LINE
  5
1E2
100
AcDbEntity
  8
MST_1_1
 62
   251
  6
CONTINUOUS
100
AcDbLine
 10
17.8706342
 20
-202.68883546
 30
2500.0
 11
19.6242596
 21
-202.68883546
 31
2500.0
  0
LINE
  5
1E3
100
AcDbEntity
  8
MST_1_1
 62
   251
  6
CONTINUOUS
100
AcDbLine
 10
20.15634848
 20
-202.68883546
 30
2500.0
 11
21.90997388
 21
-202.68883546
 31
2500.0
  0
LINE
  5
1E4
100
AcDbEntity
  8
MST_1_1
 62
   251
  6
CONTINUOUS
100
AcDbLine
 10
22.44206277
 20
-202.68883546
 30
2500.0
 11
24.19568817
 21
-202.68883546
 31
2500.0
  0
LINE
  5
1E5
100
AcDbEntity
  8
MST_1_1
 62
   251
  6
CONTINUOUS
100
AcDbLine
 10
16.19463883
 20
-200.22026403
 30
2500.0
 11
14.44101343
 21
-200.22026403
 31
2500.0
  0
LINE
  5
1E6
100
AcDbEntity
  8
MST_1_1
 62
   251
  6
CONTINUOUS
100
AcDbLine
 10
18.48035311
 20
-200.22026403
 30
2500.0
 11
16.72672771
 21
-200.22026403
 31
2500.0
  0
LINE
  5
1E7
100
AcDbEntity
  8
MST_1_1
 62
   251
  6
CONTINUOUS
100
AcDbLine
 10
20.7660674
 20
-200.22026403
 30
2500.0
 11
19.012442
 21
-200.22026403
 31
2500.0
  0
LINE
  5
1E8
100
AcDbEntity
  8
MST_1_1
 62
   251
  6
CONTINUOUS
100
AcDbLine
 10
23.05178168
 20
-200.22026403
 30
2500.0
 11
21.29815628
 21
-200.22026403
 31
2500.0
  0
LWPOLYLINE
  5
1E9
100
AcDbEntity
  8
MST_1_1
 62
   137
  6
CONTINUOUS
100
AcDbPolyline
 90
        6
 70
     0
 43
0.0
 38
2500.0
 10
14.08619052
 20
-199.45454961
 10
13.90892454
 20
-200.22026403
 10
15.40765387
 20
-203.45454975
 10
15.58491991
 20
-202.68883546
 10
14.08619052
 20
-199.45454961
 10
15.40765387
 20
-203.45454975
  0
LINE
  5
1EA
100
AcDbEntity
  8
MST_1_1
 62
   251
  6
CONTINUOUS
100
AcDbLine
 10
13.29920563
 20
-202.68883546
 30
2500.0
 11
15.05283102
 21
-202.68883546
 31
2500.0
  0
LINE
  5
1EB
100
AcDbEntity
  8
MST_1_1
 62
   251
  6
CONTINUOUS
100
AcDbLine
 10
13.90892454
 20
-200.22026403
 30
2500.0
 11
12.15529914
 21
-200.22026403
 31
2500.0
  0
LWPOLYLINE
  5
1EC
100
AcDbEntity
  8
MST_1_1
 62
   137
  6
CONTINUOUS
100
AcDbPolyline
 90
        6
 70
     0
 43
0.0
 38
2500.0
 10
30.51476195
 20
-229.45454961
 10
30.33749597
 20
-230.22026403
 10
31.8362253
 20
-233.45454975
 10
32.01349134
 20
-232.68883546
 10
30.51476195
 20
-229.45454961
 10
31.8362253
 20
-233.45454975
  0
LWPOLYLINE
  5
1ED
100
AcDbEntity
  8
MST_1_1
 62
   137
  6
CONTINUOUS
100
AcDbPolyline
 90
        6
 70
     0
 43
0.0
 38
2500.0
 10
32.80047623
 20
-229.45454961
 10
32.62321025
 20
-230.22026403
 10
34.12193958
 20
-233.45454975
 10
34.29920563
 20
-232.68883546
 10
32.80047623
 20
-229.45454961
 10
34.12193958
 20
-233.45454975
  0
LWPOLYLINE
  5
1EE
100
AcDbEntity
  8
MST_1_1
 62
   137
  6
CONTINUOUS
100
AcDbPolyline
 90
        6
 70
     0
 43
0.0
 38
2500.0
 10
35.08619052
 20
-229.45454961
 10
34.90892454
 20
-230.22026403
 10
36.40765387
 20
-233.45454975
 10
36.58491991
 20
-232.68883546
 10
35.08619052
 20
-229.45454961
 10
36.40765387
 20
-233.45454975
  0
LWPOLYLINE
  5
1EF
100
AcDbEntity
  8
MST_1_1
 62
   137
  6
CONTINUOUS
100
AcDbPolyline
 90
        6
 70
     0
 43
0.0
 38
2500.0
 10
37.37190481
 20
-229.45454961
 10
37.19463883
 20
-230.22026403
 10
38.69336815
 20
-233.45454975
 10
38.8706342
 20
-232.68883546
 10
37.37190481
 20
-229.45454961
 10
38.69336815
 20
-233.45454975
  0
LINE
  5
1F0
100
AcDbEntity
  8
MST_1_1
 62
   251
  6
CONTINUOUS
100
AcDbLine
 10
29.72777705
 20
-232.68883546
 30
2500.0
 11
31.48140245
 21
-232.68883546
 31
2500.0
  0
LINE
  5
1F1
100
AcDbEntity
  8
MST_1_1
 62
   251
  6
CONTINUOUS
100
AcDbLine
 10
32.01349134
 20
-232.68883546
 30
2500.0
 11
33.76711674
 21
-232.68883546
 31
2500.0
  0
LINE
  5
1F2
100
AcDbEntity
  8
MST_1_1
 62
   251
  6
CONTINUOUS
100
AcDbLine
 10
34.29920563
 20
-232.68883546
 30
2500.0
 11
36.05283102
 21
-232.68883546
 31
2500.0
  0
LINE
  5
1F3
100
AcDbEntity
  8
MST_1_1
 62
   251
  6
CONTINUOUS
100
AcDbLine
 10
36.58491991
 20
-232.68883546
 30
2500.0
 11
38.33854531
 21
-232.68883546
 31
2500.0
  0
LINE
  5
1F4
100
AcDbEntity
  8
MST_1_1
 62
   251
  6
CONTINUOUS
100
AcDbLine
 10
30.33749597
 20
-230.22026403
 30
2500.0
 11
28.58387057
 21
-230.22026403
 31
2500.0
  0
LINE
  5
1F5
100
AcDbEntity
  8
MST_1_1
 62
   251
  6
CONTINUOUS
100
AcDbLine
 10
32.62321025
 20
-230.22026403
 30
2500.0
 11
30.86958486
 21
-230.22026403
 31
2500.0
  0
LINE
  5
1F6
100
AcDbEntity
  8
MST_1_1
 62
   251
  6
CONTINUOUS
100
AcDbLine
 10
34.90892454
 20
-230.22026403
 30
2500.0
 11
33.15529914
 21
-230.22026403
 31
2500.0
  0
LINE
  5
1F7
100
AcDbEntity
  8
MST_1_1
 62
   251
  6
CONTINUOUS
100
AcDbLine
 10
37.19463883
 20
-230.22026403
 30
2500.0
 11
35.44101343
 21
-230.22026403
 31
2500.0
  0
LWPOLYLINE
  5
1F8
100
AcDbEntity
  8
MST_1_1
 62
   137
  6
CONTINUOUS
100
AcDbPolyline
 90
        6
 70
     0
 43
0.0
 38
2500.0
 10
21.37190481
 20
-229.45454961
 10
21.19463883
 20
-230.22026403
 10
22.69336815
 20
-233.45454975
 10
22.8706342
 20
-232.68883546
 10
21.37190481
 20
-229.45454961
 10
22.69336815
 20
-233.45454975
  0
LWPOLYLINE
  5
1F9
100
AcDbEntity
  8
MST_1_1
 62
   137
  6
CONTINUOUS
100
AcDbPolyline
 90
        6
 70
     0
 43
0.0
 38
2500.0
 10
23.65761909
 20
-229.45454961
 10
23.48035311
 20
-230.22026403
 10
24.97908244
 20
-233.45454975
 10
25.15634848
 20
-232.68883546
 10
23.65761909
 20
-229.45454961
 10
24.97908244
 20
-233.45454975
  0
LWPOLYLINE
  5
1FA
100
AcDbEntity
  8
MST_1_1
 62
   137
  6
CONTINUOUS
100
AcDbPolyline
 90
        6
 70
     0
 43
0.0
 38
2500.0
 10
25.94333338
 20
-229.45454961
 10
25.7660674
 20
-230.22026403
 10
27.26479673
 20
-233.45454975
 10
27.44206277
 20
-232.68883546
 10
25.94333338
 20
-229.45454961
 10
27.26479673
 20
-233.45454975
  0
LWPOLYLINE
  5
1FB
100
AcDbEntity
  8
MST_1_1
 62
   137
  6
CONTINUOUS
100
AcDbPolyline
 90
        6
 70
     0
 43
0.0
 38
2500.0
 10
28.22904766
 20
-229.45454961
 10
28.05178168
 20
-230.22026403
 10
29.55051101
 20
-233.45454975
 10
29.72777705
 20
-232.68883546
 10
28.22904766
 20
-229.45454961
 10
29.55051101
 20
-233.45454975
  0
LINE
  5
1FC
100
AcDbEntity
  8
MST_1_1
 62
   251
  6
CONTINUOUS
100
AcDbLine
 10
20.58491991
 20
-232.68883546
 30
2500.0
 11
22.33854531
 21
-232.68883546
 31
2500.0
  0
LINE
  5
1FD
100
AcDbEntity
  8
MST_1_1
 62
   251
  6
CONTINUOUS
100
AcDbLine
 10
22.8706342
 20
-232.68883546
 30
2500.0
 11
24.6242596
 21
-232.68883546
 31
2500.0
  0
LINE
  5
1FE
100
AcDbEntity
  8
MST_1_1
 62
   251
  6
CONTINUOUS
100
AcDbLine
 10
25.15634848
 20
-232.68883546
 30
2500.0
 11
26.90997388
 21
-232.68883546
 31
2500.0
  0
LINE
  5
1FF
100
AcDbEntity
  8
MST_1_1
 62
   251
  6
CONTINUOUS
100
AcDbLine
 10
27.44206277
 20
-232.68883546
 30
2500.0
 11
29.19568817
 21
-232.68883546
 31
2500.0
  0
LINE
  5
200
100
AcDbEntity
  8
MST_1_1
 62
   251
  6
CONTINUOUS
100
AcDbLine
 10
21.19463883
 20
-230.22026403
 30
2500.0
 11
19.44101343
 21
-230.22026403
 31
2500.0
  0
LINE
  5
201
100
AcDbEntity
  8
MST_1_1
 62
   251
  6
CONTINUOUS
100
AcDbLine
 10
23.48035311
 20
-230.22026403
 30
2500.0
 11
21.72672771
 21
-230.22026403
 31
2500.0
  0
LINE
  5
202
100
AcDbEntity
  8
MST_1_1
 62
   251
  6
CONTINUOUS
100
AcDbLine
 10
25.7660674
 20
-230.22026403
 30
2500.0
 11
24.012442
 21
-230.22026403
 31
2500.0
  0
LINE
  5
203
100
AcDbEntity
  8
MST_1_1
 62
   251
  6
CONTINUOUS
100
AcDbLine
 10
28.05178168
 20
-230.22026403
 30
2500.0
 11
26.29815628
 21
-230.22026403
 31
2500.0
  0
LWPOLYLINE
  5
204
100
AcDbEntity
  8
MST_1_1
 62
   137
  6
CONTINUOUS
100
AcDbPolyline
 90
        6
 70
     0
 43
0.0
 38
2500.0
 10
14.51476195
 20
-229.45454961
 10
14.33749597
 20
-230.22026403
 10
15.8362253
 20
-233.45454975
 10
16.01349134
 20
-232.68883546
 10
14.51476195
 20
-229.45454961
 10
15.8362253
 20
-233.45454975
  0
LWPOLYLINE
  5
205
100
AcDbEntity
  8
MST_1_1
 62
   137
  6
CONTINUOUS
100
AcDbPolyline
 90
        6
 70
     0
 43
0.0
 38
2500.0
 10
16.80047623
 20
-229.45454961
 10
16.62321025
 20
-230.22026403
 10
18.12193958
 20
-233.45454975
 10
18.29920563
 20
-232.68883546
 10
16.80047623
 20
-229.45454961
 10
18.12193958
 20
-233.45454975
  0
LWPOLYLINE
  5
206
100
AcDbEntity
  8
MST_1_1
 62
   137
  6
CONTINUOUS
100
AcDbPolyline
 90
        6
 70
     0
 43
0.0
 38
2500.0
 10
19.08619052
 20
-229.45454961
 10
18.90892454
 20
-230.22026403
 10
20.40765387
 20
-233.45454975
 10
20.58491991
 20
-232.68883546
 10
19.08619052
 20
-229.45454961
 10
20.40765387
 20
-233.45454975
  0
LINE
  5
207
100
AcDbEntity
  8
MST_1_1
 62
   251
  6
CONTINUOUS
100
AcDbLine
 10
13.72777705
 20
-232.68883546
 30
2500.0
 11
15.48140245
 21
-232.68883546
 31
2500.0
  0
LINE
  5
208
100
AcDbEntity
  8
MST_1_1
 62
   251
  6
CONTINUOUS
100
AcDbLine
 10
16.01349134
 20
-232.68883546
 30
2500.0
 11
17.76711674
 21
-232.68883546
 31
2500.0
  0
LINE
  5
209
100
AcDbEntity
  8
MST_1_1
 62
   251
  6
CONTINUOUS
100
AcDbLine
 10
18.29920563
 20
-232.68883546
 30
2500.0
 11
20.05283102
 21
-232.68883546
 31
2500.0
  0
LINE
  5
20A
100
AcDbEntity
  8
MST_1_1
 62
   251
  6
CONTINUOUS
100
AcDbLine
 10
14.33749597
 20
-230.22026403
 30
2500.0
 11
12.58387057
 21
-230.22026403
 31
2500.0
  0
LINE
  5
20B
100
AcDbEntity
  8
MST_1_1
 62
   251
  6
CONTINUOUS
100
AcDbLine
 10
16.62321025
 20
-230.22026403
 30
2500.0
 11
14.86958486
 21
-230.22026403
 31
2500.0
  0
LINE
  5
20C
100
AcDbEntity
  8
MST_1_1
 62
   251
  6
CONTINUOUS
100
AcDbLine
 10
18.90892454
 20
-230.22026403
 30
2500.0
 11
17.15529914
 21
-230.22026403
 31
2500.0
  0
CIRCLE
  5
20D
100
AcDbEntity
  8
MST_1_1
 62
   137
  6
CONTINUOUS
100
AcDbCircle
 10
-87.62734505
 20
8.54545025
 30
0.0
 40
2.16489752
  0
CIRCLE
  5
20E
100
AcDbEntity
  8
MST_1_1
 62
   137
  6
CONTINUOUS
100
AcDbCircle
 10
-87.62734505
 20
8.54545025
 30
0.0
 40
1.21199358
  0
CIRCLE
  5
20F
100
AcDbEntity
  8
MST_1_1
 62
   137
  6
CONTINUOUS
100
AcDbCircle
 10
-87.62734505
 20
8.54545025
 30
0.0
 40
2.16489752
  0
CIRCLE
  5
210
100
AcDbEntity
  8
MST_1_1
 62
   137
  6
CONTINUOUS
100
AcDbCircle
 10
-87.62734505
 20
8.54545025
 30
0.0
 40
1.21199358
  0
CIRCLE
  5
211
100
AcDbEntity
  8
MST_1_1
 62
   137
  6
CONTINUOUS
100
AcDbCircle
 10
-87.62734505
 20
8.54545025
 30
0.0
 40
2.16489752
  0
CIRCLE
  5
212
100
AcDbEntity
  8
MST_1_1
 62
   137
  6
CONTINUOUS
100
AcDbCircle
 10
-87.62734505
 20
8.54545025
 30
0.0
 40
1.21199358
  0
CIRCLE
  5
213
100
AcDbEntity
  8
MST_1_1
 62
   137
  6
CONTINUOUS
100
AcDbCircle
 10
-87.62734505
 20
8.54545025
 30
0.0
 40
1.82204038
  0
CIRCLE
  5
214
100
AcDbEntity
  8
MST_1_1
 62
   137
  6
CONTINUOUS
100
AcDbCircle
 10
-87.62734505
 20
8.54545025
 30
0.0
 40
2.27918323
  0
CIRCLE
  5
215
100
AcDbEntity
  8
MST_1_1
 62
   137
  6
CONTINUOUS
100
AcDbCircle
 10
-87.62734505
 20
8.54545025
 30
0.0
 40
1.28571429
  0
CIRCLE
  5
216
100
AcDbEntity
  8
MST_1_1
 62
   137
  6
CONTINUOUS
100
AcDbCircle
 10
-87.62734505
 20
8.54545025
 30
0.0
 40
4.0
  0
ARC
  5
217
100
AcDbEntity
  8
MST_1_1
 62
   137
  6
CONTINUOUS
100
AcDbCircle
 10
-89.19534503
 20
8.54545025
 30
0.0
 40
0.34628572
100
AcDbArc
 50
104.00039951
 51
255.99961051
  0
ARC
  5
218
100
AcDbEntity
  8
MST_1_1
 62
   137
  6
CONTINUOUS
100
AcDbCircle
 10
-89.45902226
 20
7.4879309
 30
0.0
 40
0.74361009
100
AcDbArc
 50
344.00042282
 51
75.99958535
  0
ARC
  5
219
100
AcDbEntity
  8
MST_1_1
 62
   137
  6
CONTINUOUS
100
AcDbCircle
 10
-88.41134502
 20
7.18752243
 30
0.0
 40
0.3462857
100
AcDbArc
 50
164.00040911
 51
315.99959504
  0
ARC
  5
21A
100
AcDbEntity
  8
MST_1_1
 62
   137
  6
CONTINUOUS
100
AcDbCircle
 10
-87.62734505
 20
6.43041168
 30
0.0
 40
0.74361
100
AcDbArc
 50
44.00040429
 51
135.99959571
  0
ARC
  5
21B
100
AcDbEntity
  8
MST_1_1
 62
   137
  6
CONTINUOUS
100
AcDbCircle
 10
-86.84334505
 20
7.18752237
 30
0.0
 40
0.34628569
100
AcDbArc
 50
224.00041508
 51
15.9996008
  0
ARC
  5
21C
100
AcDbEntity
  8
MST_1_1
 62
   137
  6
CONTINUOUS
100
AcDbCircle
 10
-86.05934507
 20
8.54545025
 30
0.0
 40
0.34628572
100
AcDbArc
 50
284.00040953
 51
75.99960049
  0
ARC
  5
21D
100
AcDbEntity
  8
MST_1_1
 62
   137
  6
CONTINUOUS
100
AcDbCircle
 10
-85.79566784
 20
9.60296961
 30
0.0
 40
0.74361009
100
AcDbArc
 50
164.00041281
 51
255.99959537
  0
ARC
  5
21E
100
AcDbEntity
  8
MST_1_1
 62
   137
  6
CONTINUOUS
100
AcDbCircle
 10
-86.84334508
 20
9.90337808
 30
0.0
 40
0.3462857
100
AcDbArc
 50
344.00041913
 51
135.99958502
  0
ARC
  5
21F
100
AcDbEntity
  8
MST_1_1
 62
   137
  6
CONTINUOUS
100
AcDbCircle
 10
-87.62734505
 20
10.66048883
 30
0.0
 40
0.74361
100
AcDbArc
 50
224.00041431
 51
315.99960573
  0
ARC
  5
220
100
AcDbEntity
  8
MST_1_1
 62
   137
  6
CONTINUOUS
100
AcDbCircle
 10
-88.41134505
 20
9.90337813
 30
0.0
 40
0.34628569
100
AcDbArc
 50
44.00040506
 51
195.99961082
  0
ARC
  5
221
100
AcDbEntity
  8
MST_1_1
 62
   137
  6
CONTINUOUS
100
AcDbCircle
 10
-89.45902225
 20
9.60296961
 30
0.0
 40
0.74361009
100
AcDbArc
 50
284.00042461
 51
15.99958726
  0
LWPOLYLINE
  5
222
100
AcDbEntity
  8
MST_1_1
 62
   137
  6
CONTINUOUS
100
AcDbPolyline
 90
        9
 70
     0
 43
0.0
 10
-89.10216779
 20
5.97966268
 10
-89.09180669
 20
5.99002378
 10
-89.08143828
 20
6.00039232
 10
-89.07106268
 20
6.01076779
 10
-89.06067976
 20
6.02115071
 10
-89.05028979
 20
6.03154081
 10
-89.03989251
 20
6.04193809
 10
-89.02948817
 20
6.05234229
 10
-89.01907678
 20
6.06275368
  0
ARC
  5
223
100
AcDbEntity
  8
MST_1_1
 62
   137
  6
CONTINUOUS
100
AcDbCircle
 10
-88.84518498
 20
6.20755311
 30
0.0
 40
0.22628574
100
AcDbArc
 50
50.21591721
 51
219.78410477
  0
LWPOLYLINE
  5
224
100
AcDbEntity
  8
MST_1_1
 62
   137
  6
CONTINUOUS
100
AcDbPolyline
 90
        9
 70
     0
 43
0.0
 10
-88.70038558
 20
6.38144495
 10
-88.69001843
 20
6.39181217
 10
-88.67964576
 20
6.40218484
 10
-88.66926757
 20
6.41256297
 10
-88.65888379
 20
6.42294668
 10
-88.64849462
 20
6.43333598
 10
-88.63809999
 20
6.44373061
 10
-88.62769991
 20
6.45413055
 10
-88.61729451
 20
6.46453595
  0
LWPOLYLINE
  5
225
100
AcDbEntity
  8
MST_1_1
 62
   137
  6
CONTINUOUS
100
AcDbPolyline
 90
        9
 70
     0
 43
0.0
 10
-88.61729451
 20
6.46453595
 10
-88.67940821
 20
6.52664971
 10
-88.74158151
 20
6.58882295
 10
-88.80380689
 20
6.65104833
 10
-88.86607645
 20
6.71331789
 10
-88.92838273
 20
6.77562417
 10
-88.99071788
 20
6.83795932
 10
-89.05307432
 20
6.90031576
 10
-89.11544419
 20
6.96268563
  0
LWPOLYLINE
  5
226
100
AcDbEntity
  8
MST_1_1
 62
   137
  6
CONTINUOUS
100
AcDbPolyline
 90
        9
 70
     0
 43
0.0
 10
-89.11544419
 20
6.96268563
 10
-89.11912651
 20
6.95900345
 10
-89.12280802
 20
6.9553218
 10
-89.12648901
 20
6.95164094
 10
-89.13016933
 20
6.94796062
 10
-89.13384885
 20
6.94428097
 10
-89.13752784
 20
6.94060211
 10
-89.14120604
 20
6.93692379
 10
-89.1448837
 20
6.93324626
  0
LWPOLYLINE
  5
227
100
AcDbEntity
  8
MST_1_1
 62
   137
  6
CONTINUOUS
100
AcDbPolyline
 90
       25
 70
     0
 43
0.0
 10
-89.1448837
 20
6.93324621
 10
-89.14796064
 20
6.93798564
 10
-89.15111925
 20
6.94266219
 10
-89.15435868
 20
6.94727501
 10
-89.15767808
 20
6.95182325
 10
-89.1610766
 20
6.95630606
 10
-89.16455338
 20
6.96072258
 10
-89.16810758
 20
6.96507196
 10
-89.17173834
 20
6.96935334
 10
-89.17544482
 20
6.97356587
 10
-89.17922616
 20
6.9777087
 10
-89.18308152
 20
6.98178098
 10
-89.18701003
 20
6.98578184
 10
-89.19101086
 20
6.98971044
 10
-89.19508315
 20
6.99356593
 10
-89.19922604
 20
6.99734745
 10
-89.20343869
 20
7.00105414
 10
-89.20772025
 20
7.00468515
 10
-89.21206987
 20
7.00823964
 10
-89.21648669
 20
7.01171674
 10
-89.22096987
 20
7.0151156
 10
-89.22551854
 20
7.01843537
 10
-89.23013187
 20
7.0216752
 10
-89.23480901
 20
7.02483423
 10
-89.23954909
 20
7.0279116
  0
LWPOLYLINE
  5
228
100
AcDbEntity
  8
MST_1_1
 62
   137
  6
CONTINUOUS
100
AcDbPolyline
 90
        9
 70
     0
 43
0.0
 10
-89.23954904
 20
7.02791161
 10
-89.23587152
 20
7.03158927
 10
-89.23219319
 20
7.03526746
 10
-89.22851433
 20
7.03894645
 10
-89.22483468
 20
7.04262597
 10
-89.22115436
 20
7.04630629
 10
-89.21747351
 20
7.04998728
 10
-89.21379185
 20
7.0536688
 10
-89.21010967
 20
7.05735111
  0
LWPOLYLINE
  5
229
100
AcDbEntity
  8
MST_1_1
 62
   137
  6
CONTINUOUS
100
AcDbPolyline
 90
        9
 70
     0
 43
0.0
 10
-89.21010967
 20
7.05735111
 10
-89.27247955
 20
7.11972099
 10
-89.33483598
 20
7.18207742
 10
-89.39717113
 20
7.24441257
 10
-89.45947741
 20
7.30671885
 10
-89.52174697
 20
7.36898841
 10
-89.58397235
 20
7.4312138
 10
-89.64614559
 20
7.49338709
 10
-89.70825935
 20
7.55550079
  0
LWPOLYLINE
  5
22A
100
AcDbEntity
  8
MST_1_1
 62
   137
  6
CONTINUOUS
100
AcDbPolyline
 90
        9
 70
     0
 43
0.0
 10
-89.70825935
 20
7.55550079
 10
-89.71866475
 20
7.54509539
 10
-89.72906469
 20
7.53469531
 10
-89.73945932
 20
7.52430068
 10
-89.74984862
 20
7.51391151
 10
-89.76023234
 20
7.50352773
 10
-89.77061046
 20
7.49314954
 10
-89.78098313
 20
7.48277687
 10
-89.79135035
 20
7.47240972
  0
ARC
  5
22B
100
AcDbEntity
  8
MST_1_1
 62
   137
  6
CONTINUOUS
100
AcDbCircle
 10
-89.9652422
 20
7.32761034
 30
0.0
 40
0.22628574
100
AcDbArc
 50
230.21591956
 51
39.7840785
  0
LWPOLYLINE
  5
22C
100
AcDbEntity
  8
MST_1_1
 62
   137
  6
CONTINUOUS
100
AcDbPolyline
 90
        9
 70
     0
 43
0.0
 10
-90.11004162
 20
7.15371852
 10
-90.12045301
 20
7.14330713
 10
-90.13085721
 20
7.13290279
 10
-90.1412545
 20
7.12250551
 10
-90.1516446
 20
7.11211554
 10
-90.16202751
 20
7.10173262
 10
-90.17240298
 20
7.09135702
 10
-90.18277153
 20
7.08098861
 10
-90.19313262
 20
7.07062751
  0
LWPOLYLINE
  5
22D
100
AcDbEntity
  8
MST_1_1
 62
   137
  6
CONTINUOUS
100
AcDbPolyline
 90
        9
 70
     0
 43
0.0
 10
-90.19313262
 20
7.07062751
 10
-90.13102778
 20
7.00852293
 10
-90.06886013
 20
6.94635516
 10
-90.00663741
 20
6.8841323
 10
-89.94436758
 20
6.82186261
 10
-89.88205917
 20
6.7595542
 10
-89.81972017
 20
6.69721519
 10
-89.75735867
 20
6.6348537
 10
-89.69498281
 20
6.57247784
  0
LWPOLYLINE
  5
22E
100
AcDbEntity
  8
MST_1_1
 62
   137
  6
CONTINUOUS
100
AcDbPolyline
 90
        9
 70
     0
 43
0.0
 10
-89.69498281
 20
6.57247784
 10
-89.69130608
 20
6.57615457
 10
-89.68762842
 20
6.57983223
 10
-89.68394983
 20
6.58351082
 10
-89.68027031
 20
6.58719034
 10
-89.67658999
 20
6.59087066
 10
-89.67290874
 20
6.59455204
 10
-89.66922642
 20
6.59823423
 10
-89.66554331
 20
6.60191734
  0
LWPOLYLINE
  5
22F
100
AcDbEntity
  8
MST_1_1
 62
   137
  6
CONTINUOUS
100
AcDbPolyline
 90
       25
 70
     0
 43
0.0
 10
-89.66554336
 20
6.60191734
 10
-89.66246665
 20
6.59717829
 10
-89.6593082
 20
6.59250204
 10
-89.65606886
 20
6.58788943
 10
-89.6527495
 20
6.58334133
 10
-89.64935097
 20
6.57885861
 10
-89.64587413
 20
6.57444211
 10
-89.64231984
 20
6.57009271
 10
-89.63868895
 20
6.56581126
 10
-89.63498232
 20
6.56159862
 10
-89.63120082
 20
6.55745566
 10
-89.62734529
 20
6.55338323
 10
-89.6234166
 20
6.5493822
 10
-89.61941561
 20
6.54545342
 10
-89.61534317
 20
6.54159776
 10
-89.61120014
 20
6.53781608
 10
-89.60698738
 20
6.53410924
 10
-89.60270575
 20
6.53047809
 10
-89.59835611
 20
6.52692351
 10
-89.5939393
 20
6.52344634
 10
-89.5894562
 20
6.52004746
 10
-89.58490766
 20
6.51672771
 10
-89.58029453
 20
6.51348797
 10
-89.57561768
 20
6.5103291
 10
-89.57087797
 20
6.50725194
  0
LWPOLYLINE
  5
230
100
AcDbEntity
  8
MST_1_1
 62
   137
  6
CONTINUOUS
100
AcDbPolyline
 90
        9
 70
     0
 43
0.0
 10
-89.57087796
 20
6.507252
 10
-89.57456107
 20
6.50356888
 10
-89.57824326
 20
6.49988656
 10
-89.58192464
 20
6.49620531
 10
-89.58560496
 20
6.49252499
 10
-89.58928449
 20
6.48884547
 10
-89.59296308
 20
6.48516688
 10
-89.59664074
 20
6.48148922
 10
-89.60031746
 20
6.47781249
  0
LWPOLYLINE
  5
231
100
AcDbEntity
  8
MST_1_1
 62
   137
  6
CONTINUOUS
100
AcDbPolyline
 90
        9
 70
     0
 43
0.0
 10
-89.60031746
 20
6.47781249
 10
-89.5379416
 20
6.41543663
 10
-89.47558011
 20
6.35307514
 10
-89.4132411
 20
6.29073613
 10
-89.3509327
 20
6.22842772
 10
-89.288663
 20
6.1661579
 10
-89.22644015
 20
6.10393517
 10
-89.16427237
 20
6.04176753
 10
-89.10216779
 20
5.97966268
  0
CIRCLE
  5
232
100
AcDbEntity
  8
MST_1_1
 62
   137
  6
CONTINUOUS
100
AcDbCircle
 10
-87.62734505
 20
8.54545025
 30
0.0
 40
3.75223156
  0
ARC
  5
233
100
AcDbEntity
  8
MST_1_1
 62
   137
  6
CONTINUOUS
100
AcDbCircle
 10
-85.79566784
 20
7.4879309
 30
0.0
 40
0.74361009
100
AcDbArc
 50
104.00041459
 51
195.99959727
  0
LWPOLYLINE
  5
234
100
AcDbEntity
  8
MST_1_1
 62
   137
  6
CONTINUOUS
100
AcDbPolyline
 90
        9
 70
     0
 43
0.0
 10
-89.33783524
 20
7.06870713
 10
-89.37866509
 20
7.10953697
 10
-89.41948642
 20
7.15035831
 10
-89.46029724
 20
7.19116913
 10
-89.50109529
 20
7.23196718
 10
-89.54187844
 20
7.27275032
 10
-89.58264442
 20
7.31351644
 10
-89.62339125
 20
7.35426327
 10
-89.66411665
 20
7.39498867
  0
ARC
  5
235
100
AcDbEntity
  8
MST_1_1
 62
   137
  6
CONTINUOUS
100
AcDbCircle
 10
-89.40521366
 20
6.76758252
 30
0.0
 40
0.3085707
100
AcDbArc
 50
77.38747914
 51
127.33780242
  0
LINE
  5
236
100
AcDbEntity
  8
MST_1_1
 62
   137
  6
CONTINUOUS
100
AcDbLine
 10
-89.15987639
 20
6.58042947
 30
0.0
 11
-89.59236583
 21
7.01291891
 31
0.0
  0
ARC
  5
237
100
AcDbEntity
  8
MST_1_1
 62
   137
  6
CONTINUOUS
100
AcDbCircle
 10
-89.40521292
 20
6.76758167
 30
0.0
 40
0.30857083
100
AcDbArc
 50
322.66221884
 51
12.61250962
  0
LWPOLYLINE
  5
238
100
AcDbEntity
  8
MST_1_1
 62
   137
  6
CONTINUOUS
100
AcDbPolyline
 90
        9
 70
     0
 43
0.0
 10
-88.77780663
 20
6.50867865
 10
-88.81853203
 20
6.54940405
 10
-88.85927886
 20
6.59015088
 10
-88.90004498
 20
6.63091686
 10
-88.94082813
 20
6.67170001
 10
-88.98162617
 20
6.71249806
 10
-89.022437
 20
6.75330888
 10
-89.06325833
 20
6.79413021
 10
-89.10408817
 20
6.83496006
  0
ARC
  5
239
100
AcDbEntity
  8
MST_1_1
 62
   137
  6
CONTINUOUS
100
AcDbCircle
 10
-88.84518485
 20
6.20755317
 30
0.0
 40
0.30857151
100
AcDbArc
 50
77.38755048
 51
192.61243885
  0
LWPOLYLINE
  5
23A
100
AcDbEntity
  8
MST_1_1
 62
   137
  6
CONTINUOUS
100
AcDbPolyline
 90
        9
 70
     0
 43
0.0
 10
-89.47259176
 20
6.46645634
 10
-89.43176005
 20
6.42562463
 10
-89.39093712
 20
6.3848017
 10
-89.35012524
 20
6.34398982
 10
-89.30932652
 20
6.3031911
 10
-89.26854351
 20
6.26240822
 10
-89.22777832
 20
6.2216429
 10
-89.18703309
 20
6.18089781
 10
-89.14631035
 20
6.14017506
  0
ARC
  5
23B
100
AcDbEntity
  8
MST_1_1
 62
   137
  6
CONTINUOUS
100
AcDbCircle
 10
-89.40521374
 20
6.76758273
 30
0.0
 40
0.30857236
100
AcDbArc
 50
257.38763285
 51
307.33766874
  0
LWPOLYLINE
  5
23C
100
AcDbEntity
  8
MST_1_1
 62
   137
  6
CONTINUOUS
100
AcDbPolyline
 90
        9
 70
     0
 43
0.0
 10
-89.65055074
 20
6.95473413
 10
-89.59650756
 20
6.90069108
 10
-89.54244894
 20
6.84663246
 10
-89.48838007
 20
6.79256346
 10
-89.43430589
 20
6.73848941
 10
-89.38023184
 20
6.68441523
 10
-89.32616284
 20
6.63034636
 10
-89.27210422
 20
6.57628774
 10
-89.21806117
 20
6.52224456
  0
ARC
  5
23D
100
AcDbEntity
  8
MST_1_1
 62
   137
  6
CONTINUOUS
100
AcDbCircle
 10
-89.40521342
 20
6.76758175
 30
0.0
 40
0.30857157
100
AcDbArc
 50
142.662273
 51
192.61245546
  0
LWPOLYLINE
  5
23E
100
AcDbEntity
  8
MST_1_1
 62
   137
  6
CONTINUOUS
100
AcDbPolyline
 90
        9
 70
     0
 43
0.0
 10
-90.03262024
 20
7.02648495
 10
-89.9918975
 20
6.98576221
 10
-89.9511524
 20
6.94501698
 10
-89.91038708
 20
6.90425179
 10
-89.8696042
 20
6.86346878
 10
-89.82880548
 20
6.82267006
 10
-89.7879936
 20
6.78185818
 10
-89.74717067
 20
6.74103525
 10
-89.70633896
 20
6.70020354
  0
ARC
  5
23F
100
AcDbEntity
  8
MST_1_1
 62
   137
  6
CONTINUOUS
100
AcDbCircle
 10
-89.96524184
 20
7.32761016
 30
0.0
 40
0.30857129
100
AcDbArc
 50
257.38751638
 51
12.61251432
  0
LWPOLYLINE
  5
240
100
AcDbEntity
  8
MST_1_1
 62
   137
  6
CONTINUOUS
100
AcDbPolyline
 90
        9
 70
     0
 43
0.0
 10
-89.49608291
 20
6.97482076
 10
-89.45882522
 20
6.93756307
 10
-89.42156247
 20
6.90030032
 10
-89.38429653
 20
6.86303425
 10
-89.34702872
 20
6.82576658
 10
-89.30976105
 20
6.78849877
 10
-89.27249498
 20
6.75123283
 10
-89.23523223
 20
6.71397008
 10
-89.19797454
 20
6.67671239
  0
ARC
  5
241
100
AcDbEntity
  8
MST_1_1
 62
   137
  6
CONTINUOUS
100
AcDbCircle
 10
-89.4052136
 20
6.7675817
 30
0.0
 40
0.22628579
100
AcDbArc
 50
336.32372311
 51
113.6762869
  0
LWPOLYLINE
  5
242
100
AcDbEntity
  8
MST_1_1
 62
   137
  6
CONTINUOUS
100
AcDbPolyline
 90
        9
 70
     0
 43
0.0
 10
-89.31434409
 20
6.56034284
 10
-89.35160178
 20
6.5976004
 10
-89.3888644
 20
6.63486314
 10
-89.42613047
 20
6.67212922
 10
-89.46339828
 20
6.70939702
 10
-89.50066608
 20
6.74666483
 10
-89.53793216
 20
6.7839309
 10
-89.57519491
 20
6.82119352
 10
-89.61245246
 20
6.85845121
  0
ARC
  5
243
100
AcDbEntity
  8
MST_1_1
 62
   137
  6
CONTINUOUS
100
AcDbCircle
 10
-89.40521346
 20
6.76758184
 30
0.0
 40
0.22628576
100
AcDbArc
 50
156.32369345
 51
293.67631657
  0
CIRCLE
  5
244
100
AcDbEntity
  8
MST_1_1
 62
   137
  6
CONTINUOUS
100
AcDbCircle
 10
-87.62734505
 20
-21.45454975
 30
0.0
 40
2.16489752
  0
CIRCLE
  5
245
100
AcDbEntity
  8
MST_1_1
 62
   137
  6
CONTINUOUS
100
AcDbCircle
 10
-87.62734505
 20
-21.45454975
 30
0.0
 40
1.21199358
  0
CIRCLE
  5
246
100
AcDbEntity
  8
MST_1_1
 62
   137
  6
CONTINUOUS
100
AcDbCircle
 10
-87.62734505
 20
-21.45454975
 30
0.0
 40
2.16489752
  0
CIRCLE
  5
247
100
AcDbEntity
  8
MST_1_1
 62
   137
  6
CONTINUOUS
100
AcDbCircle
 10
-87.62734505
 20
-21.45454975
 30
0.0
 40
1.21199358
  0
CIRCLE
  5
248
100
AcDbEntity
  8
MST_1_1
 62
   137
  6
CONTINUOUS
100
AcDbCircle
 10
-87.62734505
 20
-21.45454975
 30
0.0
 40
2.16489752
  0
CIRCLE
  5
249
100
AcDbEntity
  8
MST_1_1
 62
   137
  6
CONTINUOUS
100
AcDbCircle
 10
-87.62734505
 20
-21.45454975
 30
0.0
 40
1.21199358
  0
CIRCLE
  5
24A
100
AcDbEntity
  8
MST_1_1
 62
   137
  6
CONTINUOUS
100
AcDbCircle
 10
-87.62734505
 20
-21.45454975
 30
0.0
 40
1.82204038
  0
CIRCLE
  5
24B
100
AcDbEntity
  8
MST_1_1
 62
   137
  6
CONTINUOUS
100
AcDbCircle
 10
-87.62734505
 20
-21.45454975
 30
0.0
 40
2.27918323
  0
CIRCLE
  5
24C
100
AcDbEntity
  8
MST_1_1
 62
   137
  6
CONTINUOUS
100
AcDbCircle
 10
-87.62734505
 20
-21.45454975
 30
0.0
 40
1.28571429
  0
CIRCLE
  5
24D
100
AcDbEntity
  8
MST_1_1
 62
   137
  6
CONTINUOUS
100
AcDbCircle
 10
-87.62734505
 20
-21.45454975
 30
0.0
 40
4.0
  0
ARC
  5
24E
100
AcDbEntity
  8
MST_1_1
 62
   137
  6
CONTINUOUS
100
AcDbCircle
 10
-89.19534503
 20
-21.45454975
 30
0.0
 40
0.34628572
100
AcDbArc
 50
104.00039951
 51
255.99961051
  0
ARC
  5
24F
100
AcDbEntity
  8
MST_1_1
 62
   137
  6
CONTINUOUS
100
AcDbCircle
 10
-89.45902226
 20
-22.5120691
 30
0.0
 40
0.74361009
100
AcDbArc
 50
344.00042282
 51
75.99958535
  0
ARC
  5
250
100
AcDbEntity
  8
MST_1_1
 62
   137
  6
CONTINUOUS
100
AcDbCircle
 10
-88.41134502
 20
-22.81247757
 30
0.0
 40
0.3462857
100
AcDbArc
 50
164.00040911
 51
315.99959504
  0
ARC
  5
251
100
AcDbEntity
  8
MST_1_1
 62
   137
  6
CONTINUOUS
100
AcDbCircle
 10
-87.62734505
 20
-23.56958832
 30
0.0
 40
0.74361
100
AcDbArc
 50
44.00040429
 51
135.99959571
  0
ARC
  5
252
100
AcDbEntity
  8
MST_1_1
 62
   137
  6
CONTINUOUS
100
AcDbCircle
 10
-86.84334505
 20
-22.81247763
 30
0.0
 40
0.34628569
100
AcDbArc
 50
224.00041508
 51
15.9996008
  0
ARC
  5
253
100
AcDbEntity
  8
MST_1_1
 62
   137
  6
CONTINUOUS
100
AcDbCircle
 10
-86.05934507
 20
-21.45454975
 30
0.0
 40
0.34628572
100
AcDbArc
 50
284.00040953
 51
75.99960049
  0
ARC
  5
254
100
AcDbEntity
  8
MST_1_1
 62
   137
  6
CONTINUOUS
100
AcDbCircle
 10
-85.79566784
 20
-20.39703039
 30
0.0
 40
0.74361009
100
AcDbArc
 50
164.00041281
 51
255.99959537
  0
ARC
  5
255
100
AcDbEntity
  8
MST_1_1
 62
   137
  6
CONTINUOUS
100
AcDbCircle
 10
-86.84334508
 20
-20.09662192
 30
0.0
 40
0.3462857
100
AcDbArc
 50
344.00041913
 51
135.99958502
  0
ARC
  5
256
100
AcDbEntity
  8
MST_1_1
 62
   137
  6
CONTINUOUS
100
AcDbCircle
 10
-87.62734505
 20
-19.33951117
 30
0.0
 40
0.74361
100
AcDbArc
 50
224.00041431
 51
315.99960573
  0
ARC
  5
257
100
AcDbEntity
  8
MST_1_1
 62
   137
  6
CONTINUOUS
100
AcDbCircle
 10
-88.41134505
 20
-20.09662187
 30
0.0
 40
0.34628569
100
AcDbArc
 50
44.00040506
 51
195.99961082
  0
ARC
  5
258
100
AcDbEntity
  8
MST_1_1
 62
   137
  6
CONTINUOUS
100
AcDbCircle
 10
-89.45902225
 20
-20.39703039
 30
0.0
 40
0.74361009
100
AcDbArc
 50
284.00042461
 51
15.99958726
  0
LWPOLYLINE
  5
259
100
AcDbEntity
  8
MST_1_1
 62
   137
  6
CONTINUOUS
100
AcDbPolyline
 90
        9
 70
     0
 43
0.0
 10
-89.10216779
 20
-24.02033732
 10
-89.09180669
 20
-24.00997622
 10
-89.08143828
 20
-23.99960768
 10
-89.07106268
 20
-23.98923221
 10
-89.06067976
 20
-23.97884929
 10
-89.05028979
 20
-23.96845919
 10
-89.03989251
 20
-23.95806191
 10
-89.02948817
 20
-23.94765771
 10
-89.01907678
 20
-23.93724632
  0
ARC
  5
25A
100
AcDbEntity
  8
MST_1_1
 62
   137
  6
CONTINUOUS
100
AcDbCircle
 10
-88.84518498
 20
-23.79244689
 30
0.0
 40
0.22628574
100
AcDbArc
 50
50.21591721
 51
219.78410477
  0
LWPOLYLINE
  5
25B
100
AcDbEntity
  8
MST_1_1
 62
   137
  6
CONTINUOUS
100
AcDbPolyline
 90
        9
 70
     0
 43
0.0
 10
-88.70038558
 20
-23.61855505
 10
-88.69001843
 20
-23.60818783
 10
-88.67964576
 20
-23.59781516
 10
-88.66926757
 20
-23.58743703
 10
-88.65888379
 20
-23.57705332
 10
-88.64849462
 20
-23.56666402
 10
-88.63809999
 20
-23.55626939
 10
-88.62769991
 20
-23.54586945
 10
-88.61729451
 20
-23.53546405
  0
LWPOLYLINE
  5
25C
100
AcDbEntity
  8
MST_1_1
 62
   137
  6
CONTINUOUS
100
AcDbPolyline
 90
        9
 70
     0
 43
0.0
 10
-88.61729451
 20
-23.53546405
 10
-88.67940821
 20
-23.47335029
 10
-88.74158151
 20
-23.41117705
 10
-88.80380689
 20
-23.34895167
 10
-88.86607645
 20
-23.28668211
 10
-88.92838273
 20
-23.22437583
 10
-88.99071788
 20
-23.16204068
 10
-89.05307432
 20
-23.09968424
 10
-89.11544419
 20
-23.03731437
  0
LWPOLYLINE
  5
25D
100
AcDbEntity
  8
MST_1_1
 62
   137
  6
CONTINUOUS
100
AcDbPolyline
 90
        9
 70
     0
 43
0.0
 10
-89.11544419
 20
-23.03731437
 10
-89.11912651
 20
-23.04099655
 10
-89.12280802
 20
-23.0446782
 10
-89.12648901
 20
-23.04835906
 10
-89.13016933
 20
-23.05203938
 10
-89.13384885
 20
-23.05571903
 10
-89.13752784
 20
-23.05939789
 10
-89.14120604
 20
-23.06307621
 10
-89.1448837
 20
-23.06675374
  0
LWPOLYLINE
  5
25E
100
AcDbEntity
  8
MST_1_1
 62
   137
  6
CONTINUOUS
100
AcDbPolyline
 90
       25
 70
     0
 43
0.0
 10
-89.1448837
 20
-23.06675379
 10
-89.14796064
 20
-23.06201436
 10
-89.15111925
 20
-23.05733781
 10
-89.15435868
 20
-23.05272499
 10
-89.15767808
 20
-23.04817675
 10
-89.1610766
 20
-23.04369394
 10
-89.16455338
 20
-23.03927742
 10
-89.16810758
 20
-23.03492804
 10
-89.17173834
 20
-23.03064666
 10
-89.17544482
 20
-23.02643413
 10
-89.17922616
 20
-23.0222913
 10
-89.18308152
 20
-23.01821902
 10
-89.18701003
 20
-23.01421816
 10
-89.19101086
 20
-23.01028956
 10
-89.19508315
 20
-23.00643407
 10
-89.19922604
 20
-23.00265255
 10
-89.20343869
 20
-22.99894586
 10
-89.20772025
 20
-22.99531485
 10
-89.21206987
 20
-22.99176036
 10
-89.21648669
 20
-22.98828326
 10
-89.22096987
 20
-22.9848844
 10
-89.22551854
 20
-22.98156463
 10
-89.23013187
 20
-22.9783248
 10
-89.23480901
 20
-22.97516577
 10
-89.23954909
 20
-22.9720884
  0
LWPOLYLINE
  5
25F
100
AcDbEntity
  8
MST_1_1
 62
   137
  6
CONTINUOUS
100
AcDbPolyline
 90
        9
 70
     0
 43
0.0
 10
-89.23954904
 20
-22.97208839
 10
-89.23587152
 20
-22.96841073
 10
-89.23219319
 20
-22.96473254
 10
-89.22851433
 20
-22.96105355
 10
-89.22483468
 20
-22.95737403
 10
-89.22115436
 20
-22.95369371
 10
-89.21747351
 20
-22.95001272
 10
-89.21379185
 20
-22.9463312
 10
-89.21010967
 20
-22.94264889
  0
LWPOLYLINE
  5
260
100
AcDbEntity
  8
MST_1_1
 62
   137
  6
CONTINUOUS
100
AcDbPolyline
 90
        9
 70
     0
 43
0.0
 10
-89.21010967
 20
-22.94264889
 10
-89.27247955
 20
-22.88027901
 10
-89.33483598
 20
-22.81792258
 10
-89.39717113
 20
-22.75558743
 10
-89.45947741
 20
-22.69328115
 10
-89.52174697
 20
-22.63101159
 10
-89.58397235
 20
-22.5687862
 10
-89.64614559
 20
-22.50661291
 10
-89.70825935
 20
-22.44449921
  0
LWPOLYLINE
  5
261
100
AcDbEntity
  8
MST_1_1
 62
   137
  6
CONTINUOUS
100
AcDbPolyline
 90
        9
 70
     0
 43
0.0
 10
-89.70825935
 20
-22.44449921
 10
-89.71866475
 20
-22.45490461
 10
-89.72906469
 20
-22.46530469
 10
-89.73945932
 20
-22.47569932
 10
-89.74984862
 20
-22.48608849
 10
-89.76023234
 20
-22.49647227
 10
-89.77061046
 20
-22.50685046
 10
-89.78098313
 20
-22.51722313
 10
-89.79135035
 20
-22.52759028
  0
ARC
  5
262
100
AcDbEntity
  8
MST_1_1
 62
   137
  6
CONTINUOUS
100
AcDbCircle
 10
-89.9652422
 20
-22.67238966
 30
0.0
 40
0.22628574
100
AcDbArc
 50
230.21591956
 51
39.7840785
  0
LWPOLYLINE
  5
263
100
AcDbEntity
  8
MST_1_1
 62
   137
  6
CONTINUOUS
100
AcDbPolyline
 90
        9
 70
     0
 43
0.0
 10
-90.11004162
 20
-22.84628148
 10
-90.12045301
 20
-22.85669287
 10
-90.13085721
 20
-22.86709721
 10
-90.1412545
 20
-22.87749449
 10
-90.1516446
 20
-22.88788446
 10
-90.16202751
 20
-22.89826738
 10
-90.17240298
 20
-22.90864298
 10
-90.18277153
 20
-22.91901139
 10
-90.19313262
 20
-22.92937249
  0
LWPOLYLINE
  5
264
100
AcDbEntity
  8
MST_1_1
 62
   137
  6
CONTINUOUS
100
AcDbPolyline
 90
        9
 70
     0
 43
0.0
 10
-90.19313262
 20
-22.92937249
 10
-90.13102778
 20
-22.99147707
 10
-90.06886013
 20
-23.05364484
 10
-90.00663741
 20
-23.1158677
 10
-89.94436758
 20
-23.17813739
 10
-89.88205917
 20
-23.2404458
 10
-89.81972017
 20
-23.30278481
 10
-89.75735867
 20
-23.3651463
 10
-89.69498281
 20
-23.42752216
  0
LWPOLYLINE
  5
265
100
AcDbEntity
  8
MST_1_1
 62
   137
  6
CONTINUOUS
100
AcDbPolyline
 90
        9
 70
     0
 43
0.0
 10
-89.69498281
 20
-23.42752216
 10
-89.69130608
 20
-23.42384543
 10
-89.68762842
 20
-23.42016777
 10
-89.68394983
 20
-23.41648918
 10
-89.68027031
 20
-23.41280966
 10
-89.67658999
 20
-23.40912934
 10
-89.67290874
 20
-23.40544796
 10
-89.66922642
 20
-23.40176577
 10
-89.66554331
 20
-23.39808266
  0
LWPOLYLINE
  5
266
100
AcDbEntity
  8
MST_1_1
 62
   137
  6
CONTINUOUS
100
AcDbPolyline
 90
       25
 70
     0
 43
0.0
 10
-89.66554336
 20
-23.39808266
 10
-89.66246665
 20
-23.40282171
 10
-89.6593082
 20
-23.40749796
 10
-89.65606886
 20
-23.41211057
 10
-89.6527495
 20
-23.41665867
 10
-89.64935097
 20
-23.42114139
 10
-89.64587413
 20
-23.42555789
 10
-89.64231984
 20
-23.42990729
 10
-89.63868895
 20
-23.43418874
 10
-89.63498232
 20
-23.43840138
 10
-89.63120082
 20
-23.44254434
 10
-89.62734529
 20
-23.44661677
 10
-89.6234166
 20
-23.4506178
 10
-89.61941561
 20
-23.45454658
 10
-89.61534317
 20
-23.45840224
 10
-89.61120014
 20
-23.46218392
 10
-89.60698738
 20
-23.46589076
 10
-89.60270575
 20
-23.46952191
 10
-89.59835611
 20
-23.47307649
 10
-89.5939393
 20
-23.47655366
 10
-89.5894562
 20
-23.47995254
 10
-89.58490766
 20
-23.48327229
 10
-89.58029453
 20
-23.48651203
 10
-89.57561768
 20
-23.4896709
 10
-89.57087797
 20
-23.49274806
  0
LWPOLYLINE
  5
267
100
AcDbEntity
  8
MST_1_1
 62
   137
  6
CONTINUOUS
100
AcDbPolyline
 90
        9
 70
     0
 43
0.0
 10
-89.57087796
 20
-23.492748
 10
-89.57456107
 20
-23.49643112
 10
-89.57824326
 20
-23.50011344
 10
-89.58192464
 20
-23.50379469
 10
-89.58560496
 20
-23.50747501
 10
-89.58928449
 20
-23.51115453
 10
-89.59296308
 20
-23.51483312
 10
-89.59664074
 20
-23.51851078
 10
-89.60031746
 20
-23.52218751
  0
LWPOLYLINE
  5
268
100
AcDbEntity
  8
MST_1_1
 62
   137
  6
CONTINUOUS
100
AcDbPolyline
 90
        9
 70
     0
 43
0.0
 10
-89.60031746
 20
-23.52218751
 10
-89.5379416
 20
-23.58456337
 10
-89.47558011
 20
-23.64692486
 10
-89.4132411
 20
-23.70926387
 10
-89.3509327
 20
-23.77157228
 10
-89.288663
 20
-23.8338421
 10
-89.22644015
 20
-23.89606483
 10
-89.16427237
 20
-23.95823247
 10
-89.10216779
 20
-24.02033732
  0
CIRCLE
  5
269
100
AcDbEntity
  8
MST_1_1
 62
   137
  6
CONTINUOUS
100
AcDbCircle
 10
-87.62734505
 20
-21.45454975
 30
0.0
 40
3.75223156
  0
ARC
  5
26A
100
AcDbEntity
  8
MST_1_1
 62
   137
  6
CONTINUOUS
100
AcDbCircle
 10
-85.79566784
 20
-22.5120691
 30
0.0
 40
0.74361009
100
AcDbArc
 50
104.00041459
 51
195.99959727
  0
LWPOLYLINE
  5
26B
100
AcDbEntity
  8
MST_1_1
 62
   137
  6
CONTINUOUS
100
AcDbPolyline
 90
        9
 70
     0
 43
0.0
 10
-89.33783524
 20
-22.93129287
 10
-89.37866509
 20
-22.89046303
 10
-89.41948642
 20
-22.84964169
 10
-89.46029724
 20
-22.80883087
 10
-89.50109529
 20
-22.76803282
 10
-89.54187844
 20
-22.72724968
 10
-89.58264442
 20
-22.68648356
 10
-89.62339125
 20
-22.64573673
 10
-89.66411665
 20
-22.60501133
  0
ARC
  5
26C
100
AcDbEntity
  8
MST_1_1
 62
   137
  6
CONTINUOUS
100
AcDbCircle
 10
-89.40521366
 20
-23.23241748
 30
0.0
 40
0.3085707
100
AcDbArc
 50
77.38747914
 51
127.33780242
  0
LINE
  5
26D
100
AcDbEntity
  8
MST_1_1
 62
   137
  6
CONTINUOUS
100
AcDbLine
 10
-89.15987639
 20
-23.41957053
 30
0.0
 11
-89.59236583
 21
-22.98708109
 31
0.0
  0
ARC
  5
26E
100
AcDbEntity
  8
MST_1_1
 62
   137
  6
CONTINUOUS
100
AcDbCircle
 10
-89.40521292
 20
-23.23241833
 30
0.0
 40
0.30857083
100
AcDbArc
 50
322.66221884
 51
12.61250962
  0
LWPOLYLINE
  5
26F
100
AcDbEntity
  8
MST_1_1
 62
   137
  6
CONTINUOUS
100
AcDbPolyline
 90
        9
 70
     0
 43
0.0
 10
-88.77780663
 20
-23.49132135
 10
-88.81853203
 20
-23.45059595
 10
-88.85927886
 20
-23.40984912
 10
-88.90004498
 20
-23.36908314
 10
-88.94082813
 20
-23.32829999
 10
-88.98162617
 20
-23.28750194
 10
-89.022437
 20
-23.24669112
 10
-89.06325833
 20
-23.20586979
 10
-89.10408817
 20
-23.16503994
  0
ARC
  5
270
100
AcDbEntity
  8
MST_1_1
 62
   137
  6
CONTINUOUS
100
AcDbCircle
 10
-88.84518485
 20
-23.79244683
 30
0.0
 40
0.30857151
100
AcDbArc
 50
77.38755048
 51
192.61243885
  0
LWPOLYLINE
  5
271
100
AcDbEntity
  8
MST_1_1
 62
   137
  6
CONTINUOUS
100
AcDbPolyline
 90
        9
 70
     0
 43
0.0
 10
-89.47259176
 20
-23.53354366
 10
-89.43176005
 20
-23.57437537
 10
-89.39093712
 20
-23.6151983
 10
-89.35012524
 20
-23.65601018
 10
-89.30932652
 20
-23.6968089
 10
-89.26854351
 20
-23.73759178
 10
-89.22777832
 20
-23.7783571
 10
-89.18703309
 20
-23.81910219
 10
-89.14631035
 20
-23.85982494
  0
ARC
  5
272
100
AcDbEntity
  8
MST_1_1
 62
   137
  6
CONTINUOUS
100
AcDbCircle
 10
-89.40521374
 20
-23.23241727
 30
0.0
 40
0.30857236
100
AcDbArc
 50
257.38763285
 51
307.33766874
  0
LWPOLYLINE
  5
273
100
AcDbEntity
  8
MST_1_1
 62
   137
  6
CONTINUOUS
100
AcDbPolyline
 90
        9
 70
     0
 43
0.0
 10
-89.65055074
 20
-23.04526587
 10
-89.59650756
 20
-23.09930892
 10
-89.54244894
 20
-23.15336754
 10
-89.48838007
 20
-23.20743654
 10
-89.43430589
 20
-23.26151059
 10
-89.38023184
 20
-23.31558477
 10
-89.32616284
 20
-23.36965364
 10
-89.27210422
 20
-23.42371226
 10
-89.21806117
 20
-23.47775544
  0
ARC
  5
274
100
AcDbEntity
  8
MST_1_1
 62
   137
  6
CONTINUOUS
100
AcDbCircle
 10
-89.40521342
 20
-23.23241825
 30
0.0
 40
0.30857157
100
AcDbArc
 50
142.662273
 51
192.61245546
  0
LWPOLYLINE
  5
275
100
AcDbEntity
  8
MST_1_1
 62
   137
  6
CONTINUOUS
100
AcDbPolyline
 90
        9
 70
     0
 43
0.0
 10
-90.03262024
 20
-22.97351505
 10
-89.9918975
 20
-23.01423779
 10
-89.9511524
 20
-23.05498302
 10
-89.91038708
 20
-23.09574821
 10
-89.8696042
 20
-23.13653122
 10
-89.82880548
 20
-23.17732994
 10
-89.7879936
 20
-23.21814182
 10
-89.74717067
 20
-23.25896475
 10
-89.70633896
 20
-23.29979646
  0
ARC
  5
276
100
AcDbEntity
  8
MST_1_1
 62
   137
  6
CONTINUOUS
100
AcDbCircle
 10
-89.96524184
 20
-22.67238984
 30
0.0
 40
0.30857129
100
AcDbArc
 50
257.38751638
 51
12.61251432
  0
LWPOLYLINE
  5
277
100
AcDbEntity
  8
MST_1_1
 62
   137
  6
CONTINUOUS
100
AcDbPolyline
 90
        9
 70
     0
 43
0.0
 10
-89.49608291
 20
-23.02517924
 10
-89.45882522
 20
-23.06243693
 10
-89.42156247
 20
-23.09969968
 10
-89.38429653
 20
-23.13696575
 10
-89.34702872
 20
-23.17423342
 10
-89.30976105
 20
-23.21150123
 10
-89.27249498
 20
-23.24876717
 10
-89.23523223
 20
-23.28602992
 10
-89.19797454
 20
-23.32328761
  0
ARC
  5
278
100
AcDbEntity
  8
MST_1_1
 62
   137
  6
CONTINUOUS
100
AcDbCircle
 10
-89.4052136
 20
-23.2324183
 30
0.0
 40
0.22628579
100
AcDbArc
 50
336.32372311
 51
113.6762869
  0
LWPOLYLINE
  5
279
100
AcDbEntity
  8
MST_1_1
 62
   137
  6
CONTINUOUS
100
AcDbPolyline
 90
        9
 70
     0
 43
0.0
 10
-89.31434409
 20
-23.43965716
 10
-89.35160178
 20
-23.4023996
 10
-89.3888644
 20
-23.36513686
 10
-89.42613047
 20
-23.32787078
 10
-89.46339828
 20
-23.29060298
 10
-89.50066608
 20
-23.25333517
 10
-89.53793216
 20
-23.2160691
 10
-89.57519491
 20
-23.17880648
 10
-89.61245246
 20
-23.14154879
  0
ARC
  5
27A
100
AcDbEntity
  8
MST_1_1
 62
   137
  6
CONTINUOUS
100
AcDbCircle
 10
-89.40521346
 20
-23.23241816
 30
0.0
 40
0.22628576
100
AcDbArc
 50
156.32369345
 51
293.67631657
  0
CIRCLE
  5
27B
100
AcDbEntity
  8
MST_1_1
 62
   137
  6
CONTINUOUS
100
AcDbCircle
 10
-87.62734505
 20
-51.45454975
 30
0.0
 40
2.16489752
  0
CIRCLE
  5
27C
100
AcDbEntity
  8
MST_1_1
 62
   137
  6
CONTINUOUS
100
AcDbCircle
 10
-87.62734505
 20
-51.45454975
 30
0.0
 40
1.21199358
  0
CIRCLE
  5
27D
100
AcDbEntity
  8
MST_1_1
 62
   137
  6
CONTINUOUS
100
AcDbCircle
 10
-87.62734505
 20
-51.45454975
 30
0.0
 40
2.16489752
  0
CIRCLE
  5
27E
100
AcDbEntity
  8
MST_1_1
 62
   137
  6
CONTINUOUS
100
AcDbCircle
 10
-87.62734505
 20
-51.45454975
 30
0.0
 40
1.21199358
  0
CIRCLE
  5
27F
100
AcDbEntity
  8
MST_1_1
 62
   137
  6
CONTINUOUS
100
AcDbCircle
 10
-87.62734505
 20
-51.45454975
 30
0.0
 40
2.16489752
  0
CIRCLE
  5
280
100
AcDbEntity
  8
MST_1_1
 62
   137
  6
CONTINUOUS
100
AcDbCircle
 10
-87.62734505
 20
-51.45454975
 30
0.0
 40
1.21199358
  0
CIRCLE
  5
281
100
AcDbEntity
  8
MST_1_1
 62
   137
  6
CONTINUOUS
100
AcDbCircle
 10
-87.62734505
 20
-51.45454975
 30
0.0
 40
1.82204038
  0
CIRCLE
  5
282
100
AcDbEntity
  8
MST_1_1
 62
   137
  6
CONTINUOUS
100
AcDbCircle
 10
-87.62734505
 20
-51.45454975
 30
0.0
 40
2.27918323
  0
CIRCLE
  5
283
100
AcDbEntity
  8
MST_1_1
 62
   137
  6
CONTINUOUS
100
AcDbCircle
 10
-87.62734505
 20
-51.45454975
 30
0.0
 40
1.28571429
  0
CIRCLE
  5
284
100
AcDbEntity
  8
MST_1_1
 62
   137
  6
CONTINUOUS
100
AcDbCircle
 10
-87.62734505
 20
-51.45454975
 30
0.0
 40
4.0
  0
ARC
  5
285
100
AcDbEntity
  8
MST_1_1
 62
   137
  6
CONTINUOUS
100
AcDbCircle
 10
-89.19534503
 20
-51.45454975
 30
0.0
 40
0.34628572
100
AcDbArc
 50
104.00039951
 51
255.99961051
  0
ARC
  5
286
100
AcDbEntity
  8
MST_1_1
 62
   137
  6
CONTINUOUS
100
AcDbCircle
 10
-89.45902226
 20
-52.5120691
 30
0.0
 40
0.74361009
100
AcDbArc
 50
344.00042282
 51
75.99958535
  0
ARC
  5
287
100
AcDbEntity
  8
MST_1_1
 62
   137
  6
CONTINUOUS
100
AcDbCircle
 10
-88.41134502
 20
-52.81247757
 30
0.0
 40
0.3462857
100
AcDbArc
 50
164.00040911
 51
315.99959504
  0
ARC
  5
288
100
AcDbEntity
  8
MST_1_1
 62
   137
  6
CONTINUOUS
100
AcDbCircle
 10
-87.62734505
 20
-53.56958832
 30
0.0
 40
0.74361
100
AcDbArc
 50
44.00040429
 51
135.99959571
  0
ARC
  5
289
100
AcDbEntity
  8
MST_1_1
 62
   137
  6
CONTINUOUS
100
AcDbCircle
 10
-86.84334505
 20
-52.81247763
 30
0.0
 40
0.34628569
100
AcDbArc
 50
224.00041508
 51
15.9996008
  0
ARC
  5
28A
100
AcDbEntity
  8
MST_1_1
 62
   137
  6
CONTINUOUS
100
AcDbCircle
 10
-86.05934507
 20
-51.45454975
 30
0.0
 40
0.34628572
100
AcDbArc
 50
284.00040953
 51
75.99960049
  0
ARC
  5
28B
100
AcDbEntity
  8
MST_1_1
 62
   137
  6
CONTINUOUS
100
AcDbCircle
 10
-85.79566784
 20
-50.39703039
 30
0.0
 40
0.74361009
100
AcDbArc
 50
164.00041281
 51
255.99959537
  0
ARC
  5
28C
100
AcDbEntity
  8
MST_1_1
 62
   137
  6
CONTINUOUS
100
AcDbCircle
 10
-86.84334508
 20
-50.09662192
 30
0.0
 40
0.3462857
100
AcDbArc
 50
344.00041913
 51
135.99958502
  0
ARC
  5
28D
100
AcDbEntity
  8
MST_1_1
 62
   137
  6
CONTINUOUS
100
AcDbCircle
 10
-87.62734505
 20
-49.33951117
 30
0.0
 40
0.74361
100
AcDbArc
 50
224.00041431
 51
315.99960573
  0
ARC
  5
28E
100
AcDbEntity
  8
MST_1_1
 62
   137
  6
CONTINUOUS
100
AcDbCircle
 10
-88.41134505
 20
-50.09662187
 30
0.0
 40
0.34628569
100
AcDbArc
 50
44.00040506
 51
195.99961082
  0
ARC
  5
28F
100
AcDbEntity
  8
MST_1_1
 62
   137
  6
CONTINUOUS
100
AcDbCircle
 10
-89.45902225
 20
-50.39703039
 30
0.0
 40
0.74361009
100
AcDbArc
 50
284.00042461
 51
15.99958726
  0
LWPOLYLINE
  5
290
100
AcDbEntity
  8
MST_1_1
 62
   137
  6
CONTINUOUS
100
AcDbPolyline
 90
        9
 70
     0
 43
0.0
 10
-89.10216779
 20
-54.02033732
 10
-89.09180669
 20
-54.00997622
 10
-89.08143828
 20
-53.99960768
 10
-89.07106268
 20
-53.98923221
 10
-89.06067976
 20
-53.97884929
 10
-89.05028979
 20
-53.96845919
 10
-89.03989251
 20
-53.95806191
 10
-89.02948817
 20
-53.94765771
 10
-89.01907678
 20
-53.93724632
  0
ARC
  5
291
100
AcDbEntity
  8
MST_1_1
 62
   137
  6
CONTINUOUS
100
AcDbCircle
 10
-88.84518498
 20
-53.79244689
 30
0.0
 40
0.22628574
100
AcDbArc
 50
50.21591721
 51
219.78410477
  0
LWPOLYLINE
  5
292
100
AcDbEntity
  8
MST_1_1
 62
   137
  6
CONTINUOUS
100
AcDbPolyline
 90
        9
 70
     0
 43
0.0
 10
-88.70038558
 20
-53.61855505
 10
-88.69001843
 20
-53.60818783
 10
-88.67964576
 20
-53.59781516
 10
-88.66926757
 20
-53.58743703
 10
-88.65888379
 20
-53.57705332
 10
-88.64849462
 20
-53.56666402
 10
-88.63809999
 20
-53.55626939
 10
-88.62769991
 20
-53.54586945
 10
-88.61729451
 20
-53.53546405
  0
LWPOLYLINE
  5
293
100
AcDbEntity
  8
MST_1_1
 62
   137
  6
CONTINUOUS
100
AcDbPolyline
 90
        9
 70
     0
 43
0.0
 10
-88.61729451
 20
-53.53546405
 10
-88.67940821
 20
-53.47335029
 10
-88.74158151
 20
-53.41117705
 10
-88.80380689
 20
-53.34895167
 10
-88.86607645
 20
-53.28668211
 10
-88.92838273
 20
-53.22437583
 10
-88.99071788
 20
-53.16204068
 10
-89.05307432
 20
-53.09968424
 10
-89.11544419
 20
-53.03731437
  0
LWPOLYLINE
  5
294
100
AcDbEntity
  8
MST_1_1
 62
   137
  6
CONTINUOUS
100
AcDbPolyline
 90
        9
 70
     0
 43
0.0
 10
-89.11544419
 20
-53.03731437
 10
-89.11912651
 20
-53.04099655
 10
-89.12280802
 20
-53.0446782
 10
-89.12648901
 20
-53.04835906
 10
-89.13016933
 20
-53.05203938
 10
-89.13384885
 20
-53.05571903
 10
-89.13752784
 20
-53.05939789
 10
-89.14120604
 20
-53.06307621
 10
-89.1448837
 20
-53.06675374
  0
LWPOLYLINE
  5
295
100
AcDbEntity
  8
MST_1_1
 62
   137
  6
CONTINUOUS
100
AcDbPolyline
 90
       25
 70
     0
 43
0.0
 10
-89.1448837
 20
-53.06675379
 10
-89.14796064
 20
-53.06201436
 10
-89.15111925
 20
-53.05733781
 10
-89.15435868
 20
-53.05272499
 10
-89.15767808
 20
-53.04817675
 10
-89.1610766
 20
-53.04369394
 10
-89.16455338
 20
-53.03927742
 10
-89.16810758
 20
-53.03492804
 10
-89.17173834
 20
-53.03064666
 10
-89.17544482
 20
-53.02643413
 10
-89.17922616
 20
-53.0222913
 10
-89.18308152
 20
-53.01821902
 10
-89.18701003
 20
-53.01421816
 10
-89.19101086
 20
-53.01028956
 10
-89.19508315
 20
-53.00643407
 10
-89.19922604
 20
-53.00265255
 10
-89.20343869
 20
-52.99894586
 10
-89.20772025
 20
-52.99531485
 10
-89.21206987
 20
-52.99176036
 10
-89.21648669
 20
-52.98828326
 10
-89.22096987
 20
-52.9848844
 10
-89.22551854
 20
-52.98156463
 10
-89.23013187
 20
-52.9783248
 10
-89.23480901
 20
-52.97516577
 10
-89.23954909
 20
-52.9720884
  0
LWPOLYLINE
  5
296
100
AcDbEntity
  8
MST_1_1
 62
   137
  6
CONTINUOUS
100
AcDbPolyline
 90
        9
 70
     0
 43
0.0
 10
-89.23954904
 20
-52.97208839
 10
-89.23587152
 20
-52.96841073
 10
-89.23219319
 20
-52.96473254
 10
-89.22851433
 20
-52.96105355
 10
-89.22483468
 20
-52.95737403
 10
-89.22115436
 20
-52.95369371
 10
-89.21747351
 20
-52.95001272
 10
-89.21379185
 20
-52.9463312
 10
-89.21010967
 20
-52.94264889
  0
LWPOLYLINE
  5
297
100
AcDbEntity
  8
MST_1_1
 62
   137
  6
CONTINUOUS
100
AcDbPolyline
 90
        9
 70
     0
 43
0.0
 10
-89.21010967
 20
-52.94264889
 10
-89.27247955
 20
-52.88027901
 10
-89.33483598
 20
-52.81792258
 10
-89.39717113
 20
-52.75558743
 10
-89.45947741
 20
-52.69328115
 10
-89.52174697
 20
-52.63101159
 10
-89.58397235
 20
-52.5687862
 10
-89.64614559
 20
-52.50661291
 10
-89.70825935
 20
-52.44449921
  0
LWPOLYLINE
  5
298
100
AcDbEntity
  8
MST_1_1
 62
   137
  6
CONTINUOUS
100
AcDbPolyline
 90
        9
 70
     0
 43
0.0
 10
-89.70825935
 20
-52.44449921
 10
-89.71866475
 20
-52.45490461
 10
-89.72906469
 20
-52.46530469
 10
-89.73945932
 20
-52.47569932
 10
-89.74984862
 20
-52.48608849
 10
-89.76023234
 20
-52.49647227
 10
-89.77061046
 20
-52.50685046
 10
-89.78098313
 20
-52.51722313
 10
-89.79135035
 20
-52.52759028
  0
ARC
  5
299
100
AcDbEntity
  8
MST_1_1
 62
   137
  6
CONTINUOUS
100
AcDbCircle
 10
-89.9652422
 20
-52.67238966
 30
0.0
 40
0.22628574
100
AcDbArc
 50
230.21591956
 51
39.7840785
  0
LWPOLYLINE
  5
29A
100
AcDbEntity
  8
MST_1_1
 62
   137
  6
CONTINUOUS
100
AcDbPolyline
 90
        9
 70
     0
 43
0.0
 10
-90.11004162
 20
-52.84628148
 10
-90.12045301
 20
-52.85669287
 10
-90.13085721
 20
-52.86709721
 10
-90.1412545
 20
-52.87749449
 10
-90.1516446
 20
-52.88788446
 10
-90.16202751
 20
-52.89826738
 10
-90.17240298
 20
-52.90864298
 10
-90.18277153
 20
-52.91901139
 10
-90.19313262
 20
-52.92937249
  0
LWPOLYLINE
  5
29B
100
AcDbEntity
  8
MST_1_1
 62
   137
  6
CONTINUOUS
100
AcDbPolyline
 90
        9
 70
     0
 43
0.0
 10
-90.19313262
 20
-52.92937249
 10
-90.13102778
 20
-52.99147707
 10
-90.06886013
 20
-53.05364484
 10
-90.00663741
 20
-53.1158677
 10
-89.94436758
 20
-53.17813739
 10
-89.88205917
 20
-53.2404458
 10
-89.81972017
 20
-53.30278481
 10
-89.75735867
 20
-53.3651463
 10
-89.69498281
 20
-53.42752216
  0
LWPOLYLINE
  5
29C
100
AcDbEntity
  8
MST_1_1
 62
   137
  6
CONTINUOUS
100
AcDbPolyline
 90
        9
 70
     0
 43
0.0
 10
-89.69498281
 20
-53.42752216
 10
-89.69130608
 20
-53.42384543
 10
-89.68762842
 20
-53.42016777
 10
-89.68394983
 20
-53.41648918
 10
-89.68027031
 20
-53.41280966
 10
-89.67658999
 20
-53.40912934
 10
-89.67290874
 20
-53.40544796
 10
-89.66922642
 20
-53.40176577
 10
-89.66554331
 20
-53.39808266
  0
LWPOLYLINE
  5
29D
100
AcDbEntity
  8
MST_1_1
 62
   137
  6
CONTINUOUS
100
AcDbPolyline
 90
       25
 70
     0
 43
0.0
 10
-89.66554336
 20
-53.39808266
 10
-89.66246665
 20
-53.40282171
 10
-89.6593082
 20
-53.40749796
 10
-89.65606886
 20
-53.41211057
 10
-89.6527495
 20
-53.41665867
 10
-89.64935097
 20
-53.42114139
 10
-89.64587413
 20
-53.42555789
 10
-89.64231984
 20
-53.42990729
 10
-89.63868895
 20
-53.43418874
 10
-89.63498232
 20
-53.43840138
 10
-89.63120082
 20
-53.44254434
 10
-89.62734529
 20
-53.44661677
 10
-89.6234166
 20
-53.4506178
 10
-89.61941561
 20
-53.45454658
 10
-89.61534317
 20
-53.45840224
 10
-89.61120014
 20
-53.46218392
 10
-89.60698738
 20
-53.46589076
 10
-89.60270575
 20
-53.46952191
 10
-89.59835611
 20
-53.47307649
 10
-89.5939393
 20
-53.47655366
 10
-89.5894562
 20
-53.47995254
 10
-89.58490766
 20
-53.48327229
 10
-89.58029453
 20
-53.48651203
 10
-89.57561768
 20
-53.4896709
 10
-89.57087797
 20
-53.49274806
  0
LWPOLYLINE
  5
29E
100
AcDbEntity
  8
MST_1_1
 62
   137
  6
CONTINUOUS
100
AcDbPolyline
 90
        9
 70
     0
 43
0.0
 10
-89.57087796
 20
-53.492748
 10
-89.57456107
 20
-53.49643112
 10
-89.57824326
 20
-53.50011344
 10
-89.58192464
 20
-53.50379469
 10
-89.58560496
 20
-53.50747501
 10
-89.58928449
 20
-53.51115453
 10
-89.59296308
 20
-53.51483312
 10
-89.59664074
 20
-53.51851078
 10
-89.60031746
 20
-53.52218751
  0
LWPOLYLINE
  5
29F
100
AcDbEntity
  8
MST_1_1
 62
   137
  6
CONTINUOUS
100
AcDbPolyline
 90
        9
 70
     0
 43
0.0
 10
-89.60031746
 20
-53.52218751
 10
-89.5379416
 20
-53.58456337
 10
-89.47558011
 20
-53.64692486
 10
-89.4132411
 20
-53.70926387
 10
-89.3509327
 20
-53.77157228
 10
-89.288663
 20
-53.8338421
 10
-89.22644015
 20
-53.89606483
 10
-89.16427237
 20
-53.95823247
 10
-89.10216779
 20
-54.02033732
  0
CIRCLE
  5
2A0
100
AcDbEntity
  8
MST_1_1
 62
   137
  6
CONTINUOUS
100
AcDbCircle
 10
-87.62734505
 20
-51.45454975
 30
0.0
 40
3.75223156
  0
ARC
  5
2A1
100
AcDbEntity
  8
MST_1_1
 62
   137
  6
CONTINUOUS
100
AcDbCircle
 10
-85.79566784
 20
-52.5120691
 30
0.0
 40
0.74361009
100
AcDbArc
 50
104.00041459
 51
195.99959727
  0
LWPOLYLINE
  5
2A2
100
AcDbEntity
  8
MST_1_1
 62
   137
  6
CONTINUOUS
100
AcDbPolyline
 90
        9
 70
     0
 43
0.0
 10
-89.33783524
 20
-52.93129287
 10
-89.37866509
 20
-52.89046303
 10
-89.41948642
 20
-52.84964169
 10
-89.46029724
 20
-52.80883087
 10
-89.50109529
 20
-52.76803282
 10
-89.54187844
 20
-52.72724968
 10
-89.58264442
 20
-52.68648356
 10
-89.62339125
 20
-52.64573673
 10
-89.66411665
 20
-52.60501133
  0
ARC
  5
2A3
100
AcDbEntity
  8
MST_1_1
 62
   137
  6
CONTINUOUS
100
AcDbCircle
 10
-89.40521366
 20
-53.23241748
 30
0.0
 40
0.3085707
100
AcDbArc
 50
77.38747914
 51
127.33780242
  0
LINE
  5
2A4
100
AcDbEntity
  8
MST_1_1
 62
   137
  6
CONTINUOUS
100
AcDbLine
 10
-89.15987639
 20
-53.41957053
 30
0.0
 11
-89.59236583
 21
-52.98708109
 31
0.0
  0
ARC
  5
2A5
100
AcDbEntity
  8
MST_1_1
 62
   137
  6
CONTINUOUS
100
AcDbCircle
 10
-89.40521292
 20
-53.23241833
 30
0.0
 40
0.30857083
100
AcDbArc
 50
322.66221884
 51
12.61250962
  0
LWPOLYLINE
  5
2A6
100
AcDbEntity
  8
MST_1_1
 62
   137
  6
CONTINUOUS
100
AcDbPolyline
 90
        9
 70
     0
 43
0.0
 10
-88.77780663
 20
-53.49132135
 10
-88.81853203
 20
-53.45059595
 10
-88.85927886
 20
-53.40984912
 10
-88.90004498
 20
-53.36908314
 10
-88.94082813
 20
-53.32829999
 10
-88.98162617
 20
-53.28750194
 10
-89.022437
 20
-53.24669112
 10
-89.06325833
 20
-53.20586979
 10
-89.10408817
 20
-53.16503994
  0
ARC
  5
2A7
100
AcDbEntity
  8
MST_1_1
 62
   137
  6
CONTINUOUS
100
AcDbCircle
 10
-88.84518485
 20
-53.79244683
 30
0.0
 40
0.30857151
100
AcDbArc
 50
77.38755048
 51
192.61243885
  0
LWPOLYLINE
  5
2A8
100
AcDbEntity
  8
MST_1_1
 62
   137
  6
CONTINUOUS
100
AcDbPolyline
 90
        9
 70
     0
 43
0.0
 10
-89.47259176
 20
-53.53354366
 10
-89.43176005
 20
-53.57437537
 10
-89.39093712
 20
-53.6151983
 10
-89.35012524
 20
-53.65601018
 10
-89.30932652
 20
-53.6968089
 10
-89.26854351
 20
-53.73759178
 10
-89.22777832
 20
-53.7783571
 10
-89.18703309
 20
-53.81910219
 10
-89.14631035
 20
-53.85982494
  0
ARC
  5
2A9
100
AcDbEntity
  8
MST_1_1
 62
   137
  6
CONTINUOUS
100
AcDbCircle
 10
-89.40521374
 20
-53.23241727
 30
0.0
 40
0.30857236
100
AcDbArc
 50
257.38763285
 51
307.33766874
  0
LWPOLYLINE
  5
2AA
100
AcDbEntity
  8
MST_1_1
 62
   137
  6
CONTINUOUS
100
AcDbPolyline
 90
        9
 70
     0
 43
0.0
 10
-89.65055074
 20
-53.04526587
 10
-89.59650756
 20
-53.09930892
 10
-89.54244894
 20
-53.15336754
 10
-89.48838007
 20
-53.20743654
 10
-89.43430589
 20
-53.26151059
 10
-89.38023184
 20
-53.31558477
 10
-89.32616284
 20
-53.36965364
 10
-89.27210422
 20
-53.42371226
 10
-89.21806117
 20
-53.47775544
  0
ARC
  5
2AB
100
AcDbEntity
  8
MST_1_1
 62
   137
  6
CONTINUOUS
100
AcDbCircle
 10
-89.40521342
 20
-53.23241825
 30
0.0
 40
0.30857157
100
AcDbArc
 50
142.662273
 51
192.61245546
  0
LWPOLYLINE
  5
2AC
100
AcDbEntity
  8
MST_1_1
 62
   137
  6
CONTINUOUS
100
AcDbPolyline
 90
        9
 70
     0
 43
0.0
 10
-90.03262024
 20
-52.97351505
 10
-89.9918975
 20
-53.01423779
 10
-89.9511524
 20
-53.05498302
 10
-89.91038708
 20
-53.09574821
 10
-89.8696042
 20
-53.13653122
 10
-89.82880548
 20
-53.17732994
 10
-89.7879936
 20
-53.21814182
 10
-89.74717067
 20
-53.25896475
 10
-89.70633896
 20
-53.29979646
  0
ARC
  5
2AD
100
AcDbEntity
  8
MST_1_1
 62
   137
  6
CONTINUOUS
100
AcDbCircle
 10
-89.96524184
 20
-52.67238984
 30
0.0
 40
0.30857129
100
AcDbArc
 50
257.38751638
 51
12.61251432
  0
LWPOLYLINE
  5
2AE
100
AcDbEntity
  8
MST_1_1
 62
   137
  6
CONTINUOUS
100
AcDbPolyline
 90
        9
 70
     0
 43
0.0
 10
-89.49608291
 20
-53.02517924
 10
-89.45882522
 20
-53.06243693
 10
-89.42156247
 20
-53.09969968
 10
-89.38429653
 20
-53.13696575
 10
-89.34702872
 20
-53.17423342
 10
-89.30976105
 20
-53.21150123
 10
-89.27249498
 20
-53.24876717
 10
-89.23523223
 20
-53.28602992
 10
-89.19797454
 20
-53.32328761
  0
ARC
  5
2AF
100
AcDbEntity
  8
MST_1_1
 62
   137
  6
CONTINUOUS
100
AcDbCircle
 10
-89.4052136
 20
-53.2324183
 30
0.0
 40
0.22628579
100
AcDbArc
 50
336.32372311
 51
113.6762869
  0
LWPOLYLINE
  5
2B0
100
AcDbEntity
  8
MST_1_1
 62
   137
  6
CONTINUOUS
100
AcDbPolyline
 90
        9
 70
     0
 43
0.0
 10
-89.31434409
 20
-53.43965716
 10
-89.35160178
 20
-53.4023996
 10
-89.3888644
 20
-53.36513686
 10
-89.42613047
 20
-53.32787078
 10
-89.46339828
 20
-53.29060298
 10
-89.50066608
 20
-53.25333517
 10
-89.53793216
 20
-53.2160691
 10
-89.57519491
 20
-53.17880648
 10
-89.61245246
 20
-53.14154879
  0
ARC
  5
2B1
100
AcDbEntity
  8
MST_1_1
 62
   137
  6
CONTINUOUS
100
AcDbCircle
 10
-89.40521346
 20
-53.23241816
 30
0.0
 40
0.22628576
100
AcDbArc
 50
156.32369345
 51
293.67631657
  0
CIRCLE
  5
2B2
100
AcDbEntity
  8
MST_1_1
 62
   137
  6
CONTINUOUS
100
AcDbCircle
 10
-87.62734505
 20
-81.45454975
 30
0.0
 40
2.16489752
  0
CIRCLE
  5
2B3
100
AcDbEntity
  8
MST_1_1
 62
   137
  6
CONTINUOUS
100
AcDbCircle
 10
-87.62734505
 20
-81.45454975
 30
0.0
 40
1.21199358
  0
CIRCLE
  5
2B4
100
AcDbEntity
  8
MST_1_1
 62
   137
  6
CONTINUOUS
100
AcDbCircle
 10
-87.62734505
 20
-81.45454975
 30
0.0
 40
2.16489752
  0
CIRCLE
  5
2B5
100
AcDbEntity
  8
MST_1_1
 62
   137
  6
CONTINUOUS
100
AcDbCircle
 10
-87.62734505
 20
-81.45454975
 30
0.0
 40
1.21199358
  0
CIRCLE
  5
2B6
100
AcDbEntity
  8
MST_1_1
 62
   137
  6
CONTINUOUS
100
AcDbCircle
 10
-87.62734505
 20
-81.45454975
 30
0.0
 40
2.16489752
  0
CIRCLE
  5
2B7
100
AcDbEntity
  8
MST_1_1
 62
   137
  6
CONTINUOUS
100
AcDbCircle
 10
-87.62734505
 20
-81.45454975
 30
0.0
 40
1.21199358
  0
CIRCLE
  5
2B8
100
AcDbEntity
  8
MST_1_1
 62
   137
  6
CONTINUOUS
100
AcDbCircle
 10
-87.62734505
 20
-81.45454975
 30
0.0
 40
1.82204038
  0
CIRCLE
  5
2B9
100
AcDbEntity
  8
MST_1_1
 62
   137
  6
CONTINUOUS
100
AcDbCircle
 10
-87.62734505
 20
-81.45454975
 30
0.0
 40
2.27918323
  0
CIRCLE
  5
2BA
100
AcDbEntity
  8
MST_1_1
 62
   137
  6
CONTINUOUS
100
AcDbCircle
 10
-87.62734505
 20
-81.45454975
 30
0.0
 40
1.28571429
  0
CIRCLE
  5
2BB
100
AcDbEntity
  8
MST_1_1
 62
   137
  6
CONTINUOUS
100
AcDbCircle
 10
-87.62734505
 20
-81.45454975
 30
0.0
 40
4.0
  0
ARC
  5
2BC
100
AcDbEntity
  8
MST_1_1
 62
   137
  6
CONTINUOUS
100
AcDbCircle
 10
-89.19534503
 20
-81.45454975
 30
0.0
 40
0.34628572
100
AcDbArc
 50
104.00039951
 51
255.99961051
  0
ARC
  5
2BD
100
AcDbEntity
  8
MST_1_1
 62
   137
  6
CONTINUOUS
100
AcDbCircle
 10
-89.45902226
 20
-82.5120691
 30
0.0
 40
0.74361009
100
AcDbArc
 50
344.00042282
 51
75.99958535
  0
ARC
  5
2BE
100
AcDbEntity
  8
MST_1_1
 62
   137
  6
CONTINUOUS
100
AcDbCircle
 10
-88.41134502
 20
-82.81247757
 30
0.0
 40
0.3462857
100
AcDbArc
 50
164.00040911
 51
315.99959504
  0
ARC
  5
2BF
100
AcDbEntity
  8
MST_1_1
 62
   137
  6
CONTINUOUS
100
AcDbCircle
 10
-87.62734505
 20
-83.56958832
 30
0.0
 40
0.74361
100
AcDbArc
 50
44.00040429
 51
135.99959571
  0
ARC
  5
2C0
100
AcDbEntity
  8
MST_1_1
 62
   137
  6
CONTINUOUS
100
AcDbCircle
 10
-86.84334505
 20
-82.81247763
 30
0.0
 40
0.34628569
100
AcDbArc
 50
224.00041508
 51
15.9996008
  0
ARC
  5
2C1
100
AcDbEntity
  8
MST_1_1
 62
   137
  6
CONTINUOUS
100
AcDbCircle
 10
-86.05934507
 20
-81.45454975
 30
0.0
 40
0.34628572
100
AcDbArc
 50
284.00040953
 51
75.99960049
  0
ARC
  5
2C2
100
AcDbEntity
  8
MST_1_1
 62
   137
  6
CONTINUOUS
100
AcDbCircle
 10
-85.79566784
 20
-80.39703039
 30
0.0
 40
0.74361009
100
AcDbArc
 50
164.00041281
 51
255.99959537
  0
ARC
  5
2C3
100
AcDbEntity
  8
MST_1_1
 62
   137
  6
CONTINUOUS
100
AcDbCircle
 10
-86.84334508
 20
-80.09662192
 30
0.0
 40
0.3462857
100
AcDbArc
 50
344.00041913
 51
135.99958502
  0
ARC
  5
2C4
100
AcDbEntity
  8
MST_1_1
 62
   137
  6
CONTINUOUS
100
AcDbCircle
 10
-87.62734505
 20
-79.33951117
 30
0.0
 40
0.74361
100
AcDbArc
 50
224.00041431
 51
315.99960573
  0
ARC
  5
2C5
100
AcDbEntity
  8
MST_1_1
 62
   137
  6
CONTINUOUS
100
AcDbCircle
 10
-88.41134505
 20
-80.09662187
 30
0.0
 40
0.34628569
100
AcDbArc
 50
44.00040506
 51
195.99961082
  0
ARC
  5
2C6
100
AcDbEntity
  8
MST_1_1
 62
   137
  6
CONTINUOUS
100
AcDbCircle
 10
-89.45902225
 20
-80.39703039
 30
0.0
 40
0.74361009
100
AcDbArc
 50
284.00042461
 51
15.99958726
  0
LWPOLYLINE
  5
2C7
100
AcDbEntity
  8
MST_1_1
 62
   137
  6
CONTINUOUS
100
AcDbPolyline
 90
        9
 70
     0
 43
0.0
 10
-89.10216779
 20
-84.02033732
 10
-89.09180669
 20
-84.00997622
 10
-89.08143828
 20
-83.99960768
 10
-89.07106268
 20
-83.98923221
 10
-89.06067976
 20
-83.97884929
 10
-89.05028979
 20
-83.96845919
 10
-89.03989251
 20
-83.95806191
 10
-89.02948817
 20
-83.94765771
 10
-89.01907678
 20
-83.93724632
  0
ARC
  5
2C8
100
AcDbEntity
  8
MST_1_1
 62
   137
  6
CONTINUOUS
100
AcDbCircle
 10
-88.84518498
 20
-83.79244689
 30
0.0
 40
0.22628574
100
AcDbArc
 50
50.21591721
 51
219.78410477
  0
LWPOLYLINE
  5
2C9
100
AcDbEntity
  8
MST_1_1
 62
   137
  6
CONTINUOUS
100
AcDbPolyline
 90
        9
 70
     0
 43
0.0
 10
-88.70038558
 20
-83.61855505
 10
-88.69001843
 20
-83.60818783
 10
-88.67964576
 20
-83.59781516
 10
-88.66926757
 20
-83.58743703
 10
-88.65888379
 20
-83.57705332
 10
-88.64849462
 20
-83.56666402
 10
-88.63809999
 20
-83.55626939
 10
-88.62769991
 20
-83.54586945
 10
-88.61729451
 20
-83.53546405
  0
LWPOLYLINE
  5
2CA
100
AcDbEntity
  8
MST_1_1
 62
   137
  6
CONTINUOUS
100
AcDbPolyline
 90
        9
 70
     0
 43
0.0
 10
-88.61729451
 20
-83.53546405
 10
-88.67940821
 20
-83.47335029
 10
-88.74158151
 20
-83.41117705
 10
-88.80380689
 20
-83.34895167
 10
-88.86607645
 20
-83.28668211
 10
-88.92838273
 20
-83.22437583
 10
-88.99071788
 20
-83.16204068
 10
-89.05307432
 20
-83.09968424
 10
-89.11544419
 20
-83.03731437
  0
LWPOLYLINE
  5
2CB
100
AcDbEntity
  8
MST_1_1
 62
   137
  6
CONTINUOUS
100
AcDbPolyline
 90
        9
 70
     0
 43
0.0
 10
-89.11544419
 20
-83.03731437
 10
-89.11912651
 20
-83.04099655
 10
-89.12280802
 20
-83.0446782
 10
-89.12648901
 20
-83.04835906
 10
-89.13016933
 20
-83.05203938
 10
-89.13384885
 20
-83.05571903
 10
-89.13752784
 20
-83.05939789
 10
-89.14120604
 20
-83.06307621
 10
-89.1448837
 20
-83.06675374
  0
LWPOLYLINE
  5
2CC
100
AcDbEntity
  8
MST_1_1
 62
   137
  6
CONTINUOUS
100
AcDbPolyline
 90
       25
 70
     0
 43
0.0
 10
-89.1448837
 20
-83.06675379
 10
-89.14796064
 20
-83.06201436
 10
-89.15111925
 20
-83.05733781
 10
-89.15435868
 20
-83.05272499
 10
-89.15767808
 20
-83.04817675
 10
-89.1610766
 20
-83.04369394
 10
-89.16455338
 20
-83.03927742
 10
-89.16810758
 20
-83.03492804
 10
-89.17173834
 20
-83.03064666
 10
-89.17544482
 20
-83.02643413
 10
-89.17922616
 20
-83.0222913
 10
-89.18308152
 20
-83.01821902
 10
-89.18701003
 20
-83.01421816
 10
-89.19101086
 20
-83.01028956
 10
-89.19508315
 20
-83.00643407
 10
-89.19922604
 20
-83.00265255
 10
-89.20343869
 20
-82.99894586
 10
-89.20772025
 20
-82.99531485
 10
-89.21206987
 20
-82.99176036
 10
-89.21648669
 20
-82.98828326
 10
-89.22096987
 20
-82.9848844
 10
-89.22551854
 20
-82.98156463
 10
-89.23013187
 20
-82.9783248
 10
-89.23480901
 20
-82.97516577
 10
-89.23954909
 20
-82.9720884
  0
LWPOLYLINE
  5
2CD
100
AcDbEntity
  8
MST_1_1
 62
   137
  6
CONTINUOUS
100
AcDbPolyline
 90
        9
 70
     0
 43
0.0
 10
-89.23954904
 20
-82.97208839
 10
-89.23587152
 20
-82.96841073
 10
-89.23219319
 20
-82.96473254
 10
-89.22851433
 20
-82.96105355
 10
-89.22483468
 20
-82.95737403
 10
-89.22115436
 20
-82.95369371
 10
-89.21747351
 20
-82.95001272
 10
-89.21379185
 20
-82.9463312
 10
-89.21010967
 20
-82.94264889
  0
LWPOLYLINE
  5
2CE
100
AcDbEntity
  8
MST_1_1
 62
   137
  6
CONTINUOUS
100
AcDbPolyline
 90
        9
 70
     0
 43
0.0
 10
-89.21010967
 20
-82.94264889
 10
-89.27247955
 20
-82.88027901
 10
-89.33483598
 20
-82.81792258
 10
-89.39717113
 20
-82.75558743
 10
-89.45947741
 20
-82.69328115
 10
-89.52174697
 20
-82.63101159
 10
-89.58397235
 20
-82.5687862
 10
-89.64614559
 20
-82.50661291
 10
-89.70825935
 20
-82.44449921
  0
LWPOLYLINE
  5
2CF
100
AcDbEntity
  8
MST_1_1
 62
   137
  6
CONTINUOUS
100
AcDbPolyline
 90
        9
 70
     0
 43
0.0
 10
-89.70825935
 20
-82.44449921
 10
-89.71866475
 20
-82.45490461
 10
-89.72906469
 20
-82.46530469
 10
-89.73945932
 20
-82.47569932
 10
-89.74984862
 20
-82.48608849
 10
-89.76023234
 20
-82.49647227
 10
-89.77061046
 20
-82.50685046
 10
-89.78098313
 20
-82.51722313
 10
-89.79135035
 20
-82.52759028
  0
ARC
  5
2D0
100
AcDbEntity
  8
MST_1_1
 62
   137
  6
CONTINUOUS
100
AcDbCircle
 10
-89.9652422
 20
-82.67238966
 30
0.0
 40
0.22628574
100
AcDbArc
 50
230.21591956
 51
39.7840785
  0
LWPOLYLINE
  5
2D1
100
AcDbEntity
  8
MST_1_1
 62
   137
  6
CONTINUOUS
100
AcDbPolyline
 90
        9
 70
     0
 43
0.0
 10
-90.11004162
 20
-82.84628148
 10
-90.12045301
 20
-82.85669287
 10
-90.13085721
 20
-82.86709721
 10
-90.1412545
 20
-82.87749449
 10
-90.1516446
 20
-82.88788446
 10
-90.16202751
 20
-82.89826738
 10
-90.17240298
 20
-82.90864298
 10
-90.18277153
 20
-82.91901139
 10
-90.19313262
 20
-82.92937249
  0
LWPOLYLINE
  5
2D2
100
AcDbEntity
  8
MST_1_1
 62
   137
  6
CONTINUOUS
100
AcDbPolyline
 90
        9
 70
     0
 43
0.0
 10
-90.19313262
 20
-82.92937249
 10
-90.13102778
 20
-82.99147707
 10
-90.06886013
 20
-83.05364484
 10
-90.00663741
 20
-83.1158677
 10
-89.94436758
 20
-83.17813739
 10
-89.88205917
 20
-83.2404458
 10
-89.81972017
 20
-83.30278481
 10
-89.75735867
 20
-83.3651463
 10
-89.69498281
 20
-83.42752216
  0
LWPOLYLINE
  5
2D3
100
AcDbEntity
  8
MST_1_1
 62
   137
  6
CONTINUOUS
100
AcDbPolyline
 90
        9
 70
     0
 43
0.0
 10
-89.69498281
 20
-83.42752216
 10
-89.69130608
 20
-83.42384543
 10
-89.68762842
 20
-83.42016777
 10
-89.68394983
 20
-83.41648918
 10
-89.68027031
 20
-83.41280966
 10
-89.67658999
 20
-83.40912934
 10
-89.67290874
 20
-83.40544796
 10
-89.66922642
 20
-83.40176577
 10
-89.66554331
 20
-83.39808266
  0
LWPOLYLINE
  5
2D4
100
AcDbEntity
  8
MST_1_1
 62
   137
  6
CONTINUOUS
100
AcDbPolyline
 90
       25
 70
     0
 43
0.0
 10
-89.66554336
 20
-83.39808266
 10
-89.66246665
 20
-83.40282171
 10
-89.6593082
 20
-83.40749796
 10
-89.65606886
 20
-83.41211057
 10
-89.6527495
 20
-83.41665867
 10
-89.64935097
 20
-83.42114139
 10
-89.64587413
 20
-83.42555789
 10
-89.64231984
 20
-83.42990729
 10
-89.63868895
 20
-83.43418874
 10
-89.63498232
 20
-83.43840138
 10
-89.63120082
 20
-83.44254434
 10
-89.62734529
 20
-83.44661677
 10
-89.6234166
 20
-83.4506178
 10
-89.61941561
 20
-83.45454658
 10
-89.61534317
 20
-83.45840224
 10
-89.61120014
 20
-83.46218392
 10
-89.60698738
 20
-83.46589076
 10
-89.60270575
 20
-83.46952191
 10
-89.59835611
 20
-83.47307649
 10
-89.5939393
 20
-83.47655366
 10
-89.5894562
 20
-83.47995254
 10
-89.58490766
 20
-83.48327229
 10
-89.58029453
 20
-83.48651203
 10
-89.57561768
 20
-83.4896709
 10
-89.57087797
 20
-83.49274806
  0
LWPOLYLINE
  5
2D5
100
AcDbEntity
  8
MST_1_1
 62
   137
  6
CONTINUOUS
100
AcDbPolyline
 90
        9
 70
     0
 43
0.0
 10
-89.57087796
 20
-83.492748
 10
-89.57456107
 20
-83.49643112
 10
-89.57824326
 20
-83.50011344
 10
-89.58192464
 20
-83.50379469
 10
-89.58560496
 20
-83.50747501
 10
-89.58928449
 20
-83.51115453
 10
-89.59296308
 20
-83.51483312
 10
-89.59664074
 20
-83.51851078
 10
-89.60031746
 20
-83.52218751
  0
LWPOLYLINE
  5
2D6
100
AcDbEntity
  8
MST_1_1
 62
   137
  6
CONTINUOUS
100
AcDbPolyline
 90
        9
 70
     0
 43
0.0
 10
-89.60031746
 20
-83.52218751
 10
-89.5379416
 20
-83.58456337
 10
-89.47558011
 20
-83.64692486
 10
-89.4132411
 20
-83.70926387
 10
-89.3509327
 20
-83.77157228
 10
-89.288663
 20
-83.8338421
 10
-89.22644015
 20
-83.89606483
 10
-89.16427237
 20
-83.95823247
 10
-89.10216779
 20
-84.02033732
  0
CIRCLE
  5
2D7
100
AcDbEntity
  8
MST_1_1
 62
   137
  6
CONTINUOUS
100
AcDbCircle
 10
-87.62734505
 20
-81.45454975
 30
0.0
 40
3.75223156
  0
ARC
  5
2D8
100
AcDbEntity
  8
MST_1_1
 62
   137
  6
CONTINUOUS
100
AcDbCircle
 10
-85.79566784
 20
-82.5120691
 30
0.0
 40
0.74361009
100
AcDbArc
 50
104.00041459
 51
195.99959727
  0
LWPOLYLINE
  5
2D9
100
AcDbEntity
  8
MST_1_1
 62
   137
  6
CONTINUOUS
100
AcDbPolyline
 90
        9
 70
     0
 43
0.0
 10
-89.33783524
 20
-82.93129287
 10
-89.37866509
 20
-82.89046303
 10
-89.41948642
 20
-82.84964169
 10
-89.46029724
 20
-82.80883087
 10
-89.50109529
 20
-82.76803282
 10
-89.54187844
 20
-82.72724968
 10
-89.58264442
 20
-82.68648356
 10
-89.62339125
 20
-82.64573673
 10
-89.66411665
 20
-82.60501133
  0
ARC
  5
2DA
100
AcDbEntity
  8
MST_1_1
 62
   137
  6
CONTINUOUS
100
AcDbCircle
 10
-89.40521366
 20
-83.23241748
 30
0.0
 40
0.3085707
100
AcDbArc
 50
77.38747914
 51
127.33780242
  0
LINE
  5
2DB
100
AcDbEntity
  8
MST_1_1
 62
   137
  6
CONTINUOUS
100
AcDbLine
 10
-89.15987639
 20
-83.41957053
 30
0.0
 11
-89.59236583
 21
-82.98708109
 31
0.0
  0
ARC
  5
2DC
100
AcDbEntity
  8
MST_1_1
 62
   137
  6
CONTINUOUS
100
AcDbCircle
 10
-89.40521292
 20
-83.23241833
 30
0.0
 40
0.30857083
100
AcDbArc
 50
322.66221884
 51
12.61250962
  0
LWPOLYLINE
  5
2DD
100
AcDbEntity
  8
MST_1_1
 62
   137
  6
CONTINUOUS
100
AcDbPolyline
 90
        9
 70
     0
 43
0.0
 10
-88.77780663
 20
-83.49132135
 10
-88.81853203
 20
-83.45059595
 10
-88.85927886
 20
-83.40984912
 10
-88.90004498
 20
-83.36908314
 10
-88.94082813
 20
-83.32829999
 10
-88.98162617
 20
-83.28750194
 10
-89.022437
 20
-83.24669112
 10
-89.06325833
 20
-83.20586979
 10
-89.10408817
 20
-83.16503994
  0
ARC
  5
2DE
100
AcDbEntity
  8
MST_1_1
 62
   137
  6
CONTINUOUS
100
AcDbCircle
 10
-88.84518485
 20
-83.79244683
 30
0.0
 40
0.30857151
100
AcDbArc
 50
77.38755048
 51
192.61243885
  0
LWPOLYLINE
  5
2DF
100
AcDbEntity
  8
MST_1_1
 62
   137
  6
CONTINUOUS
100
AcDbPolyline
 90
        9
 70
     0
 43
0.0
 10
-89.47259176
 20
-83.53354366
 10
-89.43176005
 20
-83.57437537
 10
-89.39093712
 20
-83.6151983
 10
-89.35012524
 20
-83.65601018
 10
-89.30932652
 20
-83.6968089
 10
-89.26854351
 20
-83.73759178
 10
-89.22777832
 20
-83.7783571
 10
-89.18703309
 20
-83.81910219
 10
-89.14631035
 20
-83.85982494
  0
ARC
  5
2E0
100
AcDbEntity
  8
MST_1_1
 62
   137
  6
CONTINUOUS
100
AcDbCircle
 10
-89.40521374
 20
-83.23241727
 30
0.0
 40
0.30857236
100
AcDbArc
 50
257.38763285
 51
307.33766874
  0
LWPOLYLINE
  5
2E1
100
AcDbEntity
  8
MST_1_1
 62
   137
  6
CONTINUOUS
100
AcDbPolyline
 90
        9
 70
     0
 43
0.0
 10
-89.65055074
 20
-83.04526587
 10
-89.59650756
 20
-83.09930892
 10
-89.54244894
 20
-83.15336754
 10
-89.48838007
 20
-83.20743654
 10
-89.43430589
 20
-83.26151059
 10
-89.38023184
 20
-83.31558477
 10
-89.32616284
 20
-83.36965364
 10
-89.27210422
 20
-83.42371226
 10
-89.21806117
 20
-83.47775544
  0
ARC
  5
2E2
100
AcDbEntity
  8
MST_1_1
 62
   137
  6
CONTINUOUS
100
AcDbCircle
 10
-89.40521342
 20
-83.23241825
 30
0.0
 40
0.30857157
100
AcDbArc
 50
142.662273
 51
192.61245546
  0
LWPOLYLINE
  5
2E3
100
AcDbEntity
  8
MST_1_1
 62
   137
  6
CONTINUOUS
100
AcDbPolyline
 90
        9
 70
     0
 43
0.0
 10
-90.03262024
 20
-82.97351505
 10
-89.9918975
 20
-83.01423779
 10
-89.9511524
 20
-83.05498302
 10
-89.91038708
 20
-83.09574821
 10
-89.8696042
 20
-83.13653122
 10
-89.82880548
 20
-83.17732994
 10
-89.7879936
 20
-83.21814182
 10
-89.74717067
 20
-83.25896475
 10
-89.70633896
 20
-83.29979646
  0
ARC
  5
2E4
100
AcDbEntity
  8
MST_1_1
 62
   137
  6
CONTINUOUS
100
AcDbCircle
 10
-89.96524184
 20
-82.67238984
 30
0.0
 40
0.30857129
100
AcDbArc
 50
257.38751638
 51
12.61251432
  0
LWPOLYLINE
  5
2E5
100
AcDbEntity
  8
MST_1_1
 62
   137
  6
CONTINUOUS
100
AcDbPolyline
 90
        9
 70
     0
 43
0.0
 10
-89.49608291
 20
-83.02517924
 10
-89.45882522
 20
-83.06243693
 10
-89.42156247
 20
-83.09969968
 10
-89.38429653
 20
-83.13696575
 10
-89.34702872
 20
-83.17423342
 10
-89.30976105
 20
-83.21150123
 10
-89.27249498
 20
-83.24876717
 10
-89.23523223
 20
-83.28602992
 10
-89.19797454
 20
-83.32328761
  0
ARC
  5
2E6
100
AcDbEntity
  8
MST_1_1
 62
   137
  6
CONTINUOUS
100
AcDbCircle
 10
-89.4052136
 20
-83.2324183
 30
0.0
 40
0.22628579
100
AcDbArc
 50
336.32372311
 51
113.6762869
  0
LWPOLYLINE
  5
2E7
100
AcDbEntity
  8
MST_1_1
 62
   137
  6
CONTINUOUS
100
AcDbPolyline
 90
        9
 70
     0
 43
0.0
 10
-89.31434409
 20
-83.43965716
 10
-89.35160178
 20
-83.4023996
 10
-89.3888644
 20
-83.36513686
 10
-89.42613047
 20
-83.32787078
 10
-89.46339828
 20
-83.29060298
 10
-89.50066608
 20
-83.25333517
 10
-89.53793216
 20
-83.2160691
 10
-89.57519491
 20
-83.17880648
 10
-89.61245246
 20
-83.14154879
  0
ARC
  5
2E8
100
AcDbEntity
  8
MST_1_1
 62
   137
  6
CONTINUOUS
100
AcDbCircle
 10
-89.40521346
 20
-83.23241816
 30
0.0
 40
0.22628576
100
AcDbArc
 50
156.32369345
 51
293.67631657
  0
CIRCLE
  5
2E9
100
AcDbEntity
  8
MST_1_1
 62
   137
  6
CONTINUOUS
100
AcDbCircle
 10
-87.62734505
 20
-111.45454975
 30
0.0
 40
2.16489752
  0
CIRCLE
  5
2EA
100
AcDbEntity
  8
MST_1_1
 62
   137
  6
CONTINUOUS
100
AcDbCircle
 10
-87.62734505
 20
-111.45454975
 30
0.0
 40
1.21199358
  0
CIRCLE
  5
2EB
100
AcDbEntity
  8
MST_1_1
 62
   137
  6
CONTINUOUS
100
AcDbCircle
 10
-87.62734505
 20
-111.45454975
 30
0.0
 40
2.16489752
  0
CIRCLE
  5
2EC
100
AcDbEntity
  8
MST_1_1
 62
   137
  6
CONTINUOUS
100
AcDbCircle
 10
-87.62734505
 20
-111.45454975
 30
0.0
 40
1.21199358
  0
CIRCLE
  5
2ED
100
AcDbEntity
  8
MST_1_1
 62
   137
  6
CONTINUOUS
100
AcDbCircle
 10
-87.62734505
 20
-111.45454975
 30
0.0
 40
2.16489752
  0
CIRCLE
  5
2EE
100
AcDbEntity
  8
MST_1_1
 62
   137
  6
CONTINUOUS
100
AcDbCircle
 10
-87.62734505
 20
-111.45454975
 30
0.0
 40
1.21199358
  0
CIRCLE
  5
2EF
100
AcDbEntity
  8
MST_1_1
 62
   137
  6
CONTINUOUS
100
AcDbCircle
 10
-87.62734505
 20
-111.45454975
 30
0.0
 40
1.82204038
  0
CIRCLE
  5
2F0
100
AcDbEntity
  8
MST_1_1
 62
   137
  6
CONTINUOUS
100
AcDbCircle
 10
-87.62734505
 20
-111.45454975
 30
0.0
 40
2.27918323
  0
CIRCLE
  5
2F1
100
AcDbEntity
  8
MST_1_1
 62
   137
  6
CONTINUOUS
100
AcDbCircle
 10
-87.62734505
 20
-111.45454975
 30
0.0
 40
1.28571429
  0
CIRCLE
  5
2F2
100
AcDbEntity
  8
MST_1_1
 62
   137
  6
CONTINUOUS
100
AcDbCircle
 10
-87.62734505
 20
-111.45454975
 30
0.0
 40
4.0
  0
ARC
  5
2F3
100
AcDbEntity
  8
MST_1_1
 62
   137
  6
CONTINUOUS
100
AcDbCircle
 10
-89.19534503
 20
-111.45454975
 30
0.0
 40
0.34628572
100
AcDbArc
 50
104.00039951
 51
255.99961051
  0
ARC
  5
2F4
100
AcDbEntity
  8
MST_1_1
 62
   137
  6
CONTINUOUS
100
AcDbCircle
 10
-89.45902226
 20
-112.5120691
 30
0.0
 40
0.74361009
100
AcDbArc
 50
344.00042282
 51
75.99958535
  0
ARC
  5
2F5
100
AcDbEntity
  8
MST_1_1
 62
   137
  6
CONTINUOUS
100
AcDbCircle
 10
-88.41134502
 20
-112.81247757
 30
0.0
 40
0.3462857
100
AcDbArc
 50
164.00040911
 51
315.99959504
  0
ARC
  5
2F6
100
AcDbEntity
  8
MST_1_1
 62
   137
  6
CONTINUOUS
100
AcDbCircle
 10
-87.62734505
 20
-113.56958832
 30
0.0
 40
0.74361
100
AcDbArc
 50
44.00040429
 51
135.99959571
  0
ARC
  5
2F7
100
AcDbEntity
  8
MST_1_1
 62
   137
  6
CONTINUOUS
100
AcDbCircle
 10
-86.84334505
 20
-112.81247763
 30
0.0
 40
0.34628569
100
AcDbArc
 50
224.00041508
 51
15.9996008
  0
ARC
  5
2F8
100
AcDbEntity
  8
MST_1_1
 62
   137
  6
CONTINUOUS
100
AcDbCircle
 10
-86.05934507
 20
-111.45454975
 30
0.0
 40
0.34628572
100
AcDbArc
 50
284.00040953
 51
75.99960049
  0
ARC
  5
2F9
100
AcDbEntity
  8
MST_1_1
 62
   137
  6
CONTINUOUS
100
AcDbCircle
 10
-85.79566784
 20
-110.39703039
 30
0.0
 40
0.74361009
100
AcDbArc
 50
164.00041281
 51
255.99959537
  0
ARC
  5
2FA
100
AcDbEntity
  8
MST_1_1
 62
   137
  6
CONTINUOUS
100
AcDbCircle
 10
-86.84334508
 20
-110.09662192
 30
0.0
 40
0.3462857
100
AcDbArc
 50
344.00041913
 51
135.99958502
  0
ARC
  5
2FB
100
AcDbEntity
  8
MST_1_1
 62
   137
  6
CONTINUOUS
100
AcDbCircle
 10
-87.62734505
 20
-109.33951117
 30
0.0
 40
0.74361
100
AcDbArc
 50
224.00041431
 51
315.99960573
  0
ARC
  5
2FC
100
AcDbEntity
  8
MST_1_1
 62
   137
  6
CONTINUOUS
100
AcDbCircle
 10
-88.41134505
 20
-110.09662187
 30
0.0
 40
0.34628569
100
AcDbArc
 50
44.00040506
 51
195.99961082
  0
ARC
  5
2FD
100
AcDbEntity
  8
MST_1_1
 62
   137
  6
CONTINUOUS
100
AcDbCircle
 10
-89.45902225
 20
-110.39703039
 30
0.0
 40
0.74361009
100
AcDbArc
 50
284.00042461
 51
15.99958726
  0
LWPOLYLINE
  5
2FE
100
AcDbEntity
  8
MST_1_1
 62
   137
  6
CONTINUOUS
100
AcDbPolyline
 90
        9
 70
     0
 43
0.0
 10
-89.10216779
 20
-114.02033732
 10
-89.09180669
 20
-114.00997622
 10
-89.08143828
 20
-113.99960768
 10
-89.07106268
 20
-113.98923221
 10
-89.06067976
 20
-113.97884929
 10
-89.05028979
 20
-113.96845919
 10
-89.03989251
 20
-113.95806191
 10
-89.02948817
 20
-113.94765771
 10
-89.01907678
 20
-113.93724632
  0
ARC
  5
2FF
100
AcDbEntity
  8
MST_1_1
 62
   137
  6
CONTINUOUS
100
AcDbCircle
 10
-88.84518498
 20
-113.79244689
 30
0.0
 40
0.22628574
100
AcDbArc
 50
50.21591721
 51
219.78410477
  0
LWPOLYLINE
  5
300
100
AcDbEntity
  8
MST_1_1
 62
   137
  6
CONTINUOUS
100
AcDbPolyline
 90
        9
 70
     0
 43
0.0
 10
-88.70038558
 20
-113.61855505
 10
-88.69001843
 20
-113.60818783
 10
-88.67964576
 20
-113.59781516
 10
-88.66926757
 20
-113.58743703
 10
-88.65888379
 20
-113.57705332
 10
-88.64849462
 20
-113.56666402
 10
-88.63809999
 20
-113.55626939
 10
-88.62769991
 20
-113.54586945
 10
-88.61729451
 20
-113.53546405
  0
LWPOLYLINE
  5
301
100
AcDbEntity
  8
MST_1_1
 62
   137
  6
CONTINUOUS
100
AcDbPolyline
 90
        9
 70
     0
 43
0.0
 10
-88.61729451
 20
-113.53546405
 10
-88.67940821
 20
-113.47335029
 10
-88.74158151
 20
-113.41117705
 10
-88.80380689
 20
-113.34895167
 10
-88.86607645
 20
-113.28668211
 10
-88.92838273
 20
-113.22437583
 10
-88.99071788
 20
-113.16204068
 10
-89.05307432
 20
-113.09968424
 10
-89.11544419
 20
-113.03731437
  0
LWPOLYLINE
  5
302
100
AcDbEntity
  8
MST_1_1
 62
   137
  6
CONTINUOUS
100
AcDbPolyline
 90
        9
 70
     0
 43
0.0
 10
-89.11544419
 20
-113.03731437
 10
-89.11912651
 20
-113.04099655
 10
-89.12280802
 20
-113.0446782
 10
-89.12648901
 20
-113.04835906
 10
-89.13016933
 20
-113.05203938
 10
-89.13384885
 20
-113.05571903
 10
-89.13752784
 20
-113.05939789
 10
-89.14120604
 20
-113.06307621
 10
-89.1448837
 20
-113.06675374
  0
LWPOLYLINE
  5
303
100
AcDbEntity
  8
MST_1_1
 62
   137
  6
CONTINUOUS
100
AcDbPolyline
 90
       25
 70
     0
 43
0.0
 10
-89.1448837
 20
-113.06675379
 10
-89.14796064
 20
-113.06201436
 10
-89.15111925
 20
-113.05733781
 10
-89.15435868
 20
-113.05272499
 10
-89.15767808
 20
-113.04817675
 10
-89.1610766
 20
-113.04369394
 10
-89.16455338
 20
-113.03927742
 10
-89.16810758
 20
-113.03492804
 10
-89.17173834
 20
-113.03064666
 10
-89.17544482
 20
-113.02643413
 10
-89.17922616
 20
-113.0222913
 10
-89.18308152
 20
-113.01821902
 10
-89.18701003
 20
-113.01421816
 10
-89.19101086
 20
-113.01028956
 10
-89.19508315
 20
-113.00643407
 10
-89.19922604
 20
-113.00265255
 10
-89.20343869
 20
-112.99894586
 10
-89.20772025
 20
-112.99531485
 10
-89.21206987
 20
-112.99176036
 10
-89.21648669
 20
-112.98828326
 10
-89.22096987
 20
-112.9848844
 10
-89.22551854
 20
-112.98156463
 10
-89.23013187
 20
-112.9783248
 10
-89.23480901
 20
-112.97516577
 10
-89.23954909
 20
-112.9720884
  0
LWPOLYLINE
  5
304
100
AcDbEntity
  8
MST_1_1
 62
   137
  6
CONTINUOUS
100
AcDbPolyline
 90
        9
 70
     0
 43
0.0
 10
-89.23954904
 20
-112.97208839
 10
-89.23587152
 20
-112.96841073
 10
-89.23219319
 20
-112.96473254
 10
-89.22851433
 20
-112.96105355
 10
-89.22483468
 20
-112.95737403
 10
-89.22115436
 20
-112.95369371
 10
-89.21747351
 20
-112.95001272
 10
-89.21379185
 20
-112.9463312
 10
-89.21010967
 20
-112.94264889
  0
LWPOLYLINE
  5
305
100
AcDbEntity
  8
MST_1_1
 62
   137
  6
CONTINUOUS
100
AcDbPolyline
 90
        9
 70
     0
 43
0.0
 10
-89.21010967
 20
-112.94264889
 10
-89.27247955
 20
-112.88027901
 10
-89.33483598
 20
-112.81792258
 10
-89.39717113
 20
-112.75558743
 10
-89.45947741
 20
-112.69328115
 10
-89.52174697
 20
-112.63101159
 10
-89.58397235
 20
-112.5687862
 10
-89.64614559
 20
-112.50661291
 10
-89.70825935
 20
-112.44449921
  0
LWPOLYLINE
  5
306
100
AcDbEntity
  8
MST_1_1
 62
   137
  6
CONTINUOUS
100
AcDbPolyline
 90
        9
 70
     0
 43
0.0
 10
-89.70825935
 20
-112.44449921
 10
-89.71866475
 20
-112.45490461
 10
-89.72906469
 20
-112.46530469
 10
-89.73945932
 20
-112.47569932
 10
-89.74984862
 20
-112.48608849
 10
-89.76023234
 20
-112.49647227
 10
-89.77061046
 20
-112.50685046
 10
-89.78098313
 20
-112.51722313
 10
-89.79135035
 20
-112.52759028
  0
ARC
  5
307
100
AcDbEntity
  8
MST_1_1
 62
   137
  6
CONTINUOUS
100
AcDbCircle
 10
-89.9652422
 20
-112.67238966
 30
0.0
 40
0.22628574
100
AcDbArc
 50
230.21591956
 51
39.7840785
  0
LWPOLYLINE
  5
308
100
AcDbEntity
  8
MST_1_1
 62
   137
  6
CONTINUOUS
100
AcDbPolyline
 90
        9
 70
     0
 43
0.0
 10
-90.11004162
 20
-112.84628148
 10
-90.12045301
 20
-112.85669287
 10
-90.13085721
 20
-112.86709721
 10
-90.1412545
 20
-112.87749449
 10
-90.1516446
 20
-112.88788446
 10
-90.16202751
 20
-112.89826738
 10
-90.17240298
 20
-112.90864298
 10
-90.18277153
 20
-112.91901139
 10
-90.19313262
 20
-112.92937249
  0
LWPOLYLINE
  5
309
100
AcDbEntity
  8
MST_1_1
 62
   137
  6
CONTINUOUS
100
AcDbPolyline
 90
        9
 70
     0
 43
0.0
 10
-90.19313262
 20
-112.92937249
 10
-90.13102778
 20
-112.99147707
 10
-90.06886013
 20
-113.05364484
 10
-90.00663741
 20
-113.1158677
 10
-89.94436758
 20
-113.17813739
 10
-89.88205917
 20
-113.2404458
 10
-89.81972017
 20
-113.30278481
 10
-89.75735867
 20
-113.3651463
 10
-89.69498281
 20
-113.42752216
  0
LWPOLYLINE
  5
30A
100
AcDbEntity
  8
MST_1_1
 62
   137
  6
CONTINUOUS
100
AcDbPolyline
 90
        9
 70
     0
 43
0.0
 10
-89.69498281
 20
-113.42752216
 10
-89.69130608
 20
-113.42384543
 10
-89.68762842
 20
-113.42016777
 10
-89.68394983
 20
-113.41648918
 10
-89.68027031
 20
-113.41280966
 10
-89.67658999
 20
-113.40912934
 10
-89.67290874
 20
-113.40544796
 10
-89.66922642
 20
-113.40176577
 10
-89.66554331
 20
-113.39808266
  0
LWPOLYLINE
  5
30B
100
AcDbEntity
  8
MST_1_1
 62
   137
  6
CONTINUOUS
100
AcDbPolyline
 90
       25
 70
     0
 43
0.0
 10
-89.66554336
 20
-113.39808266
 10
-89.66246665
 20
-113.40282171
 10
-89.6593082
 20
-113.40749796
 10
-89.65606886
 20
-113.41211057
 10
-89.6527495
 20
-113.41665867
 10
-89.64935097
 20
-113.42114139
 10
-89.64587413
 20
-113.42555789
 10
-89.64231984
 20
-113.42990729
 10
-89.63868895
 20
-113.43418874
 10
-89.63498232
 20
-113.43840138
 10
-89.63120082
 20
-113.44254434
 10
-89.62734529
 20
-113.44661677
 10
-89.6234166
 20
-113.4506178
 10
-89.61941561
 20
-113.45454658
 10
-89.61534317
 20
-113.45840224
 10
-89.61120014
 20
-113.46218392
 10
-89.60698738
 20
-113.46589076
 10
-89.60270575
 20
-113.46952191
 10
-89.59835611
 20
-113.47307649
 10
-89.5939393
 20
-113.47655366
 10
-89.5894562
 20
-113.47995254
 10
-89.58490766
 20
-113.48327229
 10
-89.58029453
 20
-113.48651203
 10
-89.57561768
 20
-113.4896709
 10
-89.57087797
 20
-113.49274806
  0
LWPOLYLINE
  5
30C
100
AcDbEntity
  8
MST_1_1
 62
   137
  6
CONTINUOUS
100
AcDbPolyline
 90
        9
 70
     0
 43
0.0
 10
-89.57087796
 20
-113.492748
 10
-89.57456107
 20
-113.49643112
 10
-89.57824326
 20
-113.50011344
 10
-89.58192464
 20
-113.50379469
 10
-89.58560496
 20
-113.50747501
 10
-89.58928449
 20
-113.51115453
 10
-89.59296308
 20
-113.51483312
 10
-89.59664074
 20
-113.51851078
 10
-89.60031746
 20
-113.52218751
  0
LWPOLYLINE
  5
30D
100
AcDbEntity
  8
MST_1_1
 62
   137
  6
CONTINUOUS
100
AcDbPolyline
 90
        9
 70
     0
 43
0.0
 10
-89.60031746
 20
-113.52218751
 10
-89.5379416
 20
-113.58456337
 10
-89.47558011
 20
-113.64692486
 10
-89.4132411
 20
-113.70926387
 10
-89.3509327
 20
-113.77157228
 10
-89.288663
 20
-113.8338421
 10
-89.22644015
 20
-113.89606483
 10
-89.16427237
 20
-113.95823247
 10
-89.10216779
 20
-114.02033732
  0
CIRCLE
  5
30E
100
AcDbEntity
  8
MST_1_1
 62
   137
  6
CONTINUOUS
100
AcDbCircle
 10
-87.62734505
 20
-111.45454975
 30
0.0
 40
3.75223156
  0
ARC
  5
30F
100
AcDbEntity
  8
MST_1_1
 62
   137
  6
CONTINUOUS
100
AcDbCircle
 10
-85.79566784
 20
-112.5120691
 30
0.0
 40
0.74361009
100
AcDbArc
 50
104.00041459
 51
195.99959727
  0
LWPOLYLINE
  5
310
100
AcDbEntity
  8
MST_1_1
 62
   137
  6
CONTINUOUS
100
AcDbPolyline
 90
        9
 70
     0
 43
0.0
 10
-89.33783524
 20
-112.93129287
 10
-89.37866509
 20
-112.89046303
 10
-89.41948642
 20
-112.84964169
 10
-89.46029724
 20
-112.80883087
 10
-89.50109529
 20
-112.76803282
 10
-89.54187844
 20
-112.72724968
 10
-89.58264442
 20
-112.68648356
 10
-89.62339125
 20
-112.64573673
 10
-89.66411665
 20
-112.60501133
  0
ARC
  5
311
100
AcDbEntity
  8
MST_1_1
 62
   137
  6
CONTINUOUS
100
AcDbCircle
 10
-89.40521366
 20
-113.23241748
 30
0.0
 40
0.3085707
100
AcDbArc
 50
77.38747914
 51
127.33780242
  0
LINE
  5
312
100
AcDbEntity
  8
MST_1_1
 62
   137
  6
CONTINUOUS
100
AcDbLine
 10
-89.15987639
 20
-113.41957053
 30
0.0
 11
-89.59236583
 21
-112.98708109
 31
0.0
  0
ARC
  5
313
100
AcDbEntity
  8
MST_1_1
 62
   137
  6
CONTINUOUS
100
AcDbCircle
 10
-89.40521292
 20
-113.23241833
 30
0.0
 40
0.30857083
100
AcDbArc
 50
322.66221884
 51
12.61250962
  0
LWPOLYLINE
  5
314
100
AcDbEntity
  8
MST_1_1
 62
   137
  6
CONTINUOUS
100
AcDbPolyline
 90
        9
 70
     0
 43
0.0
 10
-88.77780663
 20
-113.49132135
 10
-88.81853203
 20
-113.45059595
 10
-88.85927886
 20
-113.40984912
 10
-88.90004498
 20
-113.36908314
 10
-88.94082813
 20
-113.32829999
 10
-88.98162617
 20
-113.28750194
 10
-89.022437
 20
-113.24669112
 10
-89.06325833
 20
-113.20586979
 10
-89.10408817
 20
-113.16503994
  0
ARC
  5
315
100
AcDbEntity
  8
MST_1_1
 62
   137
  6
CONTINUOUS
100
AcDbCircle
 10
-88.84518485
 20
-113.79244683
 30
0.0
 40
0.30857151
100
AcDbArc
 50
77.38755048
 51
192.61243885
  0
LWPOLYLINE
  5
316
100
AcDbEntity
  8
MST_1_1
 62
   137
  6
CONTINUOUS
100
AcDbPolyline
 90
        9
 70
     0
 43
0.0
 10
-89.47259176
 20
-113.53354366
 10
-89.43176005
 20
-113.57437537
 10
-89.39093712
 20
-113.6151983
 10
-89.35012524
 20
-113.65601018
 10
-89.30932652
 20
-113.6968089
 10
-89.26854351
 20
-113.73759178
 10
-89.22777832
 20
-113.7783571
 10
-89.18703309
 20
-113.81910219
 10
-89.14631035
 20
-113.85982494
  0
ARC
  5
317
100
AcDbEntity
  8
MST_1_1
 62
   137
  6
CONTINUOUS
100
AcDbCircle
 10
-89.40521374
 20
-113.23241727
 30
0.0
 40
0.30857236
100
AcDbArc
 50
257.38763285
 51
307.33766874
  0
LWPOLYLINE
  5
318
100
AcDbEntity
  8
MST_1_1
 62
   137
  6
CONTINUOUS
100
AcDbPolyline
 90
        9
 70
     0
 43
0.0
 10
-89.65055074
 20
-113.04526587
 10
-89.59650756
 20
-113.09930892
 10
-89.54244894
 20
-113.15336754
 10
-89.48838007
 20
-113.20743654
 10
-89.43430589
 20
-113.26151059
 10
-89.38023184
 20
-113.31558477
 10
-89.32616284
 20
-113.36965364
 10
-89.27210422
 20
-113.42371226
 10
-89.21806117
 20
-113.47775544
  0
ARC
  5
319
100
AcDbEntity
  8
MST_1_1
 62
   137
  6
CONTINUOUS
100
AcDbCircle
 10
-89.40521342
 20
-113.23241825
 30
0.0
 40
0.30857157
100
AcDbArc
 50
142.662273
 51
192.61245546
  0
LWPOLYLINE
  5
31A
100
AcDbEntity
  8
MST_1_1
 62
   137
  6
CONTINUOUS
100
AcDbPolyline
 90
        9
 70
     0
 43
0.0
 10
-90.03262024
 20
-112.97351505
 10
-89.9918975
 20
-113.01423779
 10
-89.9511524
 20
-113.05498302
 10
-89.91038708
 20
-113.09574821
 10
-89.8696042
 20
-113.13653122
 10
-89.82880548
 20
-113.17732994
 10
-89.7879936
 20
-113.21814182
 10
-89.74717067
 20
-113.25896475
 10
-89.70633896
 20
-113.29979646
  0
ARC
  5
31B
100
AcDbEntity
  8
MST_1_1
 62
   137
  6
CONTINUOUS
100
AcDbCircle
 10
-89.96524184
 20
-112.67238984
 30
0.0
 40
0.30857129
100
AcDbArc
 50
257.38751638
 51
12.61251432
  0
LWPOLYLINE
  5
31C
100
AcDbEntity
  8
MST_1_1
 62
   137
  6
CONTINUOUS
100
AcDbPolyline
 90
        9
 70
     0
 43
0.0
 10
-89.49608291
 20
-113.02517924
 10
-89.45882522
 20
-113.06243693
 10
-89.42156247
 20
-113.09969968
 10
-89.38429653
 20
-113.13696575
 10
-89.34702872
 20
-113.17423342
 10
-89.30976105
 20
-113.21150123
 10
-89.27249498
 20
-113.24876717
 10
-89.23523223
 20
-113.28602992
 10
-89.19797454
 20
-113.32328761
  0
ARC
  5
31D
100
AcDbEntity
  8
MST_1_1
 62
   137
  6
CONTINUOUS
100
AcDbCircle
 10
-89.4052136
 20
-113.2324183
 30
0.0
 40
0.22628579
100
AcDbArc
 50
336.32372311
 51
113.6762869
  0
LWPOLYLINE
  5
31E
100
AcDbEntity
  8
MST_1_1
 62
   137
  6
CONTINUOUS
100
AcDbPolyline
 90
        9
 70
     0
 43
0.0
 10
-89.31434409
 20
-113.43965716
 10
-89.35160178
 20
-113.4023996
 10
-89.3888644
 20
-113.36513686
 10
-89.42613047
 20
-113.32787078
 10
-89.46339828
 20
-113.29060298
 10
-89.50066608
 20
-113.25333517
 10
-89.53793216
 20
-113.2160691
 10
-89.57519491
 20
-113.17880648
 10
-89.61245246
 20
-113.14154879
  0
ARC
  5
31F
100
AcDbEntity
  8
MST_1_1
 62
   137
  6
CONTINUOUS
100
AcDbCircle
 10
-89.40521346
 20
-113.23241816
 30
0.0
 40
0.22628576
100
AcDbArc
 50
156.32369345
 51
293.67631657
  0
CIRCLE
  5
320
100
AcDbEntity
  8
MST_1_1
 62
   137
  6
CONTINUOUS
100
AcDbCircle
 10
-87.62734505
 20
-141.45454975
 30
0.0
 40
2.16489752
  0
CIRCLE
  5
321
100
AcDbEntity
  8
MST_1_1
 62
   137
  6
CONTINUOUS
100
AcDbCircle
 10
-87.62734505
 20
-141.45454975
 30
0.0
 40
1.21199358
  0
CIRCLE
  5
322
100
AcDbEntity
  8
MST_1_1
 62
   137
  6
CONTINUOUS
100
AcDbCircle
 10
-87.62734505
 20
-141.45454975
 30
0.0
 40
2.16489752
  0
CIRCLE
  5
323
100
AcDbEntity
  8
MST_1_1
 62
   137
  6
CONTINUOUS
100
AcDbCircle
 10
-87.62734505
 20
-141.45454975
 30
0.0
 40
1.21199358
  0
CIRCLE
  5
324
100
AcDbEntity
  8
MST_1_1
 62
   137
  6
CONTINUOUS
100
AcDbCircle
 10
-87.62734505
 20
-141.45454975
 30
0.0
 40
2.16489752
  0
CIRCLE
  5
325
100
AcDbEntity
  8
MST_1_1
 62
   137
  6
CONTINUOUS
100
AcDbCircle
 10
-87.62734505
 20
-141.45454975
 30
0.0
 40
1.21199358
  0
CIRCLE
  5
326
100
AcDbEntity
  8
MST_1_1
 62
   137
  6
CONTINUOUS
100
AcDbCircle
 10
-87.62734505
 20
-141.45454975
 30
0.0
 40
1.82204038
  0
CIRCLE
  5
327
100
AcDbEntity
  8
MST_1_1
 62
   137
  6
CONTINUOUS
100
AcDbCircle
 10
-87.62734505
 20
-141.45454975
 30
0.0
 40
2.27918323
  0
CIRCLE
  5
328
100
AcDbEntity
  8
MST_1_1
 62
   137
  6
CONTINUOUS
100
AcDbCircle
 10
-87.62734505
 20
-141.45454975
 30
0.0
 40
1.28571429
  0
CIRCLE
  5
329
100
AcDbEntity
  8
MST_1_1
 62
   137
  6
CONTINUOUS
100
AcDbCircle
 10
-87.62734505
 20
-141.45454975
 30
0.0
 40
4.0
  0
ARC
  5
32A
100
AcDbEntity
  8
MST_1_1
 62
   137
  6
CONTINUOUS
100
AcDbCircle
 10
-89.19534503
 20
-141.45454975
 30
0.0
 40
0.34628572
100
AcDbArc
 50
104.00039951
 51
255.99961051
  0
ARC
  5
32B
100
AcDbEntity
  8
MST_1_1
 62
   137
  6
CONTINUOUS
100
AcDbCircle
 10
-89.45902226
 20
-142.5120691
 30
0.0
 40
0.74361009
100
AcDbArc
 50
344.00042282
 51
75.99958535
  0
ARC
  5
32C
100
AcDbEntity
  8
MST_1_1
 62
   137
  6
CONTINUOUS
100
AcDbCircle
 10
-88.41134502
 20
-142.81247757
 30
0.0
 40
0.3462857
100
AcDbArc
 50
164.00040911
 51
315.99959504
  0
ARC
  5
32D
100
AcDbEntity
  8
MST_1_1
 62
   137
  6
CONTINUOUS
100
AcDbCircle
 10
-87.62734505
 20
-143.56958832
 30
0.0
 40
0.74361
100
AcDbArc
 50
44.00040429
 51
135.99959571
  0
ARC
  5
32E
100
AcDbEntity
  8
MST_1_1
 62
   137
  6
CONTINUOUS
100
AcDbCircle
 10
-86.84334505
 20
-142.81247763
 30
0.0
 40
0.34628569
100
AcDbArc
 50
224.00041508
 51
15.9996008
  0
ARC
  5
32F
100
AcDbEntity
  8
MST_1_1
 62
   137
  6
CONTINUOUS
100
AcDbCircle
 10
-86.05934507
 20
-141.45454975
 30
0.0
 40
0.34628572
100
AcDbArc
 50
284.00040953
 51
75.99960049
  0
ARC
  5
330
100
AcDbEntity
  8
MST_1_1
 62
   137
  6
CONTINUOUS
100
AcDbCircle
 10
-85.79566784
 20
-140.39703039
 30
0.0
 40
0.74361009
100
AcDbArc
 50
164.00041281
 51
255.99959537
  0
ARC
  5
331
100
AcDbEntity
  8
MST_1_1
 62
   137
  6
CONTINUOUS
100
AcDbCircle
 10
-86.84334508
 20
-140.09662192
 30
0.0
 40
0.3462857
100
AcDbArc
 50
344.00041913
 51
135.99958502
  0
ARC
  5
332
100
AcDbEntity
  8
MST_1_1
 62
   137
  6
CONTINUOUS
100
AcDbCircle
 10
-87.62734505
 20
-139.33951117
 30
0.0
 40
0.74361
100
AcDbArc
 50
224.00041431
 51
315.99960573
  0
ARC
  5
333
100
AcDbEntity
  8
MST_1_1
 62
   137
  6
CONTINUOUS
100
AcDbCircle
 10
-88.41134505
 20
-140.09662187
 30
0.0
 40
0.34628569
100
AcDbArc
 50
44.00040506
 51
195.99961082
  0
ARC
  5
334
100
AcDbEntity
  8
MST_1_1
 62
   137
  6
CONTINUOUS
100
AcDbCircle
 10
-89.45902225
 20
-140.39703039
 30
0.0
 40
0.74361009
100
AcDbArc
 50
284.00042461
 51
15.99958726
  0
LWPOLYLINE
  5
335
100
AcDbEntity
  8
MST_1_1
 62
   137
  6
CONTINUOUS
100
AcDbPolyline
 90
        9
 70
     0
 43
0.0
 10
-89.10216779
 20
-144.02033732
 10
-89.09180669
 20
-144.00997622
 10
-89.08143828
 20
-143.99960768
 10
-89.07106268
 20
-143.98923221
 10
-89.06067976
 20
-143.97884929
 10
-89.05028979
 20
-143.96845919
 10
-89.03989251
 20
-143.95806191
 10
-89.02948817
 20
-143.94765771
 10
-89.01907678
 20
-143.93724632
  0
ARC
  5
336
100
AcDbEntity
  8
MST_1_1
 62
   137
  6
CONTINUOUS
100
AcDbCircle
 10
-88.84518498
 20
-143.79244689
 30
0.0
 40
0.22628574
100
AcDbArc
 50
50.21591721
 51
219.78410477
  0
LWPOLYLINE
  5
337
100
AcDbEntity
  8
MST_1_1
 62
   137
  6
CONTINUOUS
100
AcDbPolyline
 90
        9
 70
     0
 43
0.0
 10
-88.70038558
 20
-143.61855505
 10
-88.69001843
 20
-143.60818783
 10
-88.67964576
 20
-143.59781516
 10
-88.66926757
 20
-143.58743703
 10
-88.65888379
 20
-143.57705332
 10
-88.64849462
 20
-143.56666402
 10
-88.63809999
 20
-143.55626939
 10
-88.62769991
 20
-143.54586945
 10
-88.61729451
 20
-143.53546405
  0
LWPOLYLINE
  5
338
100
AcDbEntity
  8
MST_1_1
 62
   137
  6
CONTINUOUS
100
AcDbPolyline
 90
        9
 70
     0
 43
0.0
 10
-88.61729451
 20
-143.53546405
 10
-88.67940821
 20
-143.47335029
 10
-88.74158151
 20
-143.41117705
 10
-88.80380689
 20
-143.34895167
 10
-88.86607645
 20
-143.28668211
 10
-88.92838273
 20
-143.22437583
 10
-88.99071788
 20
-143.16204068
 10
-89.05307432
 20
-143.09968424
 10
-89.11544419
 20
-143.03731437
  0
LWPOLYLINE
  5
339
100
AcDbEntity
  8
MST_1_1
 62
   137
  6
CONTINUOUS
100
AcDbPolyline
 90
        9
 70
     0
 43
0.0
 10
-89.11544419
 20
-143.03731437
 10
-89.11912651
 20
-143.04099655
 10
-89.12280802
 20
-143.0446782
 10
-89.12648901
 20
-143.04835906
 10
-89.13016933
 20
-143.05203938
 10
-89.13384885
 20
-143.05571903
 10
-89.13752784
 20
-143.05939789
 10
-89.14120604
 20
-143.06307621
 10
-89.1448837
 20
-143.06675374
  0
LWPOLYLINE
  5
33A
100
AcDbEntity
  8
MST_1_1
 62
   137
  6
CONTINUOUS
100
AcDbPolyline
 90
       25
 70
     0
 43
0.0
 10
-89.1448837
 20
-143.06675379
 10
-89.14796064
 20
-143.06201436
 10
-89.15111925
 20
-143.05733781
 10
-89.15435868
 20
-143.05272499
 10
-89.15767808
 20
-143.04817675
 10
-89.1610766
 20
-143.04369394
 10
-89.16455338
 20
-143.03927742
 10
-89.16810758
 20
-143.03492804
 10
-89.17173834
 20
-143.03064666
 10
-89.17544482
 20
-143.02643413
 10
-89.17922616
 20
-143.0222913
 10
-89.18308152
 20
-143.01821902
 10
-89.18701003
 20
-143.01421816
 10
-89.19101086
 20
-143.01028956
 10
-89.19508315
 20
-143.00643407
 10
-89.19922604
 20
-143.00265255
 10
-89.20343869
 20
-142.99894586
 10
-89.20772025
 20
-142.99531485
 10
-89.21206987
 20
-142.99176036
 10
-89.21648669
 20
-142.98828326
 10
-89.22096987
 20
-142.9848844
 10
-89.22551854
 20
-142.98156463
 10
-89.23013187
 20
-142.9783248
 10
-89.23480901
 20
-142.97516577
 10
-89.23954909
 20
-142.9720884
  0
LWPOLYLINE
  5
33B
100
AcDbEntity
  8
MST_1_1
 62
   137
  6
CONTINUOUS
100
AcDbPolyline
 90
        9
 70
     0
 43
0.0
 10
-89.23954904
 20
-142.97208839
 10
-89.23587152
 20
-142.96841073
 10
-89.23219319
 20
-142.96473254
 10
-89.22851433
 20
-142.96105355
 10
-89.22483468
 20
-142.95737403
 10
-89.22115436
 20
-142.95369371
 10
-89.21747351
 20
-142.95001272
 10
-89.21379185
 20
-142.9463312
 10
-89.21010967
 20
-142.94264889
  0
LWPOLYLINE
  5
33C
100
AcDbEntity
  8
MST_1_1
 62
   137
  6
CONTINUOUS
100
AcDbPolyline
 90
        9
 70
     0
 43
0.0
 10
-89.21010967
 20
-142.94264889
 10
-89.27247955
 20
-142.88027901
 10
-89.33483598
 20
-142.81792258
 10
-89.39717113
 20
-142.75558743
 10
-89.45947741
 20
-142.69328115
 10
-89.52174697
 20
-142.63101159
 10
-89.58397235
 20
-142.5687862
 10
-89.64614559
 20
-142.50661291
 10
-89.70825935
 20
-142.44449921
  0
LWPOLYLINE
  5
33D
100
AcDbEntity
  8
MST_1_1
 62
   137
  6
CONTINUOUS
100
AcDbPolyline
 90
        9
 70
     0
 43
0.0
 10
-89.70825935
 20
-142.44449921
 10
-89.71866475
 20
-142.45490461
 10
-89.72906469
 20
-142.46530469
 10
-89.73945932
 20
-142.47569932
 10
-89.74984862
 20
-142.48608849
 10
-89.76023234
 20
-142.49647227
 10
-89.77061046
 20
-142.50685046
 10
-89.78098313
 20
-142.51722313
 10
-89.79135035
 20
-142.52759028
  0
ARC
  5
33E
100
AcDbEntity
  8
MST_1_1
 62
   137
  6
CONTINUOUS
100
AcDbCircle
 10
-89.9652422
 20
-142.67238966
 30
0.0
 40
0.22628574
100
AcDbArc
 50
230.21591956
 51
39.7840785
  0
LWPOLYLINE
  5
33F
100
AcDbEntity
  8
MST_1_1
 62
   137
  6
CONTINUOUS
100
AcDbPolyline
 90
        9
 70
     0
 43
0.0
 10
-90.11004162
 20
-142.84628148
 10
-90.12045301
 20
-142.85669287
 10
-90.13085721
 20
-142.86709721
 10
-90.1412545
 20
-142.87749449
 10
-90.1516446
 20
-142.88788446
 10
-90.16202751
 20
-142.89826738
 10
-90.17240298
 20
-142.90864298
 10
-90.18277153
 20
-142.91901139
 10
-90.19313262
 20
-142.92937249
  0
LWPOLYLINE
  5
340
100
AcDbEntity
  8
MST_1_1
 62
   137
  6
CONTINUOUS
100
AcDbPolyline
 90
        9
 70
     0
 43
0.0
 10
-90.19313262
 20
-142.92937249
 10
-90.13102778
 20
-142.99147707
 10
-90.06886013
 20
-143.05364484
 10
-90.00663741
 20
-143.1158677
 10
-89.94436758
 20
-143.17813739
 10
-89.88205917
 20
-143.2404458
 10
-89.81972017
 20
-143.30278481
 10
-89.75735867
 20
-143.3651463
 10
-89.69498281
 20
-143.42752216
  0
LWPOLYLINE
  5
341
100
AcDbEntity
  8
MST_1_1
 62
   137
  6
CONTINUOUS
100
AcDbPolyline
 90
        9
 70
     0
 43
0.0
 10
-89.69498281
 20
-143.42752216
 10
-89.69130608
 20
-143.42384543
 10
-89.68762842
 20
-143.42016777
 10
-89.68394983
 20
-143.41648918
 10
-89.68027031
 20
-143.41280966
 10
-89.67658999
 20
-143.40912934
 10
-89.67290874
 20
-143.40544796
 10
-89.66922642
 20
-143.40176577
 10
-89.66554331
 20
-143.39808266
  0
LWPOLYLINE
  5
342
100
AcDbEntity
  8
MST_1_1
 62
   137
  6
CONTINUOUS
100
AcDbPolyline
 90
       25
 70
     0
 43
0.0
 10
-89.66554336
 20
-143.39808266
 10
-89.66246665
 20
-143.40282171
 10
-89.6593082
 20
-143.40749796
 10
-89.65606886
 20
-143.41211057
 10
-89.6527495
 20
-143.41665867
 10
-89.64935097
 20
-143.42114139
 10
-89.64587413
 20
-143.42555789
 10
-89.64231984
 20
-143.42990729
 10
-89.63868895
 20
-143.43418874
 10
-89.63498232
 20
-143.43840138
 10
-89.63120082
 20
-143.44254434
 10
-89.62734529
 20
-143.44661677
 10
-89.6234166
 20
-143.4506178
 10
-89.61941561
 20
-143.45454658
 10
-89.61534317
 20
-143.45840224
 10
-89.61120014
 20
-143.46218392
 10
-89.60698738
 20
-143.46589076
 10
-89.60270575
 20
-143.46952191
 10
-89.59835611
 20
-143.47307649
 10
-89.5939393
 20
-143.47655366
 10
-89.5894562
 20
-143.47995254
 10
-89.58490766
 20
-143.48327229
 10
-89.58029453
 20
-143.48651203
 10
-89.57561768
 20
-143.4896709
 10
-89.57087797
 20
-143.49274806
  0
LWPOLYLINE
  5
343
100
AcDbEntity
  8
MST_1_1
 62
   137
  6
CONTINUOUS
100
AcDbPolyline
 90
        9
 70
     0
 43
0.0
 10
-89.57087796
 20
-143.492748
 10
-89.57456107
 20
-143.49643112
 10
-89.57824326
 20
-143.50011344
 10
-89.58192464
 20
-143.50379469
 10
-89.58560496
 20
-143.50747501
 10
-89.58928449
 20
-143.51115453
 10
-89.59296308
 20
-143.51483312
 10
-89.59664074
 20
-143.51851078
 10
-89.60031746
 20
-143.52218751
  0
LWPOLYLINE
  5
344
100
AcDbEntity
  8
MST_1_1
 62
   137
  6
CONTINUOUS
100
AcDbPolyline
 90
        9
 70
     0
 43
0.0
 10
-89.60031746
 20
-143.52218751
 10
-89.5379416
 20
-143.58456337
 10
-89.47558011
 20
-143.64692486
 10
-89.4132411
 20
-143.70926387
 10
-89.3509327
 20
-143.77157228
 10
-89.288663
 20
-143.8338421
 10
-89.22644015
 20
-143.89606483
 10
-89.16427237
 20
-143.95823247
 10
-89.10216779
 20
-144.02033732
  0
CIRCLE
  5
345
100
AcDbEntity
  8
MST_1_1
 62
   137
  6
CONTINUOUS
100
AcDbCircle
 10
-87.62734505
 20
-141.45454975
 30
0.0
 40
3.75223156
  0
ARC
  5
346
100
AcDbEntity
  8
MST_1_1
 62
   137
  6
CONTINUOUS
100
AcDbCircle
 10
-85.79566784
 20
-142.5120691
 30
0.0
 40
0.74361009
100
AcDbArc
 50
104.00041459
 51
195.99959727
  0
LWPOLYLINE
  5
347
100
AcDbEntity
  8
MST_1_1
 62
   137
  6
CONTINUOUS
100
AcDbPolyline
 90
        9
 70
     0
 43
0.0
 10
-89.33783524
 20
-142.93129287
 10
-89.37866509
 20
-142.89046303
 10
-89.41948642
 20
-142.84964169
 10
-89.46029724
 20
-142.80883087
 10
-89.50109529
 20
-142.76803282
 10
-89.54187844
 20
-142.72724968
 10
-89.58264442
 20
-142.68648356
 10
-89.62339125
 20
-142.64573673
 10
-89.66411665
 20
-142.60501133
  0
ARC
  5
348
100
AcDbEntity
  8
MST_1_1
 62
   137
  6
CONTINUOUS
100
AcDbCircle
 10
-89.40521366
 20
-143.23241748
 30
0.0
 40
0.3085707
100
AcDbArc
 50
77.38747914
 51
127.33780242
  0
LINE
  5
349
100
AcDbEntity
  8
MST_1_1
 62
   137
  6
CONTINUOUS
100
AcDbLine
 10
-89.15987639
 20
-143.41957053
 30
0.0
 11
-89.59236583
 21
-142.98708109
 31
0.0
  0
ARC
  5
34A
100
AcDbEntity
  8
MST_1_1
 62
   137
  6
CONTINUOUS
100
AcDbCircle
 10
-89.40521292
 20
-143.23241833
 30
0.0
 40
0.30857083
100
AcDbArc
 50
322.66221884
 51
12.61250962
  0
LWPOLYLINE
  5
34B
100
AcDbEntity
  8
MST_1_1
 62
   137
  6
CONTINUOUS
100
AcDbPolyline
 90
        9
 70
     0
 43
0.0
 10
-88.77780663
 20
-143.49132135
 10
-88.81853203
 20
-143.45059595
 10
-88.85927886
 20
-143.40984912
 10
-88.90004498
 20
-143.36908314
 10
-88.94082813
 20
-143.32829999
 10
-88.98162617
 20
-143.28750194
 10
-89.022437
 20
-143.24669112
 10
-89.06325833
 20
-143.20586979
 10
-89.10408817
 20
-143.16503994
  0
ARC
  5
34C
100
AcDbEntity
  8
MST_1_1
 62
   137
  6
CONTINUOUS
100
AcDbCircle
 10
-88.84518485
 20
-143.79244683
 30
0.0
 40
0.30857151
100
AcDbArc
 50
77.38755048
 51
192.61243885
  0
LWPOLYLINE
  5
34D
100
AcDbEntity
  8
MST_1_1
 62
   137
  6
CONTINUOUS
100
AcDbPolyline
 90
        9
 70
     0
 43
0.0
 10
-89.47259176
 20
-143.53354366
 10
-89.43176005
 20
-143.57437537
 10
-89.39093712
 20
-143.6151983
 10
-89.35012524
 20
-143.65601018
 10
-89.30932652
 20
-143.6968089
 10
-89.26854351
 20
-143.73759178
 10
-89.22777832
 20
-143.7783571
 10
-89.18703309
 20
-143.81910219
 10
-89.14631035
 20
-143.85982494
  0
ARC
  5
34E
100
AcDbEntity
  8
MST_1_1
 62
   137
  6
CONTINUOUS
100
AcDbCircle
 10
-89.40521374
 20
-143.23241727
 30
0.0
 40
0.30857236
100
AcDbArc
 50
257.38763285
 51
307.33766874
  0
LWPOLYLINE
  5
34F
100
AcDbEntity
  8
MST_1_1
 62
   137
  6
CONTINUOUS
100
AcDbPolyline
 90
        9
 70
     0
 43
0.0
 10
-89.65055074
 20
-143.04526587
 10
-89.59650756
 20
-143.09930892
 10
-89.54244894
 20
-143.15336754
 10
-89.48838007
 20
-143.20743654
 10
-89.43430589
 20
-143.26151059
 10
-89.38023184
 20
-143.31558477
 10
-89.32616284
 20
-143.36965364
 10
-89.27210422
 20
-143.42371226
 10
-89.21806117
 20
-143.47775544
  0
ARC
  5
350
100
AcDbEntity
  8
MST_1_1
 62
   137
  6
CONTINUOUS
100
AcDbCircle
 10
-89.40521342
 20
-143.23241825
 30
0.0
 40
0.30857157
100
AcDbArc
 50
142.662273
 51
192.61245546
  0
LWPOLYLINE
  5
351
100
AcDbEntity
  8
MST_1_1
 62
   137
  6
CONTINUOUS
100
AcDbPolyline
 90
        9
 70
     0
 43
0.0
 10
-90.03262024
 20
-142.97351505
 10
-89.9918975
 20
-143.01423779
 10
-89.9511524
 20
-143.05498302
 10
-89.91038708
 20
-143.09574821
 10
-89.8696042
 20
-143.13653122
 10
-89.82880548
 20
-143.17732994
 10
-89.7879936
 20
-143.21814182
 10
-89.74717067
 20
-143.25896475
 10
-89.70633896
 20
-143.29979646
  0
ARC
  5
352
100
AcDbEntity
  8
MST_1_1
 62
   137
  6
CONTINUOUS
100
AcDbCircle
 10
-89.96524184
 20
-142.67238984
 30
0.0
 40
0.30857129
100
AcDbArc
 50
257.38751638
 51
12.61251432
  0
LWPOLYLINE
  5
353
100
AcDbEntity
  8
MST_1_1
 62
   137
  6
CONTINUOUS
100
AcDbPolyline
 90
        9
 70
     0
 43
0.0
 10
-89.49608291
 20
-143.02517924
 10
-89.45882522
 20
-143.06243693
 10
-89.42156247
 20
-143.09969968
 10
-89.38429653
 20
-143.13696575
 10
-89.34702872
 20
-143.17423342
 10
-89.30976105
 20
-143.21150123
 10
-89.27249498
 20
-143.24876717
 10
-89.23523223
 20
-143.28602992
 10
-89.19797454
 20
-143.32328761
  0
ARC
  5
354
100
AcDbEntity
  8
MST_1_1
 62
   137
  6
CONTINUOUS
100
AcDbCircle
 10
-89.4052136
 20
-143.2324183
 30
0.0
 40
0.22628579
100
AcDbArc
 50
336.32372311
 51
113.6762869
  0
LWPOLYLINE
  5
355
100
AcDbEntity
  8
MST_1_1
 62
   137
  6
CONTINUOUS
100
AcDbPolyline
 90
        9
 70
     0
 43
0.0
 10
-89.31434409
 20
-143.43965716
 10
-89.35160178
 20
-143.4023996
 10
-89.3888644
 20
-143.36513686
 10
-89.42613047
 20
-143.32787078
 10
-89.46339828
 20
-143.29060298
 10
-89.50066608
 20
-143.25333517
 10
-89.53793216
 20
-143.2160691
 10
-89.57519491
 20
-143.17880648
 10
-89.61245246
 20
-143.14154879
  0
ARC
  5
356
100
AcDbEntity
  8
MST_1_1
 62
   137
  6
CONTINUOUS
100
AcDbCircle
 10
-89.40521346
 20
-143.23241816
 30
0.0
 40
0.22628576
100
AcDbArc
 50
156.32369345
 51
293.67631657
  0
CIRCLE
  5
357
100
AcDbEntity
  8
MST_1_1
 62
   137
  6
CONTINUOUS
100
AcDbCircle
 10
-87.62734505
 20
-171.45454975
 30
0.0
 40
2.16489752
  0
CIRCLE
  5
358
100
AcDbEntity
  8
MST_1_1
 62
   137
  6
CONTINUOUS
100
AcDbCircle
 10
-87.62734505
 20
-171.45454975
 30
0.0
 40
1.21199358
  0
CIRCLE
  5
359
100
AcDbEntity
  8
MST_1_1
 62
   137
  6
CONTINUOUS
100
AcDbCircle
 10
-87.62734505
 20
-171.45454975
 30
0.0
 40
2.16489752
  0
CIRCLE
  5
35A
100
AcDbEntity
  8
MST_1_1
 62
   137
  6
CONTINUOUS
100
AcDbCircle
 10
-87.62734505
 20
-171.45454975
 30
0.0
 40
1.21199358
  0
CIRCLE
  5
35B
100
AcDbEntity
  8
MST_1_1
 62
   137
  6
CONTINUOUS
100
AcDbCircle
 10
-87.62734505
 20
-171.45454975
 30
0.0
 40
2.16489752
  0
CIRCLE
  5
35C
100
AcDbEntity
  8
MST_1_1
 62
   137
  6
CONTINUOUS
100
AcDbCircle
 10
-87.62734505
 20
-171.45454975
 30
0.0
 40
1.21199358
  0
CIRCLE
  5
35D
100
AcDbEntity
  8
MST_1_1
 62
   137
  6
CONTINUOUS
100
AcDbCircle
 10
-87.62734505
 20
-171.45454975
 30
0.0
 40
1.82204038
  0
CIRCLE
  5
35E
100
AcDbEntity
  8
MST_1_1
 62
   137
  6
CONTINUOUS
100
AcDbCircle
 10
-87.62734505
 20
-171.45454975
 30
0.0
 40
2.27918323
  0
CIRCLE
  5
35F
100
AcDbEntity
  8
MST_1_1
 62
   137
  6
CONTINUOUS
100
AcDbCircle
 10
-87.62734505
 20
-171.45454975
 30
0.0
 40
1.28571429
  0
CIRCLE
  5
360
100
AcDbEntity
  8
MST_1_1
 62
   137
  6
CONTINUOUS
100
AcDbCircle
 10
-87.62734505
 20
-171.45454975
 30
0.0
 40
4.0
  0
ARC
  5
361
100
AcDbEntity
  8
MST_1_1
 62
   137
  6
CONTINUOUS
100
AcDbCircle
 10
-89.19534503
 20
-171.45454975
 30
0.0
 40
0.34628572
100
AcDbArc
 50
104.00039951
 51
255.99961051
  0
ARC
  5
362
100
AcDbEntity
  8
MST_1_1
 62
   137
  6
CONTINUOUS
100
AcDbCircle
 10
-89.45902226
 20
-172.5120691
 30
0.0
 40
0.74361009
100
AcDbArc
 50
344.00042282
 51
75.99958535
  0
ARC
  5
363
100
AcDbEntity
  8
MST_1_1
 62
   137
  6
CONTINUOUS
100
AcDbCircle
 10
-88.41134502
 20
-172.81247757
 30
0.0
 40
0.3462857
100
AcDbArc
 50
164.00040911
 51
315.99959504
  0
ARC
  5
364
100
AcDbEntity
  8
MST_1_1
 62
   137
  6
CONTINUOUS
100
AcDbCircle
 10
-87.62734505
 20
-173.56958832
 30
0.0
 40
0.74361
100
AcDbArc
 50
44.00040429
 51
135.99959571
  0
ARC
  5
365
100
AcDbEntity
  8
MST_1_1
 62
   137
  6
CONTINUOUS
100
AcDbCircle
 10
-86.84334505
 20
-172.81247763
 30
0.0
 40
0.34628569
100
AcDbArc
 50
224.00041508
 51
15.9996008
  0
ARC
  5
366
100
AcDbEntity
  8
MST_1_1
 62
   137
  6
CONTINUOUS
100
AcDbCircle
 10
-86.05934507
 20
-171.45454975
 30
0.0
 40
0.34628572
100
AcDbArc
 50
284.00040953
 51
75.99960049
  0
ARC
  5
367
100
AcDbEntity
  8
MST_1_1
 62
   137
  6
CONTINUOUS
100
AcDbCircle
 10
-85.79566784
 20
-170.39703039
 30
0.0
 40
0.74361009
100
AcDbArc
 50
164.00041281
 51
255.99959537
  0
ARC
  5
368
100
AcDbEntity
  8
MST_1_1
 62
   137
  6
CONTINUOUS
100
AcDbCircle
 10
-86.84334508
 20
-170.09662192
 30
0.0
 40
0.3462857
100
AcDbArc
 50
344.00041913
 51
135.99958502
  0
ARC
  5
369
100
AcDbEntity
  8
MST_1_1
 62
   137
  6
CONTINUOUS
100
AcDbCircle
 10
-87.62734505
 20
-169.33951117
 30
0.0
 40
0.74361
100
AcDbArc
 50
224.00041431
 51
315.99960573
  0
ARC
  5
36A
100
AcDbEntity
  8
MST_1_1
 62
   137
  6
CONTINUOUS
100
AcDbCircle
 10
-88.41134505
 20
-170.09662187
 30
0.0
 40
0.34628569
100
AcDbArc
 50
44.00040506
 51
195.99961082
  0
ARC
  5
36B
100
AcDbEntity
  8
MST_1_1
 62
   137
  6
CONTINUOUS
100
AcDbCircle
 10
-89.45902225
 20
-170.39703039
 30
0.0
 40
0.74361009
100
AcDbArc
 50
284.00042461
 51
15.99958726
  0
LWPOLYLINE
  5
36C
100
AcDbEntity
  8
MST_1_1
 62
   137
  6
CONTINUOUS
100
AcDbPolyline
 90
        9
 70
     0
 43
0.0
 10
-89.10216779
 20
-174.02033732
 10
-89.09180669
 20
-174.00997622
 10
-89.08143828
 20
-173.99960768
 10
-89.07106268
 20
-173.98923221
 10
-89.06067976
 20
-173.97884929
 10
-89.05028979
 20
-173.96845919
 10
-89.03989251
 20
-173.95806191
 10
-89.02948817
 20
-173.94765771
 10
-89.01907678
 20
-173.93724632
  0
ARC
  5
36D
100
AcDbEntity
  8
MST_1_1
 62
   137
  6
CONTINUOUS
100
AcDbCircle
 10
-88.84518498
 20
-173.79244689
 30
0.0
 40
0.22628574
100
AcDbArc
 50
50.21591721
 51
219.78410477
  0
LWPOLYLINE
  5
36E
100
AcDbEntity
  8
MST_1_1
 62
   137
  6
CONTINUOUS
100
AcDbPolyline
 90
        9
 70
     0
 43
0.0
 10
-88.70038558
 20
-173.61855505
 10
-88.69001843
 20
-173.60818783
 10
-88.67964576
 20
-173.59781516
 10
-88.66926757
 20
-173.58743703
 10
-88.65888379
 20
-173.57705332
 10
-88.64849462
 20
-173.56666402
 10
-88.63809999
 20
-173.55626939
 10
-88.62769991
 20
-173.54586945
 10
-88.61729451
 20
-173.53546405
  0
LWPOLYLINE
  5
36F
100
AcDbEntity
  8
MST_1_1
 62
   137
  6
CONTINUOUS
100
AcDbPolyline
 90
        9
 70
     0
 43
0.0
 10
-88.61729451
 20
-173.53546405
 10
-88.67940821
 20
-173.47335029
 10
-88.74158151
 20
-173.41117705
 10
-88.80380689
 20
-173.34895167
 10
-88.86607645
 20
-173.28668211
 10
-88.92838273
 20
-173.22437583
 10
-88.99071788
 20
-173.16204068
 10
-89.05307432
 20
-173.09968424
 10
-89.11544419
 20
-173.03731437
  0
LWPOLYLINE
  5
370
100
AcDbEntity
  8
MST_1_1
 62
   137
  6
CONTINUOUS
100
AcDbPolyline
 90
        9
 70
     0
 43
0.0
 10
-89.11544419
 20
-173.03731437
 10
-89.11912651
 20
-173.04099655
 10
-89.12280802
 20
-173.0446782
 10
-89.12648901
 20
-173.04835906
 10
-89.13016933
 20
-173.05203938
 10
-89.13384885
 20
-173.05571903
 10
-89.13752784
 20
-173.05939789
 10
-89.14120604
 20
-173.06307621
 10
-89.1448837
 20
-173.06675374
  0
LWPOLYLINE
  5
371
100
AcDbEntity
  8
MST_1_1
 62
   137
  6
CONTINUOUS
100
AcDbPolyline
 90
       25
 70
     0
 43
0.0
 10
-89.1448837
 20
-173.06675379
 10
-89.14796064
 20
-173.06201436
 10
-89.15111925
 20
-173.05733781
 10
-89.15435868
 20
-173.05272499
 10
-89.15767808
 20
-173.04817675
 10
-89.1610766
 20
-173.04369394
 10
-89.16455338
 20
-173.03927742
 10
-89.16810758
 20
-173.03492804
 10
-89.17173834
 20
-173.03064666
 10
-89.17544482
 20
-173.02643413
 10
-89.17922616
 20
-173.0222913
 10
-89.18308152
 20
-173.01821902
 10
-89.18701003
 20
-173.01421816
 10
-89.19101086
 20
-173.01028956
 10
-89.19508315
 20
-173.00643407
 10
-89.19922604
 20
-173.00265255
 10
-89.20343869
 20
-172.99894586
 10
-89.20772025
 20
-172.99531485
 10
-89.21206987
 20
-172.99176036
 10
-89.21648669
 20
-172.98828326
 10
-89.22096987
 20
-172.9848844
 10
-89.22551854
 20
-172.98156463
 10
-89.23013187
 20
-172.9783248
 10
-89.23480901
 20
-172.97516577
 10
-89.23954909
 20
-172.9720884
  0
LWPOLYLINE
  5
372
100
AcDbEntity
  8
MST_1_1
 62
   137
  6
CONTINUOUS
100
AcDbPolyline
 90
        9
 70
     0
 43
0.0
 10
-89.23954904
 20
-172.97208839
 10
-89.23587152
 20
-172.96841073
 10
-89.23219319
 20
-172.96473254
 10
-89.22851433
 20
-172.96105355
 10
-89.22483468
 20
-172.95737403
 10
-89.22115436
 20
-172.95369371
 10
-89.21747351
 20
-172.95001272
 10
-89.21379185
 20
-172.9463312
 10
-89.21010967
 20
-172.94264889
  0
LWPOLYLINE
  5
373
100
AcDbEntity
  8
MST_1_1
 62
   137
  6
CONTINUOUS
100
AcDbPolyline
 90
        9
 70
     0
 43
0.0
 10
-89.21010967
 20
-172.94264889
 10
-89.27247955
 20
-172.88027901
 10
-89.33483598
 20
-172.81792258
 10
-89.39717113
 20
-172.75558743
 10
-89.45947741
 20
-172.69328115
 10
-89.52174697
 20
-172.63101159
 10
-89.58397235
 20
-172.5687862
 10
-89.64614559
 20
-172.50661291
 10
-89.70825935
 20
-172.44449921
  0
LWPOLYLINE
  5
374
100
AcDbEntity
  8
MST_1_1
 62
   137
  6
CONTINUOUS
100
AcDbPolyline
 90
        9
 70
     0
 43
0.0
 10
-89.70825935
 20
-172.44449921
 10
-89.71866475
 20
-172.45490461
 10
-89.72906469
 20
-172.46530469
 10
-89.73945932
 20
-172.47569932
 10
-89.74984862
 20
-172.48608849
 10
-89.76023234
 20
-172.49647227
 10
-89.77061046
 20
-172.50685046
 10
-89.78098313
 20
-172.51722313
 10
-89.79135035
 20
-172.52759028
  0
ARC
  5
375
100
AcDbEntity
  8
MST_1_1
 62
   137
  6
CONTINUOUS
100
AcDbCircle
 10
-89.9652422
 20
-172.67238966
 30
0.0
 40
0.22628574
100
AcDbArc
 50
230.21591956
 51
39.7840785
  0
LWPOLYLINE
  5
376
100
AcDbEntity
  8
MST_1_1
 62
   137
  6
CONTINUOUS
100
AcDbPolyline
 90
        9
 70
     0
 43
0.0
 10
-90.11004162
 20
-172.84628148
 10
-90.12045301
 20
-172.85669287
 10
-90.13085721
 20
-172.86709721
 10
-90.1412545
 20
-172.87749449
 10
-90.1516446
 20
-172.88788446
 10
-90.16202751
 20
-172.89826738
 10
-90.17240298
 20
-172.90864298
 10
-90.18277153
 20
-172.91901139
 10
-90.19313262
 20
-172.92937249
  0
LWPOLYLINE
  5
377
100
AcDbEntity
  8
MST_1_1
 62
   137
  6
CONTINUOUS
100
AcDbPolyline
 90
        9
 70
     0
 43
0.0
 10
-90.19313262
 20
-172.92937249
 10
-90.13102778
 20
-172.99147707
 10
-90.06886013
 20
-173.05364484
 10
-90.00663741
 20
-173.1158677
 10
-89.94436758
 20
-173.17813739
 10
-89.88205917
 20
-173.2404458
 10
-89.81972017
 20
-173.30278481
 10
-89.75735867
 20
-173.3651463
 10
-89.69498281
 20
-173.42752216
  0
LWPOLYLINE
  5
378
100
AcDbEntity
  8
MST_1_1
 62
   137
  6
CONTINUOUS
100
AcDbPolyline
 90
        9
 70
     0
 43
0.0
 10
-89.69498281
 20
-173.42752216
 10
-89.69130608
 20
-173.42384543
 10
-89.68762842
 20
-173.42016777
 10
-89.68394983
 20
-173.41648918
 10
-89.68027031
 20
-173.41280966
 10
-89.67658999
 20
-173.40912934
 10
-89.67290874
 20
-173.40544796
 10
-89.66922642
 20
-173.40176577
 10
-89.66554331
 20
-173.39808266
  0
LWPOLYLINE
  5
379
100
AcDbEntity
  8
MST_1_1
 62
   137
  6
CONTINUOUS
100
AcDbPolyline
 90
       25
 70
     0
 43
0.0
 10
-89.66554336
 20
-173.39808266
 10
-89.66246665
 20
-173.40282171
 10
-89.6593082
 20
-173.40749796
 10
-89.65606886
 20
-173.41211057
 10
-89.6527495
 20
-173.41665867
 10
-89.64935097
 20
-173.42114139
 10
-89.64587413
 20
-173.42555789
 10
-89.64231984
 20
-173.42990729
 10
-89.63868895
 20
-173.43418874
 10
-89.63498232
 20
-173.43840138
 10
-89.63120082
 20
-173.44254434
 10
-89.62734529
 20
-173.44661677
 10
-89.6234166
 20
-173.4506178
 10
-89.61941561
 20
-173.45454658
 10
-89.61534317
 20
-173.45840224
 10
-89.61120014
 20
-173.46218392
 10
-89.60698738
 20
-173.46589076
 10
-89.60270575
 20
-173.46952191
 10
-89.59835611
 20
-173.47307649
 10
-89.5939393
 20
-173.47655366
 10
-89.5894562
 20
-173.47995254
 10
-89.58490766
 20
-173.48327229
 10
-89.58029453
 20
-173.48651203
 10
-89.57561768
 20
-173.4896709
 10
-89.57087797
 20
-173.49274806
  0
LWPOLYLINE
  5
37A
100
AcDbEntity
  8
MST_1_1
 62
   137
  6
CONTINUOUS
100
AcDbPolyline
 90
        9
 70
     0
 43
0.0
 10
-89.57087796
 20
-173.492748
 10
-89.57456107
 20
-173.49643112
 10
-89.57824326
 20
-173.50011344
 10
-89.58192464
 20
-173.50379469
 10
-89.58560496
 20
-173.50747501
 10
-89.58928449
 20
-173.51115453
 10
-89.59296308
 20
-173.51483312
 10
-89.59664074
 20
-173.51851078
 10
-89.60031746
 20
-173.52218751
  0
LWPOLYLINE
  5
37B
100
AcDbEntity
  8
MST_1_1
 62
   137
  6
CONTINUOUS
100
AcDbPolyline
 90
        9
 70
     0
 43
0.0
 10
-89.60031746
 20
-173.52218751
 10
-89.5379416
 20
-173.58456337
 10
-89.47558011
 20
-173.64692486
 10
-89.4132411
 20
-173.70926387
 10
-89.3509327
 20
-173.77157228
 10
-89.288663
 20
-173.8338421
 10
-89.22644015
 20
-173.89606483
 10
-89.16427237
 20
-173.95823247
 10
-89.10216779
 20
-174.02033732
  0
CIRCLE
  5
37C
100
AcDbEntity
  8
MST_1_1
 62
   137
  6
CONTINUOUS
100
AcDbCircle
 10
-87.62734505
 20
-171.45454975
 30
0.0
 40
3.75223156
  0
ARC
  5
37D
100
AcDbEntity
  8
MST_1_1
 62
   137
  6
CONTINUOUS
100
AcDbCircle
 10
-85.79566784
 20
-172.5120691
 30
0.0
 40
0.74361009
100
AcDbArc
 50
104.00041459
 51
195.99959727
  0
LWPOLYLINE
  5
37E
100
AcDbEntity
  8
MST_1_1
 62
   137
  6
CONTINUOUS
100
AcDbPolyline
 90
        9
 70
     0
 43
0.0
 10
-89.33783524
 20
-172.93129287
 10
-89.37866509
 20
-172.89046303
 10
-89.41948642
 20
-172.84964169
 10
-89.46029724
 20
-172.80883087
 10
-89.50109529
 20
-172.76803282
 10
-89.54187844
 20
-172.72724968
 10
-89.58264442
 20
-172.68648356
 10
-89.62339125
 20
-172.64573673
 10
-89.66411665
 20
-172.60501133
  0
ARC
  5
37F
100
AcDbEntity
  8
MST_1_1
 62
   137
  6
CONTINUOUS
100
AcDbCircle
 10
-89.40521366
 20
-173.23241748
 30
0.0
 40
0.3085707
100
AcDbArc
 50
77.38747914
 51
127.33780242
  0
LINE
  5
380
100
AcDbEntity
  8
MST_1_1
 62
   137
  6
CONTINUOUS
100
AcDbLine
 10
-89.15987639
 20
-173.41957053
 30
0.0
 11
-89.59236583
 21
-172.98708109
 31
0.0
  0
ARC
  5
381
100
AcDbEntity
  8
MST_1_1
 62
   137
  6
CONTINUOUS
100
AcDbCircle
 10
-89.40521292
 20
-173.23241833
 30
0.0
 40
0.30857083
100
AcDbArc
 50
322.66221884
 51
12.61250962
  0
LWPOLYLINE
  5
382
100
AcDbEntity
  8
MST_1_1
 62
   137
  6
CONTINUOUS
100
AcDbPolyline
 90
        9
 70
     0
 43
0.0
 10
-88.77780663
 20
-173.49132135
 10
-88.81853203
 20
-173.45059595
 10
-88.85927886
 20
-173.40984912
 10
-88.90004498
 20
-173.36908314
 10
-88.94082813
 20
-173.32829999
 10
-88.98162617
 20
-173.28750194
 10
-89.022437
 20
-173.24669112
 10
-89.06325833
 20
-173.20586979
 10
-89.10408817
 20
-173.16503994
  0
ARC
  5
383
100
AcDbEntity
  8
MST_1_1
 62
   137
  6
CONTINUOUS
100
AcDbCircle
 10
-88.84518485
 20
-173.79244683
 30
0.0
 40
0.30857151
100
AcDbArc
 50
77.38755048
 51
192.61243885
  0
LWPOLYLINE
  5
384
100
AcDbEntity
  8
MST_1_1
 62
   137
  6
CONTINUOUS
100
AcDbPolyline
 90
        9
 70
     0
 43
0.0
 10
-89.47259176
 20
-173.53354366
 10
-89.43176005
 20
-173.57437537
 10
-89.39093712
 20
-173.6151983
 10
-89.35012524
 20
-173.65601018
 10
-89.30932652
 20
-173.6968089
 10
-89.26854351
 20
-173.73759178
 10
-89.22777832
 20
-173.7783571
 10
-89.18703309
 20
-173.81910219
 10
-89.14631035
 20
-173.85982494
  0
ARC
  5
385
100
AcDbEntity
  8
MST_1_1
 62
   137
  6
CONTINUOUS
100
AcDbCircle
 10
-89.40521374
 20
-173.23241727
 30
0.0
 40
0.30857236
100
AcDbArc
 50
257.38763285
 51
307.33766874
  0
LWPOLYLINE
  5
386
100
AcDbEntity
  8
MST_1_1
 62
   137
  6
CONTINUOUS
100
AcDbPolyline
 90
        9
 70
     0
 43
0.0
 10
-89.65055074
 20
-173.04526587
 10
-89.59650756
 20
-173.09930892
 10
-89.54244894
 20
-173.15336754
 10
-89.48838007
 20
-173.20743654
 10
-89.43430589
 20
-173.26151059
 10
-89.38023184
 20
-173.31558477
 10
-89.32616284
 20
-173.36965364
 10
-89.27210422
 20
-173.42371226
 10
-89.21806117
 20
-173.47775544
  0
ARC
  5
387
100
AcDbEntity
  8
MST_1_1
 62
   137
  6
CONTINUOUS
100
AcDbCircle
 10
-89.40521342
 20
-173.23241825
 30
0.0
 40
0.30857157
100
AcDbArc
 50
142.662273
 51
192.61245546
  0
LWPOLYLINE
  5
388
100
AcDbEntity
  8
MST_1_1
 62
   137
  6
CONTINUOUS
100
AcDbPolyline
 90
        9
 70
     0
 43
0.0
 10
-90.03262024
 20
-172.97351505
 10
-89.9918975
 20
-173.01423779
 10
-89.9511524
 20
-173.05498302
 10
-89.91038708
 20
-173.09574821
 10
-89.8696042
 20
-173.13653122
 10
-89.82880548
 20
-173.17732994
 10
-89.7879936
 20
-173.21814182
 10
-89.74717067
 20
-173.25896475
 10
-89.70633896
 20
-173.29979646
  0
ARC
  5
389
100
AcDbEntity
  8
MST_1_1
 62
   137
  6
CONTINUOUS
100
AcDbCircle
 10
-89.96524184
 20
-172.67238984
 30
0.0
 40
0.30857129
100
AcDbArc
 50
257.38751638
 51
12.61251432
  0
LWPOLYLINE
  5
38A
100
AcDbEntity
  8
MST_1_1
 62
   137
  6
CONTINUOUS
100
AcDbPolyline
 90
        9
 70
     0
 43
0.0
 10
-89.49608291
 20
-173.02517924
 10
-89.45882522
 20
-173.06243693
 10
-89.42156247
 20
-173.09969968
 10
-89.38429653
 20
-173.13696575
 10
-89.34702872
 20
-173.17423342
 10
-89.30976105
 20
-173.21150123
 10
-89.27249498
 20
-173.24876717
 10
-89.23523223
 20
-173.28602992
 10
-89.19797454
 20
-173.32328761
  0
ARC
  5
38B
100
AcDbEntity
  8
MST_1_1
 62
   137
  6
CONTINUOUS
100
AcDbCircle
 10
-89.4052136
 20
-173.2324183
 30
0.0
 40
0.22628579
100
AcDbArc
 50
336.32372311
 51
113.6762869
  0
LWPOLYLINE
  5
38C
100
AcDbEntity
  8
MST_1_1
 62
   137
  6
CONTINUOUS
100
AcDbPolyline
 90
        9
 70
     0
 43
0.0
 10
-89.31434409
 20
-173.43965716
 10
-89.35160178
 20
-173.4023996
 10
-89.3888644
 20
-173.36513686
 10
-89.42613047
 20
-173.32787078
 10
-89.46339828
 20
-173.29060298
 10
-89.50066608
 20
-173.25333517
 10
-89.53793216
 20
-173.2160691
 10
-89.57519491
 20
-173.17880648
 10
-89.61245246
 20
-173.14154879
  0
ARC
  5
38D
100
AcDbEntity
  8
MST_1_1
 62
   137
  6
CONTINUOUS
100
AcDbCircle
 10
-89.40521346
 20
-173.23241816
 30
0.0
 40
0.22628576
100
AcDbArc
 50
156.32369345
 51
293.67631657
  0
CIRCLE
  5
38E
100
AcDbEntity
  8
MST_1_1
 62
   137
  6
CONTINUOUS
100
AcDbCircle
 10
-87.62734505
 20
-201.45454975
 30
0.0
 40
2.16489752
  0
CIRCLE
  5
38F
100
AcDbEntity
  8
MST_1_1
 62
   137
  6
CONTINUOUS
100
AcDbCircle
 10
-87.62734505
 20
-201.45454975
 30
0.0
 40
1.21199358
  0
CIRCLE
  5
390
100
AcDbEntity
  8
MST_1_1
 62
   137
  6
CONTINUOUS
100
AcDbCircle
 10
-87.62734505
 20
-201.45454975
 30
0.0
 40
2.16489752
  0
CIRCLE
  5
391
100
AcDbEntity
  8
MST_1_1
 62
   137
  6
CONTINUOUS
100
AcDbCircle
 10
-87.62734505
 20
-201.45454975
 30
0.0
 40
1.21199358
  0
CIRCLE
  5
392
100
AcDbEntity
  8
MST_1_1
 62
   137
  6
CONTINUOUS
100
AcDbCircle
 10
-87.62734505
 20
-201.45454975
 30
0.0
 40
2.16489752
  0
CIRCLE
  5
393
100
AcDbEntity
  8
MST_1_1
 62
   137
  6
CONTINUOUS
100
AcDbCircle
 10
-87.62734505
 20
-201.45454975
 30
0.0
 40
1.21199358
  0
CIRCLE
  5
394
100
AcDbEntity
  8
MST_1_1
 62
   137
  6
CONTINUOUS
100
AcDbCircle
 10
-87.62734505
 20
-201.45454975
 30
0.0
 40
1.82204038
  0
CIRCLE
  5
395
100
AcDbEntity
  8
MST_1_1
 62
   137
  6
CONTINUOUS
100
AcDbCircle
 10
-87.62734505
 20
-201.45454975
 30
0.0
 40
2.27918323
  0
CIRCLE
  5
396
100
AcDbEntity
  8
MST_1_1
 62
   137
  6
CONTINUOUS
100
AcDbCircle
 10
-87.62734505
 20
-201.45454975
 30
0.0
 40
1.28571429
  0
CIRCLE
  5
397
100
AcDbEntity
  8
MST_1_1
 62
   137
  6
CONTINUOUS
100
AcDbCircle
 10
-87.62734505
 20
-201.45454975
 30
0.0
 40
4.0
  0
ARC
  5
398
100
AcDbEntity
  8
MST_1_1
 62
   137
  6
CONTINUOUS
100
AcDbCircle
 10
-89.19534503
 20
-201.45454975
 30
0.0
 40
0.34628572
100
AcDbArc
 50
104.00039951
 51
255.99961051
  0
ARC
  5
399
100
AcDbEntity
  8
MST_1_1
 62
   137
  6
CONTINUOUS
100
AcDbCircle
 10
-89.45902226
 20
-202.5120691
 30
0.0
 40
0.74361009
100
AcDbArc
 50
344.00042282
 51
75.99958535
  0
ARC
  5
39A
100
AcDbEntity
  8
MST_1_1
 62
   137
  6
CONTINUOUS
100
AcDbCircle
 10
-88.41134502
 20
-202.81247757
 30
0.0
 40
0.3462857
100
AcDbArc
 50
164.00040911
 51
315.99959504
  0
ARC
  5
39B
100
AcDbEntity
  8
MST_1_1
 62
   137
  6
CONTINUOUS
100
AcDbCircle
 10
-87.62734505
 20
-203.56958832
 30
0.0
 40
0.74361
100
AcDbArc
 50
44.00040429
 51
135.99959571
  0
ARC
  5
39C
100
AcDbEntity
  8
MST_1_1
 62
   137
  6
CONTINUOUS
100
AcDbCircle
 10
-86.84334505
 20
-202.81247763
 30
0.0
 40
0.34628569
100
AcDbArc
 50
224.00041508
 51
15.9996008
  0
ARC
  5
39D
100
AcDbEntity
  8
MST_1_1
 62
   137
  6
CONTINUOUS
100
AcDbCircle
 10
-86.05934507
 20
-201.45454975
 30
0.0
 40
0.34628572
100
AcDbArc
 50
284.00040953
 51
75.99960049
  0
ARC
  5
39E
100
AcDbEntity
  8
MST_1_1
 62
   137
  6
CONTINUOUS
100
AcDbCircle
 10
-85.79566784
 20
-200.39703039
 30
0.0
 40
0.74361009
100
AcDbArc
 50
164.00041281
 51
255.99959537
  0
ARC
  5
39F
100
AcDbEntity
  8
MST_1_1
 62
   137
  6
CONTINUOUS
100
AcDbCircle
 10
-86.84334508
 20
-200.09662192
 30
0.0
 40
0.3462857
100
AcDbArc
 50
344.00041913
 51
135.99958502
  0
ARC
  5
3A0
100
AcDbEntity
  8
MST_1_1
 62
   137
  6
CONTINUOUS
100
AcDbCircle
 10
-87.62734505
 20
-199.33951117
 30
0.0
 40
0.74361
100
AcDbArc
 50
224.00041431
 51
315.99960573
  0
ARC
  5
3A1
100
AcDbEntity
  8
MST_1_1
 62
   137
  6
CONTINUOUS
100
AcDbCircle
 10
-88.41134505
 20
-200.09662187
 30
0.0
 40
0.34628569
100
AcDbArc
 50
44.00040506
 51
195.99961082
  0
ARC
  5
3A2
100
AcDbEntity
  8
MST_1_1
 62
   137
  6
CONTINUOUS
100
AcDbCircle
 10
-89.45902225
 20
-200.39703039
 30
0.0
 40
0.74361009
100
AcDbArc
 50
284.00042461
 51
15.99958726
  0
LWPOLYLINE
  5
3A3
100
AcDbEntity
  8
MST_1_1
 62
   137
  6
CONTINUOUS
100
AcDbPolyline
 90
        9
 70
     0
 43
0.0
 10
-89.10216779
 20
-204.02033732
 10
-89.09180669
 20
-204.00997622
 10
-89.08143828
 20
-203.99960768
 10
-89.07106268
 20
-203.98923221
 10
-89.06067976
 20
-203.97884929
 10
-89.05028979
 20
-203.96845919
 10
-89.03989251
 20
-203.95806191
 10
-89.02948817
 20
-203.94765771
 10
-89.01907678
 20
-203.93724632
  0
ARC
  5
3A4
100
AcDbEntity
  8
MST_1_1
 62
   137
  6
CONTINUOUS
100
AcDbCircle
 10
-88.84518498
 20
-203.79244689
 30
0.0
 40
0.22628574
100
AcDbArc
 50
50.21591721
 51
219.78410477
  0
LWPOLYLINE
  5
3A5
100
AcDbEntity
  8
MST_1_1
 62
   137
  6
CONTINUOUS
100
AcDbPolyline
 90
        9
 70
     0
 43
0.0
 10
-88.70038558
 20
-203.61855505
 10
-88.69001843
 20
-203.60818783
 10
-88.67964576
 20
-203.59781516
 10
-88.66926757
 20
-203.58743703
 10
-88.65888379
 20
-203.57705332
 10
-88.64849462
 20
-203.56666402
 10
-88.63809999
 20
-203.55626939
 10
-88.62769991
 20
-203.54586945
 10
-88.61729451
 20
-203.53546405
  0
LWPOLYLINE
  5
3A6
100
AcDbEntity
  8
MST_1_1
 62
   137
  6
CONTINUOUS
100
AcDbPolyline
 90
        9
 70
     0
 43
0.0
 10
-88.61729451
 20
-203.53546405
 10
-88.67940821
 20
-203.47335029
 10
-88.74158151
 20
-203.41117705
 10
-88.80380689
 20
-203.34895167
 10
-88.86607645
 20
-203.28668211
 10
-88.92838273
 20
-203.22437583
 10
-88.99071788
 20
-203.16204068
 10
-89.05307432
 20
-203.09968424
 10
-89.11544419
 20
-203.03731437
  0
LWPOLYLINE
  5
3A7
100
AcDbEntity
  8
MST_1_1
 62
   137
  6
CONTINUOUS
100
AcDbPolyline
 90
        9
 70
     0
 43
0.0
 10
-89.11544419
 20
-203.03731437
 10
-89.11912651
 20
-203.04099655
 10
-89.12280802
 20
-203.0446782
 10
-89.12648901
 20
-203.04835906
 10
-89.13016933
 20
-203.05203938
 10
-89.13384885
 20
-203.05571903
 10
-89.13752784
 20
-203.05939789
 10
-89.14120604
 20
-203.06307621
 10
-89.1448837
 20
-203.06675374
  0
LWPOLYLINE
  5
3A8
100
AcDbEntity
  8
MST_1_1
 62
   137
  6
CONTINUOUS
100
AcDbPolyline
 90
       25
 70
     0
 43
0.0
 10
-89.1448837
 20
-203.06675379
 10
-89.14796064
 20
-203.06201436
 10
-89.15111925
 20
-203.05733781
 10
-89.15435868
 20
-203.05272499
 10
-89.15767808
 20
-203.04817675
 10
-89.1610766
 20
-203.04369394
 10
-89.16455338
 20
-203.03927742
 10
-89.16810758
 20
-203.03492804
 10
-89.17173834
 20
-203.03064666
 10
-89.17544482
 20
-203.02643413
 10
-89.17922616
 20
-203.0222913
 10
-89.18308152
 20
-203.01821902
 10
-89.18701003
 20
-203.01421816
 10
-89.19101086
 20
-203.01028956
 10
-89.19508315
 20
-203.00643407
 10
-89.19922604
 20
-203.00265255
 10
-89.20343869
 20
-202.99894586
 10
-89.20772025
 20
-202.99531485
 10
-89.21206987
 20
-202.99176036
 10
-89.21648669
 20
-202.98828326
 10
-89.22096987
 20
-202.9848844
 10
-89.22551854
 20
-202.98156463
 10
-89.23013187
 20
-202.9783248
 10
-89.23480901
 20
-202.97516577
 10
-89.23954909
 20
-202.9720884
  0
LWPOLYLINE
  5
3A9
100
AcDbEntity
  8
MST_1_1
 62
   137
  6
CONTINUOUS
100
AcDbPolyline
 90
        9
 70
     0
 43
0.0
 10
-89.23954904
 20
-202.97208839
 10
-89.23587152
 20
-202.96841073
 10
-89.23219319
 20
-202.96473254
 10
-89.22851433
 20
-202.96105355
 10
-89.22483468
 20
-202.95737403
 10
-89.22115436
 20
-202.95369371
 10
-89.21747351
 20
-202.95001272
 10
-89.21379185
 20
-202.9463312
 10
-89.21010967
 20
-202.94264889
  0
LWPOLYLINE
  5
3AA
100
AcDbEntity
  8
MST_1_1
 62
   137
  6
CONTINUOUS
100
AcDbPolyline
 90
        9
 70
     0
 43
0.0
 10
-89.21010967
 20
-202.94264889
 10
-89.27247955
 20
-202.88027901
 10
-89.33483598
 20
-202.81792258
 10
-89.39717113
 20
-202.75558743
 10
-89.45947741
 20
-202.69328115
 10
-89.52174697
 20
-202.63101159
 10
-89.58397235
 20
-202.5687862
 10
-89.64614559
 20
-202.50661291
 10
-89.70825935
 20
-202.44449921
  0
LWPOLYLINE
  5
3AB
100
AcDbEntity
  8
MST_1_1
 62
   137
  6
CONTINUOUS
100
AcDbPolyline
 90
        9
 70
     0
 43
0.0
 10
-89.70825935
 20
-202.44449921
 10
-89.71866475
 20
-202.45490461
 10
-89.72906469
 20
-202.46530469
 10
-89.73945932
 20
-202.47569932
 10
-89.74984862
 20
-202.48608849
 10
-89.76023234
 20
-202.49647227
 10
-89.77061046
 20
-202.50685046
 10
-89.78098313
 20
-202.51722313
 10
-89.79135035
 20
-202.52759028
  0
ARC
  5
3AC
100
AcDbEntity
  8
MST_1_1
 62
   137
  6
CONTINUOUS
100
AcDbCircle
 10
-89.9652422
 20
-202.67238966
 30
0.0
 40
0.22628574
100
AcDbArc
 50
230.21591956
 51
39.7840785
  0
LWPOLYLINE
  5
3AD
100
AcDbEntity
  8
MST_1_1
 62
   137
  6
CONTINUOUS
100
AcDbPolyline
 90
        9
 70
     0
 43
0.0
 10
-90.11004162
 20
-202.84628148
 10
-90.12045301
 20
-202.85669287
 10
-90.13085721
 20
-202.86709721
 10
-90.1412545
 20
-202.87749449
 10
-90.1516446
 20
-202.88788446
 10
-90.16202751
 20
-202.89826738
 10
-90.17240298
 20
-202.90864298
 10
-90.18277153
 20
-202.91901139
 10
-90.19313262
 20
-202.92937249
  0
LWPOLYLINE
  5
3AE
100
AcDbEntity
  8
MST_1_1
 62
   137
  6
CONTINUOUS
100
AcDbPolyline
 90
        9
 70
     0
 43
0.0
 10
-90.19313262
 20
-202.92937249
 10
-90.13102778
 20
-202.99147707
 10
-90.06886013
 20
-203.05364484
 10
-90.00663741
 20
-203.1158677
 10
-89.94436758
 20
-203.17813739
 10
-89.88205917
 20
-203.2404458
 10
-89.81972017
 20
-203.30278481
 10
-89.75735867
 20
-203.3651463
 10
-89.69498281
 20
-203.42752216
  0
LWPOLYLINE
  5
3AF
100
AcDbEntity
  8
MST_1_1
 62
   137
  6
CONTINUOUS
100
AcDbPolyline
 90
        9
 70
     0
 43
0.0
 10
-89.69498281
 20
-203.42752216
 10
-89.69130608
 20
-203.42384543
 10
-89.68762842
 20
-203.42016777
 10
-89.68394983
 20
-203.41648918
 10
-89.68027031
 20
-203.41280966
 10
-89.67658999
 20
-203.40912934
 10
-89.67290874
 20
-203.40544796
 10
-89.66922642
 20
-203.40176577
 10
-89.66554331
 20
-203.39808266
  0
LWPOLYLINE
  5
3B0
100
AcDbEntity
  8
MST_1_1
 62
   137
  6
CONTINUOUS
100
AcDbPolyline
 90
       25
 70
     0
 43
0.0
 10
-89.66554336
 20
-203.39808266
 10
-89.66246665
 20
-203.40282171
 10
-89.6593082
 20
-203.40749796
 10
-89.65606886
 20
-203.41211057
 10
-89.6527495
 20
-203.41665867
 10
-89.64935097
 20
-203.42114139
 10
-89.64587413
 20
-203.42555789
 10
-89.64231984
 20
-203.42990729
 10
-89.63868895
 20
-203.43418874
 10
-89.63498232
 20
-203.43840138
 10
-89.63120082
 20
-203.44254434
 10
-89.62734529
 20
-203.44661677
 10
-89.6234166
 20
-203.4506178
 10
-89.61941561
 20
-203.45454658
 10
-89.61534317
 20
-203.45840224
 10
-89.61120014
 20
-203.46218392
 10
-89.60698738
 20
-203.46589076
 10
-89.60270575
 20
-203.46952191
 10
-89.59835611
 20
-203.47307649
 10
-89.5939393
 20
-203.47655366
 10
-89.5894562
 20
-203.47995254
 10
-89.58490766
 20
-203.48327229
 10
-89.58029453
 20
-203.48651203
 10
-89.57561768
 20
-203.4896709
 10
-89.57087797
 20
-203.49274806
  0
LWPOLYLINE
  5
3B1
100
AcDbEntity
  8
MST_1_1
 62
   137
  6
CONTINUOUS
100
AcDbPolyline
 90
        9
 70
     0
 43
0.0
 10
-89.57087796
 20
-203.492748
 10
-89.57456107
 20
-203.49643112
 10
-89.57824326
 20
-203.50011344
 10
-89.58192464
 20
-203.50379469
 10
-89.58560496
 20
-203.50747501
 10
-89.58928449
 20
-203.51115453
 10
-89.59296308
 20
-203.51483312
 10
-89.59664074
 20
-203.51851078
 10
-89.60031746
 20
-203.52218751
  0
LWPOLYLINE
  5
3B2
100
AcDbEntity
  8
MST_1_1
 62
   137
  6
CONTINUOUS
100
AcDbPolyline
 90
        9
 70
     0
 43
0.0
 10
-89.60031746
 20
-203.52218751
 10
-89.5379416
 20
-203.58456337
 10
-89.47558011
 20
-203.64692486
 10
-89.4132411
 20
-203.70926387
 10
-89.3509327
 20
-203.77157228
 10
-89.288663
 20
-203.8338421
 10
-89.22644015
 20
-203.89606483
 10
-89.16427237
 20
-203.95823247
 10
-89.10216779
 20
-204.02033732
  0
CIRCLE
  5
3B3
100
AcDbEntity
  8
MST_1_1
 62
   137
  6
CONTINUOUS
100
AcDbCircle
 10
-87.62734505
 20
-201.45454975
 30
0.0
 40
3.75223156
  0
ARC
  5
3B4
100
AcDbEntity
  8
MST_1_1
 62
   137
  6
CONTINUOUS
100
AcDbCircle
 10
-85.79566784
 20
-202.5120691
 30
0.0
 40
0.74361009
100
AcDbArc
 50
104.00041459
 51
195.99959727
  0
LWPOLYLINE
  5
3B5
100
AcDbEntity
  8
MST_1_1
 62
   137
  6
CONTINUOUS
100
AcDbPolyline
 90
        9
 70
     0
 43
0.0
 10
-89.33783524
 20
-202.93129287
 10
-89.37866509
 20
-202.89046303
 10
-89.41948642
 20
-202.84964169
 10
-89.46029724
 20
-202.80883087
 10
-89.50109529
 20
-202.76803282
 10
-89.54187844
 20
-202.72724968
 10
-89.58264442
 20
-202.68648356
 10
-89.62339125
 20
-202.64573673
 10
-89.66411665
 20
-202.60501133
  0
ARC
  5
3B6
100
AcDbEntity
  8
MST_1_1
 62
   137
  6
CONTINUOUS
100
AcDbCircle
 10
-89.40521366
 20
-203.23241748
 30
0.0
 40
0.3085707
100
AcDbArc
 50
77.38747914
 51
127.33780242
  0
LINE
  5
3B7
100
AcDbEntity
  8
MST_1_1
 62
   137
  6
CONTINUOUS
100
AcDbLine
 10
-89.15987639
 20
-203.41957053
 30
0.0
 11
-89.59236583
 21
-202.98708109
 31
0.0
  0
ARC
  5
3B8
100
AcDbEntity
  8
MST_1_1
 62
   137
  6
CONTINUOUS
100
AcDbCircle
 10
-89.40521292
 20
-203.23241833
 30
0.0
 40
0.30857083
100
AcDbArc
 50
322.66221884
 51
12.61250962
  0
LWPOLYLINE
  5
3B9
100
AcDbEntity
  8
MST_1_1
 62
   137
  6
CONTINUOUS
100
AcDbPolyline
 90
        9
 70
     0
 43
0.0
 10
-88.77780663
 20
-203.49132135
 10
-88.81853203
 20
-203.45059595
 10
-88.85927886
 20
-203.40984912
 10
-88.90004498
 20
-203.36908314
 10
-88.94082813
 20
-203.32829999
 10
-88.98162617
 20
-203.28750194
 10
-89.022437
 20
-203.24669112
 10
-89.06325833
 20
-203.20586979
 10
-89.10408817
 20
-203.16503994
  0
ARC
  5
3BA
100
AcDbEntity
  8
MST_1_1
 62
   137
  6
CONTINUOUS
100
AcDbCircle
 10
-88.84518485
 20
-203.79244683
 30
0.0
 40
0.30857151
100
AcDbArc
 50
77.38755048
 51
192.61243885
  0
LWPOLYLINE
  5
3BB
100
AcDbEntity
  8
MST_1_1
 62
   137
  6
CONTINUOUS
100
AcDbPolyline
 90
        9
 70
     0
 43
0.0
 10
-89.47259176
 20
-203.53354366
 10
-89.43176005
 20
-203.57437537
 10
-89.39093712
 20
-203.6151983
 10
-89.35012524
 20
-203.65601018
 10
-89.30932652
 20
-203.6968089
 10
-89.26854351
 20
-203.73759178
 10
-89.22777832
 20
-203.7783571
 10
-89.18703309
 20
-203.81910219
 10
-89.14631035
 20
-203.85982494
  0
ARC
  5
3BC
100
AcDbEntity
  8
MST_1_1
 62
   137
  6
CONTINUOUS
100
AcDbCircle
 10
-89.40521374
 20
-203.23241727
 30
0.0
 40
0.30857236
100
AcDbArc
 50
257.38763285
 51
307.33766874
  0
LWPOLYLINE
  5
3BD
100
AcDbEntity
  8
MST_1_1
 62
   137
  6
CONTINUOUS
100
AcDbPolyline
 90
        9
 70
     0
 43
0.0
 10
-89.65055074
 20
-203.04526587
 10
-89.59650756
 20
-203.09930892
 10
-89.54244894
 20
-203.15336754
 10
-89.48838007
 20
-203.20743654
 10
-89.43430589
 20
-203.26151059
 10
-89.38023184
 20
-203.31558477
 10
-89.32616284
 20
-203.36965364
 10
-89.27210422
 20
-203.42371226
 10
-89.21806117
 20
-203.47775544
  0
ARC
  5
3BE
100
AcDbEntity
  8
MST_1_1
 62
   137
  6
CONTINUOUS
100
AcDbCircle
 10
-89.40521342
 20
-203.23241825
 30
0.0
 40
0.30857157
100
AcDbArc
 50
142.662273
 51
192.61245546
  0
LWPOLYLINE
  5
3BF
100
AcDbEntity
  8
MST_1_1
 62
   137
  6
CONTINUOUS
100
AcDbPolyline
 90
        9
 70
     0
 43
0.0
 10
-90.03262024
 20
-202.97351505
 10
-89.9918975
 20
-203.01423779
 10
-89.9511524
 20
-203.05498302
 10
-89.91038708
 20
-203.09574821
 10
-89.8696042
 20
-203.13653122
 10
-89.82880548
 20
-203.17732994
 10
-89.7879936
 20
-203.21814182
 10
-89.74717067
 20
-203.25896475
 10
-89.70633896
 20
-203.29979646
  0
ARC
  5
3C0
100
AcDbEntity
  8
MST_1_1
 62
   137
  6
CONTINUOUS
100
AcDbCircle
 10
-89.96524184
 20
-202.67238984
 30
0.0
 40
0.30857129
100
AcDbArc
 50
257.38751638
 51
12.61251432
  0
LWPOLYLINE
  5
3C1
100
AcDbEntity
  8
MST_1_1
 62
   137
  6
CONTINUOUS
100
AcDbPolyline
 90
        9
 70
     0
 43
0.0
 10
-89.49608291
 20
-203.02517924
 10
-89.45882522
 20
-203.06243693
 10
-89.42156247
 20
-203.09969968
 10
-89.38429653
 20
-203.13696575
 10
-89.34702872
 20
-203.17423342
 10
-89.30976105
 20
-203.21150123
 10
-89.27249498
 20
-203.24876717
 10
-89.23523223
 20
-203.28602992
 10
-89.19797454
 20
-203.32328761
  0
ARC
  5
3C2
100
AcDbEntity
  8
MST_1_1
 62
   137
  6
CONTINUOUS
100
AcDbCircle
 10
-89.4052136
 20
-203.2324183
 30
0.0
 40
0.22628579
100
AcDbArc
 50
336.32372311
 51
113.6762869
  0
LWPOLYLINE
  5
3C3
100
AcDbEntity
  8
MST_1_1
 62
   137
  6
CONTINUOUS
100
AcDbPolyline
 90
        9
 70
     0
 43
0.0
 10
-89.31434409
 20
-203.43965716
 10
-89.35160178
 20
-203.4023996
 10
-89.3888644
 20
-203.36513686
 10
-89.42613047
 20
-203.32787078
 10
-89.46339828
 20
-203.29060298
 10
-89.50066608
 20
-203.25333517
 10
-89.53793216
 20
-203.2160691
 10
-89.57519491
 20
-203.17880648
 10
-89.61245246
 20
-203.14154879
  0
ARC
  5
3C4
100
AcDbEntity
  8
MST_1_1
 62
   137
  6
CONTINUOUS
100
AcDbCircle
 10
-89.40521346
 20
-203.23241816
 30
0.0
 40
0.22628576
100
AcDbArc
 50
156.32369345
 51
293.67631657
  0
CIRCLE
  5
3C5
100
AcDbEntity
  8
MST_1_1
 62
   137
  6
CONTINUOUS
100
AcDbCircle
 10
-87.62734505
 20
-231.45454975
 30
0.0
 40
2.16489752
  0
CIRCLE
  5
3C6
100
AcDbEntity
  8
MST_1_1
 62
   137
  6
CONTINUOUS
100
AcDbCircle
 10
-87.62734505
 20
-231.45454975
 30
0.0
 40
1.21199358
  0
CIRCLE
  5
3C7
100
AcDbEntity
  8
MST_1_1
 62
   137
  6
CONTINUOUS
100
AcDbCircle
 10
-87.62734505
 20
-231.45454975
 30
0.0
 40
2.16489752
  0
CIRCLE
  5
3C8
100
AcDbEntity
  8
MST_1_1
 62
   137
  6
CONTINUOUS
100
AcDbCircle
 10
-87.62734505
 20
-231.45454975
 30
0.0
 40
1.21199358
  0
CIRCLE
  5
3C9
100
AcDbEntity
  8
MST_1_1
 62
   137
  6
CONTINUOUS
100
AcDbCircle
 10
-87.62734505
 20
-231.45454975
 30
0.0
 40
2.16489752
  0
CIRCLE
  5
3CA
100
AcDbEntity
  8
MST_1_1
 62
   137
  6
CONTINUOUS
100
AcDbCircle
 10
-87.62734505
 20
-231.45454975
 30
0.0
 40
1.21199358
  0
CIRCLE
  5
3CB
100
AcDbEntity
  8
MST_1_1
 62
   137
  6
CONTINUOUS
100
AcDbCircle
 10
-87.62734505
 20
-231.45454975
 30
0.0
 40
1.82204038
  0
CIRCLE
  5
3CC
100
AcDbEntity
  8
MST_1_1
 62
   137
  6
CONTINUOUS
100
AcDbCircle
 10
-87.62734505
 20
-231.45454975
 30
0.0
 40
2.27918323
  0
CIRCLE
  5
3CD
100
AcDbEntity
  8
MST_1_1
 62
   137
  6
CONTINUOUS
100
AcDbCircle
 10
-87.62734505
 20
-231.45454975
 30
0.0
 40
1.28571429
  0
CIRCLE
  5
3CE
100
AcDbEntity
  8
MST_1_1
 62
   137
  6
CONTINUOUS
100
AcDbCircle
 10
-87.62734505
 20
-231.45454975
 30
0.0
 40
4.0
  0
ARC
  5
3CF
100
AcDbEntity
  8
MST_1_1
 62
   137
  6
CONTINUOUS
100
AcDbCircle
 10
-89.19534503
 20
-231.45454975
 30
0.0
 40
0.34628572
100
AcDbArc
 50
104.00039951
 51
255.99961051
  0
ARC
  5
3D0
100
AcDbEntity
  8
MST_1_1
 62
   137
  6
CONTINUOUS
100
AcDbCircle
 10
-89.45902226
 20
-232.5120691
 30
0.0
 40
0.74361009
100
AcDbArc
 50
344.00042282
 51
75.99958535
  0
ARC
  5
3D1
100
AcDbEntity
  8
MST_1_1
 62
   137
  6
CONTINUOUS
100
AcDbCircle
 10
-88.41134502
 20
-232.81247757
 30
0.0
 40
0.3462857
100
AcDbArc
 50
164.00040911
 51
315.99959504
  0
ARC
  5
3D2
100
AcDbEntity
  8
MST_1_1
 62
   137
  6
CONTINUOUS
100
AcDbCircle
 10
-87.62734505
 20
-233.56958832
 30
0.0
 40
0.74361
100
AcDbArc
 50
44.00040429
 51
135.99959571
  0
ARC
  5
3D3
100
AcDbEntity
  8
MST_1_1
 62
   137
  6
CONTINUOUS
100
AcDbCircle
 10
-86.84334505
 20
-232.81247763
 30
0.0
 40
0.34628569
100
AcDbArc
 50
224.00041508
 51
15.9996008
  0
ARC
  5
3D4
100
AcDbEntity
  8
MST_1_1
 62
   137
  6
CONTINUOUS
100
AcDbCircle
 10
-86.05934507
 20
-231.45454975
 30
0.0
 40
0.34628572
100
AcDbArc
 50
284.00040953
 51
75.99960049
  0
ARC
  5
3D5
100
AcDbEntity
  8
MST_1_1
 62
   137
  6
CONTINUOUS
100
AcDbCircle
 10
-85.79566784
 20
-230.39703039
 30
0.0
 40
0.74361009
100
AcDbArc
 50
164.00041281
 51
255.99959537
  0
ARC
  5
3D6
100
AcDbEntity
  8
MST_1_1
 62
   137
  6
CONTINUOUS
100
AcDbCircle
 10
-86.84334508
 20
-230.09662192
 30
0.0
 40
0.3462857
100
AcDbArc
 50
344.00041913
 51
135.99958502
  0
ARC
  5
3D7
100
AcDbEntity
  8
MST_1_1
 62
   137
  6
CONTINUOUS
100
AcDbCircle
 10
-87.62734505
 20
-229.33951117
 30
0.0
 40
0.74361
100
AcDbArc
 50
224.00041431
 51
315.99960573
  0
ARC
  5
3D8
100
AcDbEntity
  8
MST_1_1
 62
   137
  6
CONTINUOUS
100
AcDbCircle
 10
-88.41134505
 20
-230.09662187
 30
0.0
 40
0.34628569
100
AcDbArc
 50
44.00040506
 51
195.99961082
  0
ARC
  5
3D9
100
AcDbEntity
  8
MST_1_1
 62
   137
  6
CONTINUOUS
100
AcDbCircle
 10
-89.45902225
 20
-230.39703039
 30
0.0
 40
0.74361009
100
AcDbArc
 50
284.00042461
 51
15.99958726
  0
LWPOLYLINE
  5
3DA
100
AcDbEntity
  8
MST_1_1
 62
   137
  6
CONTINUOUS
100
AcDbPolyline
 90
        9
 70
     0
 43
0.0
 10
-89.10216779
 20
-234.02033732
 10
-89.09180669
 20
-234.00997622
 10
-89.08143828
 20
-233.99960768
 10
-89.07106268
 20
-233.98923221
 10
-89.06067976
 20
-233.97884929
 10
-89.05028979
 20
-233.96845919
 10
-89.03989251
 20
-233.95806191
 10
-89.02948817
 20
-233.94765771
 10
-89.01907678
 20
-233.93724632
  0
ARC
  5
3DB
100
AcDbEntity
  8
MST_1_1
 62
   137
  6
CONTINUOUS
100
AcDbCircle
 10
-88.84518498
 20
-233.79244689
 30
0.0
 40
0.22628574
100
AcDbArc
 50
50.21591721
 51
219.78410477
  0
LWPOLYLINE
  5
3DC
100
AcDbEntity
  8
MST_1_1
 62
   137
  6
CONTINUOUS
100
AcDbPolyline
 90
        9
 70
     0
 43
0.0
 10
-88.70038558
 20
-233.61855505
 10
-88.69001843
 20
-233.60818783
 10
-88.67964576
 20
-233.59781516
 10
-88.66926757
 20
-233.58743703
 10
-88.65888379
 20
-233.57705332
 10
-88.64849462
 20
-233.56666402
 10
-88.63809999
 20
-233.55626939
 10
-88.62769991
 20
-233.54586945
 10
-88.61729451
 20
-233.53546405
  0
LWPOLYLINE
  5
3DD
100
AcDbEntity
  8
MST_1_1
 62
   137
  6
CONTINUOUS
100
AcDbPolyline
 90
        9
 70
     0
 43
0.0
 10
-88.61729451
 20
-233.53546405
 10
-88.67940821
 20
-233.47335029
 10
-88.74158151
 20
-233.41117705
 10
-88.80380689
 20
-233.34895167
 10
-88.86607645
 20
-233.28668211
 10
-88.92838273
 20
-233.22437583
 10
-88.99071788
 20
-233.16204068
 10
-89.05307432
 20
-233.09968424
 10
-89.11544419
 20
-233.03731437
  0
LWPOLYLINE
  5
3DE
100
AcDbEntity
  8
MST_1_1
 62
   137
  6
CONTINUOUS
100
AcDbPolyline
 90
        9
 70
     0
 43
0.0
 10
-89.11544419
 20
-233.03731437
 10
-89.11912651
 20
-233.04099655
 10
-89.12280802
 20
-233.0446782
 10
-89.12648901
 20
-233.04835906
 10
-89.13016933
 20
-233.05203938
 10
-89.13384885
 20
-233.05571903
 10
-89.13752784
 20
-233.05939789
 10
-89.14120604
 20
-233.06307621
 10
-89.1448837
 20
-233.06675374
  0
LWPOLYLINE
  5
3DF
100
AcDbEntity
  8
MST_1_1
 62
   137
  6
CONTINUOUS
100
AcDbPolyline
 90
       25
 70
     0
 43
0.0
 10
-89.1448837
 20
-233.06675379
 10
-89.14796064
 20
-233.06201436
 10
-89.15111925
 20
-233.05733781
 10
-89.15435868
 20
-233.05272499
 10
-89.15767808
 20
-233.04817675
 10
-89.1610766
 20
-233.04369394
 10
-89.16455338
 20
-233.03927742
 10
-89.16810758
 20
-233.03492804
 10
-89.17173834
 20
-233.03064666
 10
-89.17544482
 20
-233.02643413
 10
-89.17922616
 20
-233.0222913
 10
-89.18308152
 20
-233.01821902
 10
-89.18701003
 20
-233.01421816
 10
-89.19101086
 20
-233.01028956
 10
-89.19508315
 20
-233.00643407
 10
-89.19922604
 20
-233.00265255
 10
-89.20343869
 20
-232.99894586
 10
-89.20772025
 20
-232.99531485
 10
-89.21206987
 20
-232.99176036
 10
-89.21648669
 20
-232.98828326
 10
-89.22096987
 20
-232.9848844
 10
-89.22551854
 20
-232.98156463
 10
-89.23013187
 20
-232.9783248
 10
-89.23480901
 20
-232.97516577
 10
-89.23954909
 20
-232.9720884
  0
LWPOLYLINE
  5
3E0
100
AcDbEntity
  8
MST_1_1
 62
   137
  6
CONTINUOUS
100
AcDbPolyline
 90
        9
 70
     0
 43
0.0
 10
-89.23954904
 20
-232.97208839
 10
-89.23587152
 20
-232.96841073
 10
-89.23219319
 20
-232.96473254
 10
-89.22851433
 20
-232.96105355
 10
-89.22483468
 20
-232.95737403
 10
-89.22115436
 20
-232.95369371
 10
-89.21747351
 20
-232.95001272
 10
-89.21379185
 20
-232.9463312
 10
-89.21010967
 20
-232.94264889
  0
LWPOLYLINE
  5
3E1
100
AcDbEntity
  8
MST_1_1
 62
   137
  6
CONTINUOUS
100
AcDbPolyline
 90
        9
 70
     0
 43
0.0
 10
-89.21010967
 20
-232.94264889
 10
-89.27247955
 20
-232.88027901
 10
-89.33483598
 20
-232.81792258
 10
-89.39717113
 20
-232.75558743
 10
-89.45947741
 20
-232.69328115
 10
-89.52174697
 20
-232.63101159
 10
-89.58397235
 20
-232.5687862
 10
-89.64614559
 20
-232.50661291
 10
-89.70825935
 20
-232.44449921
  0
LWPOLYLINE
  5
3E2
100
AcDbEntity
  8
MST_1_1
 62
   137
  6
CONTINUOUS
100
AcDbPolyline
 90
        9
 70
     0
 43
0.0
 10
-89.70825935
 20
-232.44449921
 10
-89.71866475
 20
-232.45490461
 10
-89.72906469
 20
-232.46530469
 10
-89.73945932
 20
-232.47569932
 10
-89.74984862
 20
-232.48608849
 10
-89.76023234
 20
-232.49647227
 10
-89.77061046
 20
-232.50685046
 10
-89.78098313
 20
-232.51722313
 10
-89.79135035
 20
-232.52759028
  0
ARC
  5
3E3
100
AcDbEntity
  8
MST_1_1
 62
   137
  6
CONTINUOUS
100
AcDbCircle
 10
-89.9652422
 20
-232.67238966
 30
0.0
 40
0.22628574
100
AcDbArc
 50
230.21591956
 51
39.7840785
  0
LWPOLYLINE
  5
3E4
100
AcDbEntity
  8
MST_1_1
 62
   137
  6
CONTINUOUS
100
AcDbPolyline
 90
        9
 70
     0
 43
0.0
 10
-90.11004162
 20
-232.84628148
 10
-90.12045301
 20
-232.85669287
 10
-90.13085721
 20
-232.86709721
 10
-90.1412545
 20
-232.87749449
 10
-90.1516446
 20
-232.88788446
 10
-90.16202751
 20
-232.89826738
 10
-90.17240298
 20
-232.90864298
 10
-90.18277153
 20
-232.91901139
 10
-90.19313262
 20
-232.92937249
  0
LWPOLYLINE
  5
3E5
100
AcDbEntity
  8
MST_1_1
 62
   137
  6
CONTINUOUS
100
AcDbPolyline
 90
        9
 70
     0
 43
0.0
 10
-90.19313262
 20
-232.92937249
 10
-90.13102778
 20
-232.99147707
 10
-90.06886013
 20
-233.05364484
 10
-90.00663741
 20
-233.1158677
 10
-89.94436758
 20
-233.17813739
 10
-89.88205917
 20
-233.2404458
 10
-89.81972017
 20
-233.30278481
 10
-89.75735867
 20
-233.3651463
 10
-89.69498281
 20
-233.42752216
  0
LWPOLYLINE
  5
3E6
100
AcDbEntity
  8
MST_1_1
 62
   137
  6
CONTINUOUS
100
AcDbPolyline
 90
        9
 70
     0
 43
0.0
 10
-89.69498281
 20
-233.42752216
 10
-89.69130608
 20
-233.42384543
 10
-89.68762842
 20
-233.42016777
 10
-89.68394983
 20
-233.41648918
 10
-89.68027031
 20
-233.41280966
 10
-89.67658999
 20
-233.40912934
 10
-89.67290874
 20
-233.40544796
 10
-89.66922642
 20
-233.40176577
 10
-89.66554331
 20
-233.39808266
  0
LWPOLYLINE
  5
3E7
100
AcDbEntity
  8
MST_1_1
 62
   137
  6
CONTINUOUS
100
AcDbPolyline
 90
       25
 70
     0
 43
0.0
 10
-89.66554336
 20
-233.39808266
 10
-89.66246665
 20
-233.40282171
 10
-89.6593082
 20
-233.40749796
 10
-89.65606886
 20
-233.41211057
 10
-89.6527495
 20
-233.41665867
 10
-89.64935097
 20
-233.42114139
 10
-89.64587413
 20
-233.42555789
 10
-89.64231984
 20
-233.42990729
 10
-89.63868895
 20
-233.43418874
 10
-89.63498232
 20
-233.43840138
 10
-89.63120082
 20
-233.44254434
 10
-89.62734529
 20
-233.44661677
 10
-89.6234166
 20
-233.4506178
 10
-89.61941561
 20
-233.45454658
 10
-89.61534317
 20
-233.45840224
 10
-89.61120014
 20
-233.46218392
 10
-89.60698738
 20
-233.46589076
 10
-89.60270575
 20
-233.46952191
 10
-89.59835611
 20
-233.47307649
 10
-89.5939393
 20
-233.47655366
 10
-89.5894562
 20
-233.47995254
 10
-89.58490766
 20
-233.48327229
 10
-89.58029453
 20
-233.48651203
 10
-89.57561768
 20
-233.4896709
 10
-89.57087797
 20
-233.49274806
  0
LWPOLYLINE
  5
3E8
100
AcDbEntity
  8
MST_1_1
 62
   137
  6
CONTINUOUS
100
AcDbPolyline
 90
        9
 70
     0
 43
0.0
 10
-89.57087796
 20
-233.492748
 10
-89.57456107
 20
-233.49643112
 10
-89.57824326
 20
-233.50011344
 10
-89.58192464
 20
-233.50379469
 10
-89.58560496
 20
-233.50747501
 10
-89.58928449
 20
-233.51115453
 10
-89.59296308
 20
-233.51483312
 10
-89.59664074
 20
-233.51851078
 10
-89.60031746
 20
-233.52218751
  0
LWPOLYLINE
  5
3E9
100
AcDbEntity
  8
MST_1_1
 62
   137
  6
CONTINUOUS
100
AcDbPolyline
 90
        9
 70
     0
 43
0.0
 10
-89.60031746
 20
-233.52218751
 10
-89.5379416
 20
-233.58456337
 10
-89.47558011
 20
-233.64692486
 10
-89.4132411
 20
-233.70926387
 10
-89.3509327
 20
-233.77157228
 10
-89.288663
 20
-233.8338421
 10
-89.22644015
 20
-233.89606483
 10
-89.16427237
 20
-233.95823247
 10
-89.10216779
 20
-234.02033732
  0
CIRCLE
  5
3EA
100
AcDbEntity
  8
MST_1_1
 62
   137
  6
CONTINUOUS
100
AcDbCircle
 10
-87.62734505
 20
-231.45454975
 30
0.0
 40
3.75223156
  0
ARC
  5
3EB
100
AcDbEntity
  8
MST_1_1
 62
   137
  6
CONTINUOUS
100
AcDbCircle
 10
-85.79566784
 20
-232.5120691
 30
0.0
 40
0.74361009
100
AcDbArc
 50
104.00041459
 51
195.99959727
  0
LWPOLYLINE
  5
3EC
100
AcDbEntity
  8
MST_1_1
 62
   137
  6
CONTINUOUS
100
AcDbPolyline
 90
        9
 70
     0
 43
0.0
 10
-89.33783524
 20
-232.93129287
 10
-89.37866509
 20
-232.89046303
 10
-89.41948642
 20
-232.84964169
 10
-89.46029724
 20
-232.80883087
 10
-89.50109529
 20
-232.76803282
 10
-89.54187844
 20
-232.72724968
 10
-89.58264442
 20
-232.68648356
 10
-89.62339125
 20
-232.64573673
 10
-89.66411665
 20
-232.60501133
  0
ARC
  5
3ED
100
AcDbEntity
  8
MST_1_1
 62
   137
  6
CONTINUOUS
100
AcDbCircle
 10
-89.40521366
 20
-233.23241748
 30
0.0
 40
0.3085707
100
AcDbArc
 50
77.38747914
 51
127.33780242
  0
LINE
  5
3EE
100
AcDbEntity
  8
MST_1_1
 62
   137
  6
CONTINUOUS
100
AcDbLine
 10
-89.15987639
 20
-233.41957053
 30
0.0
 11
-89.59236583
 21
-232.98708109
 31
0.0
  0
ARC
  5
3EF
100
AcDbEntity
  8
MST_1_1
 62
   137
  6
CONTINUOUS
100
AcDbCircle
 10
-89.40521292
 20
-233.23241833
 30
0.0
 40
0.30857083
100
AcDbArc
 50
322.66221884
 51
12.61250962
  0
LWPOLYLINE
  5
3F0
100
AcDbEntity
  8
MST_1_1
 62
   137
  6
CONTINUOUS
100
AcDbPolyline
 90
        9
 70
     0
 43
0.0
 10
-88.77780663
 20
-233.49132135
 10
-88.81853203
 20
-233.45059595
 10
-88.85927886
 20
-233.40984912
 10
-88.90004498
 20
-233.36908314
 10
-88.94082813
 20
-233.32829999
 10
-88.98162617
 20
-233.28750194
 10
-89.022437
 20
-233.24669112
 10
-89.06325833
 20
-233.20586979
 10
-89.10408817
 20
-233.16503994
  0
ARC
  5
3F1
100
AcDbEntity
  8
MST_1_1
 62
   137
  6
CONTINUOUS
100
AcDbCircle
 10
-88.84518485
 20
-233.79244683
 30
0.0
 40
0.30857151
100
AcDbArc
 50
77.38755048
 51
192.61243885
  0
LWPOLYLINE
  5
3F2
100
AcDbEntity
  8
MST_1_1
 62
   137
  6
CONTINUOUS
100
AcDbPolyline
 90
        9
 70
     0
 43
0.0
 10
-89.47259176
 20
-233.53354366
 10
-89.43176005
 20
-233.57437537
 10
-89.39093712
 20
-233.6151983
 10
-89.35012524
 20
-233.65601018
 10
-89.30932652
 20
-233.6968089
 10
-89.26854351
 20
-233.73759178
 10
-89.22777832
 20
-233.7783571
 10
-89.18703309
 20
-233.81910219
 10
-89.14631035
 20
-233.85982494
  0
ARC
  5
3F3
100
AcDbEntity
  8
MST_1_1
 62
   137
  6
CONTINUOUS
100
AcDbCircle
 10
-89.40521374
 20
-233.23241727
 30
0.0
 40
0.30857236
100
AcDbArc
 50
257.38763285
 51
307.33766874
  0
LWPOLYLINE
  5
3F4
100
AcDbEntity
  8
MST_1_1
 62
   137
  6
CONTINUOUS
100
AcDbPolyline
 90
        9
 70
     0
 43
0.0
 10
-89.65055074
 20
-233.04526587
 10
-89.59650756
 20
-233.09930892
 10
-89.54244894
 20
-233.15336754
 10
-89.48838007
 20
-233.20743654
 10
-89.43430589
 20
-233.26151059
 10
-89.38023184
 20
-233.31558477
 10
-89.32616284
 20
-233.36965364
 10
-89.27210422
 20
-233.42371226
 10
-89.21806117
 20
-233.47775544
  0
ARC
  5
3F5
100
AcDbEntity
  8
MST_1_1
 62
   137
  6
CONTINUOUS
100
AcDbCircle
 10
-89.40521342
 20
-233.23241825
 30
0.0
 40
0.30857157
100
AcDbArc
 50
142.662273
 51
192.61245546
  0
LWPOLYLINE
  5
3F6
100
AcDbEntity
  8
MST_1_1
 62
   137
  6
CONTINUOUS
100
AcDbPolyline
 90
        9
 70
     0
 43
0.0
 10
-90.03262024
 20
-232.97351505
 10
-89.9918975
 20
-233.01423779
 10
-89.9511524
 20
-233.05498302
 10
-89.91038708
 20
-233.09574821
 10
-89.8696042
 20
-233.13653122
 10
-89.82880548
 20
-233.17732994
 10
-89.7879936
 20
-233.21814182
 10
-89.74717067
 20
-233.25896475
 10
-89.70633896
 20
-233.29979646
  0
ARC
  5
3F7
100
AcDbEntity
  8
MST_1_1
 62
   137
  6
CONTINUOUS
100
AcDbCircle
 10
-89.96524184
 20
-232.67238984
 30
0.0
 40
0.30857129
100
AcDbArc
 50
257.38751638
 51
12.61251432
  0
LWPOLYLINE
  5
3F8
100
AcDbEntity
  8
MST_1_1
 62
   137
  6
CONTINUOUS
100
AcDbPolyline
 90
        9
 70
     0
 43
0.0
 10
-89.49608291
 20
-233.02517924
 10
-89.45882522
 20
-233.06243693
 10
-89.42156247
 20
-233.09969968
 10
-89.38429653
 20
-233.13696575
 10
-89.34702872
 20
-233.17423342
 10
-89.30976105
 20
-233.21150123
 10
-89.27249498
 20
-233.24876717
 10
-89.23523223
 20
-233.28602992
 10
-89.19797454
 20
-233.32328761
  0
ARC
  5
3F9
100
AcDbEntity
  8
MST_1_1
 62
   137
  6
CONTINUOUS
100
AcDbCircle
 10
-89.4052136
 20
-233.2324183
 30
0.0
 40
0.22628579
100
AcDbArc
 50
336.32372311
 51
113.6762869
  0
LWPOLYLINE
  5
3FA
100
AcDbEntity
  8
MST_1_1
 62
   137
  6
CONTINUOUS
100
AcDbPolyline
 90
        9
 70
     0
 43
0.0
 10
-89.31434409
 20
-233.43965716
 10
-89.35160178
 20
-233.4023996
 10
-89.3888644
 20
-233.36513686
 10
-89.42613047
 20
-233.32787078
 10
-89.46339828
 20
-233.29060298
 10
-89.50066608
 20
-233.25333517
 10
-89.53793216
 20
-233.2160691
 10
-89.57519491
 20
-233.17880648
 10
-89.61245246
 20
-233.14154879
  0
ARC
  5
3FB
100
AcDbEntity
  8
MST_1_1
 62
   137
  6
CONTINUOUS
100
AcDbCircle
 10
-89.40521346
 20
-233.23241816
 30
0.0
 40
0.22628576
100
AcDbArc
 50
156.32369345
 51
293.67631657
  0
MTEXT
  5
3FC
100
AcDbEntity
  8
MST_1_1
 62
     4
100
AcDbMText
 10
-129.11436701
 20
168.96582882
 30
2500.0
 11
1.0
 21
0.0
 31
0.0
 40
20.0
 41
316.1838307
 71
     1
 72
     1
  1
\fTahoma|b0|i0|c0|p18;\H20;\W0.80000001;\C7;Spanplattenschrauben Senkkopf\PHECO-FIX-plus 4.0mm\P35.301
  0
LWPOLYLINE
  5
3FD
102
{ACAD_REACTORS
330
3FE
102
}
100
AcDbEntity
  8
MST_1_1
 62
    12
100
AcDbPolyline
 90
       46
 70
     1
 43
0.0
 10
277.76822785
 20
179.53157882
 10
277.63740652
 20
179.54221715
 10
277.51325719
 20
179.57300548
 10
277.39745185
 20
179.62225382
 10
277.29166252
 20
179.68827215
 10
277.19756119
 20
179.76937048
 10
277.11681985
 20
179.86385882
 10
277.05111052
 20
179.97004715
 10
277.00210519
 20
180.08624548
 10
276.97147585
 20
180.21076382
 10
276.96089452
 20
180.34191215
 10
276.96089452
 20
180.34191215
 10
276.97147585
 20
180.47312432
 10
277.00210519
 20
180.59772948
 10
277.05111052
 20
180.71403065
 10
277.11681985
 20
180.82033082
 10
277.19756119
 20
180.91493298
 10
277.29166252
 20
180.99614015
 10
277.39745185
 20
181.06225532
 10
277.51325719
 20
181.11158148
 10
277.63740652
 20
181.14242165
 10
277.76822785
 20
181.15307882
 10
277.76822785
 20
181.15307882
 10
277.89888252
 20
181.14242165
 10
278.02292519
 20
181.11158148
 10
278.13867385
 20
181.06225532
 10
278.24444652
 20
180.99614015
 10
278.33856119
 20
180.91493298
 10
278.41933585
 20
180.82033082
 10
278.48508852
 20
180.71403065
 10
278.53413719
 20
180.59772948
 10
278.56479985
 20
180.47312432
 10
278.57539452
 20
180.34191215
 10
278.57539452
 20
180.34191215
 10
278.56479985
 20
180.21076382
 10
278.53413719
 20
180.08624548
 10
278.48508852
 20
179.97004715
 10
278.41933585
 20
179.86385882
 10
278.33856119
 20
179.76937048
 10
278.24444652
 20
179.68827215
 10
278.13867385
 20
179.62225382
 10
278.02292519
 20
179.57300548
 10
277.89888252
 20
179.54221715
 10
277.76822785
 20
179.53157882
 10
277.76822785
 20
179.53157882
 10
277.76822785
 20
179.53157882
  0
HATCH
  5
3FE
100
AcDbEntity
  8
MST_1_1
 62
    12
100
AcDbHatch
 10
0.0
 20
0.0
 30
0.0
210
0.0
220
0.0
230
1.0
  2
SOLID
 70
     1
 71
     1
 91
        1
 92
        7
 72
     0
 73
     1
 93
       40
 10
277.76822785
 20
179.53157882
 10
277.63740652
 20
179.54221715
 10
277.51325719
 20
179.57300548
 10
277.39745185
 20
179.62225382
 10
277.29166252
 20
179.68827215
 10
277.19756119
 20
179.76937048
 10
277.11681985
 20
179.86385882
 10
277.05111052
 20
179.97004715
 10
277.00210519
 20
180.08624548
 10
276.97147585
 20
180.21076382
 10
276.96089452
 20
180.34191215
 10
276.97147585
 20
180.47312432
 10
277.00210519
 20
180.59772948
 10
277.05111052
 20
180.71403065
 10
277.11681985
 20
180.82033082
 10
277.19756119
 20
180.91493298
 10
277.29166252
 20
180.99614015
 10
277.39745185
 20
181.06225532
 10
277.51325719
 20
181.11158148
 10
277.63740652
 20
181.14242165
 10
277.76822785
 20
181.15307882
 10
277.89888252
 20
181.14242165
 10
278.02292519
 20
181.11158148
 10
278.13867385
 20
181.06225532
 10
278.24444652
 20
180.99614015
 10
278.33856119
 20
180.91493298
 10
278.41933585
 20
180.82033082
 10
278.48508852
 20
180.71403065
 10
278.53413719
 20
180.59772948
 10
278.56479985
 20
180.47312432
 10
278.57539452
 20
180.34191215
 10
278.56479985
 20
180.21076382
 10
278.53413719
 20
180.08624548
 10
278.48508852
 20
179.97004715
 10
278.41933585
 20
179.86385882
 10
278.33856119
 20
179.76937048
 10
278.24444652
 20
179.68827215
 10
278.13867385
 20
179.62225382
 10
278.02292519
 20
179.57300548
 10
277.89888252
 20
179.54221715
 97
        1
330
3FD
 75
     0
 76
     2
 47
0.775229
 98
        1
 10
0.0
 20
0.0
  0
LWPOLYLINE
  5
3FF
102
{ACAD_REACTORS
330
400
102
}
100
AcDbEntity
  8
MST_1_1
 62
    12
100
AcDbPolyline
 90
        8
 70
     1
 43
0.0
 10
210.30322785
 20
178.96582882
 10
276.27106119
 20
178.96582882
 10
276.27106119
 20
178.96582882
 10
276.27106119
 20
162.38457882
 10
276.27106119
 20
162.38457882
 10
210.30322785
 20
162.38457882
 10
210.30322785
 20
162.38457882
 10
210.30322785
 20
178.96582882
  0
HATCH
  5
400
100
AcDbEntity
  8
MST_1_1
 62
    12
100
AcDbHatch
 10
0.0
 20
0.0
 30
0.0
210
0.0
220
0.0
230
1.0
  2
SOLID
 70
     1
 71
     1
 91
        1
 92
        7
 72
     0
 73
     1
 93
        4
 10
210.30322785
 20
178.96582882
 10
276.27106119
 20
178.96582882
 10
276.27106119
 20
162.38457882
 10
210.30322785
 20
162.38457882
 97
        1
330
3FF
 75
     0
 76
     2
 47
0.775229
 98
        1
 10
0.0
 20
0.0
  0
LINE
  5
401
100
AcDbEntity
  8
MST_1_1
100
AcDbLine
 10
210.30322785
 20
162.38457882
 30
0.0
 11
210.30322785
 21
162.38457882
 31
0.0
  0
LINE
  5
402
100
AcDbEntity
  8
MST_1_1
100
AcDbLine
 10
210.30322785
 20
162.38457882
 30
0.0
 11
210.30322785
 21
162.38457882
 31
0.0
  0
LINE
  5
403
100
AcDbEntity
  8
MST_1_1
100
AcDbLine
 10
210.30322785
 20
162.38457882
 30
0.0
 11
210.30322785
 21
162.38457882
 31
0.0
  0
LINE
  5
404
100
AcDbEntity
  8
MST_1_1
100
AcDbLine
 10
210.30322785
 20
162.38457882
 30
0.0
 11
210.30322785
 21
162.38457882
 31
0.0
  0
LINE
  5
405
100
AcDbEntity
  8
MST_1_1
100
AcDbLine
 10
210.30322785
 20
162.38457882
 30
0.0
 11
210.30322785
 21
162.38457882
 31
0.0
  0
LINE
  5
406
100
AcDbEntity
  8
MST_1_1
100
AcDbLine
 10
210.30322785
 20
162.38457882
 30
0.0
 11
210.30322785
 21
162.38457882
 31
0.0
  0
LINE
  5
407
100
AcDbEntity
  8
MST_1_1
100
AcDbLine
 10
210.30322785
 20
162.38457882
 30
0.0
 11
210.30322785
 21
162.38457882
 31
0.0
  0
LINE
  5
408
100
AcDbEntity
  8
MST_1_1
100
AcDbLine
 10
210.30322785
 20
162.38457882
 30
0.0
 11
210.30322785
 21
162.38457882
 31
0.0
  0
LINE
  5
409
100
AcDbEntity
  8
MST_1_1
100
AcDbLine
 10
210.30322785
 20
162.38457882
 30
0.0
 11
210.30322785
 21
162.38457882
 31
0.0
  0
LINE
  5
40A
100
AcDbEntity
  8
MST_1_1
100
AcDbLine
 10
210.30322785
 20
162.38457882
 30
0.0
 11
210.30322785
 21
162.38457882
 31
0.0
  0
LINE
  5
40B
100
AcDbEntity
  8
MST_1_1
100
AcDbLine
 10
210.30322785
 20
162.38457882
 30
0.0
 11
210.30322785
 21
162.38457882
 31
0.0
  0
LWPOLYLINE
  5
40C
102
{ACAD_REACTORS
330
40D
102
}
100
AcDbEntity
  8
MST_1_1
 62
   190
100
AcDbPolyline
 90
        8
 70
     1
 43
0.0
 10
243.10972785
 20
177.81616215
 10
275.12456119
 20
177.81616215
 10
275.12456119
 20
177.81616215
 10
275.12456119
 20
163.53241048
 10
275.12456119
 20
163.53241048
 10
243.10972785
 20
163.53241048
 10
243.10972785
 20
163.53241048
 10
243.10972785
 20
177.81616215
  0
HATCH
  5
40D
100
AcDbEntity
  8
MST_1_1
 62
   190
100
AcDbHatch
 10
0.0
 20
0.0
 30
0.0
210
0.0
220
0.0
230
1.0
  2
SOLID
 70
     1
 71
     1
 91
        1
 92
        7
 72
     0
 73
     1
 93
        4
 10
243.10972785
 20
177.81616215
 10
275.12456119
 20
177.81616215
 10
275.12456119
 20
163.53241048
 10
243.10972785
 20
163.53241048
 97
        1
330
40C
 75
     0
 76
     2
 47
0.775229
 98
        1
 10
0.0
 20
0.0
  0
LWPOLYLINE
  5
40E
102
{ACAD_REACTORS
330
40F
102
}
100
AcDbEntity
  8
MST_1_1
 62
    12
100
AcDbPolyline
 90
       22
 70
     1
 43
0.0
 10
245.02756119
 20
165.82567882
 10
245.02756119
 20
174.91219548
 10
245.02756119
 20
174.91219548
 10
253.20689452
 20
174.91219548
 10
253.20689452
 20
174.91219548
 10
253.20689452
 20
172.44784548
 10
253.20689452
 20
172.44784548
 10
249.43089452
 20
172.44784548
 10
249.43089452
 20
172.44784548
 10
249.43089452
 20
171.39322882
 10
249.43089452
 20
171.39322882
 10
252.84856119
 20
171.39322882
 10
252.84856119
 20
171.39322882
 10
252.84856119
 20
169.06542882
 10
252.84856119
 20
169.06542882
 10
249.43089452
 20
169.06542882
 10
249.43089452
 20
169.06542882
 10
249.43089452
 20
165.82567882
 10
249.43089452
 20
165.82567882
 10
245.02756119
 20
165.82567882
 10
245.02756119
 20
165.82567882
 10
245.02756119
 20
165.82567882
  0
HATCH
  5
40F
100
AcDbEntity
  8
MST_1_1
 62
    12
100
AcDbHatch
 10
0.0
 20
0.0
 30
0.0
210
0.0
220
0.0
230
1.0
  2
SOLID
 70
     1
 71
     1
 91
        1
 92
        7
 72
     0
 73
     1
 93
       10
 10
245.02756119
 20
165.82567882
 10
245.02756119
 20
174.91219548
 10
253.20689452
 20
174.91219548
 10
253.20689452
 20
172.44784548
 10
249.43089452
 20
172.44784548
 10
249.43089452
 20
171.39322882
 10
252.84856119
 20
171.39322882
 10
252.84856119
 20
169.06542882
 10
249.43089452
 20
169.06542882
 10
249.43089452
 20
165.82567882
 97
        1
330
40E
 75
     0
 76
     2
 47
0.775229
 98
        1
 10
0.0
 20
0.0
  0
LWPOLYLINE
  5
410
102
{ACAD_REACTORS
330
411
102
}
100
AcDbEntity
  8
MST_1_1
 62
   190
100
AcDbPolyline
 90
      178
 70
     1
 43
0.0
 10
241.25222785
 20
170.35082882
 10
241.24865585
 20
170.1526621
 10
241.23795185
 20
169.95719508
 10
241.22013385
 20
169.76444747
 10
241.19521985
 20
169.57443895
 10
241.16322785
 20
169.38718923
 10
241.12417585
 20
169.20271802
 10
241.07808185
 20
169.021045
 10
241.02496385
 20
168.84218988
 10
240.96483985
 20
168.66617237
 10
240.89772785
 20
168.49301215
 10
240.89772785
 20
168.49301215
 10
240.82399485
 20
168.32253828
 10
240.74360385
 20
168.15579122
 10
240.65656685
 20
167.99276275
 10
240.56289585
 20
167.83344468
 10
240.46260285
 20
167.67782882
 10
240.35569985
 20
167.52590695
 10
240.24219885
 20
167.37767088
 10
240.12211185
 20
167.23311242
 10
239.99545085
 20
167.09222335
 10
239.86222785
 20
166.95499548
 10
239.86222785
 20
166.95499548
 10
239.72348919
 20
166.8252147
 10
239.58057852
 20
166.70164722
 10
239.43350385
 20
166.58430033
 10
239.28227319
 20
166.47318135
 10
239.12689452
 20
166.36829757
 10
238.96737585
 20
166.26965628
 10
238.80372519
 20
166.1772648
 10
238.63595052
 20
166.09113042
 10
238.46405985
 20
166.01126043
 10
238.28806119
 20
165.93766215
 10
238.28806119
 20
165.93766215
 10
238.10901319
 20
165.87066402
 10
237.92749719
 20
165.81060708
 10
237.74355519
 20
165.75751755
 10
237.55722919
 20
165.71142162
 10
237.36856119
 20
165.67234548
 10
237.17759319
 20
165.64031535
 10
236.98436719
 20
165.61535742
 10
236.78892519
 20
165.59749788
 10
236.59130919
 20
165.58676295
 10
236.39156119
 20
165.58317882
 10
236.39156119
 20
165.58317882
 10
236.18964085
 20
165.58676295
 10
235.99019852
 20
165.59749788
 10
235.79326219
 20
165.61535742
 10
235.59885985
 20
165.64031535
 10
235.40701952
 20
165.67234548
 10
235.21776919
 20
165.71142162
 10
235.03113685
 20
165.75751755
 10
234.84715052
 20
165.81060708
 10
234.66583819
 20
165.87066402
 10
234.48722785
 20
165.93766215
 10
234.48722785
 20
165.93766215
 10
234.31130135
 20
166.01137778
 10
234.13941585
 20
166.09160122
 10
233.97156235
 20
166.17832725
 10
233.80773185
 20
166.27155068
 10
233.64791535
 20
166.37126632
 10
233.49210385
 20
166.47746895
 10
233.34028835
 20
166.59015338
 10
233.19245985
 20
166.70931442
 10
233.04860935
 20
166.83494685
 10
232.90872785
 20
166.96704548
 10
232.90872785
 20
166.96704548
 10
232.77716902
 20
167.10082037
 10
232.65201719
 20
167.23856455
 10
232.53330935
 20
167.38026233
 10
232.42108252
 20
167.52589802
 10
232.31537369
 20
167.6754559
 10
232.21621985
 20
167.82892028
 10
232.12365802
 20
167.98627547
 10
232.03772519
 20
168.14750575
 10
231.95845835
 20
168.31259543
 10
231.88589452
 20
168.48152882
 10
231.88589452
 20
168.48152882
 10
231.82007669
 20
168.65465147
 10
231.76113185
 20
168.83085602
 10
231.70907302
 20
169.01013737
 10
231.66391319
 20
169.19249042
 10
231.62566535
 20
169.37791007
 10
231.59434252
 20
169.56639122
 10
231.56995769
 20
169.75792877
 10
231.55252385
 20
169.95251762
 10
231.54205402
 20
170.15015267
 10
231.53856119
 20
170.35082882
 10
231.53856119
 20
170.35082882
 10
231.54205402
 20
170.55150085
 10
231.55252385
 20
170.74922308
 10
231.56995769
 20
170.94400472
 10
231.59434252
 20
171.13585495
 10
231.62566535
 20
171.32478298
 10
231.66391319
 20
171.51079802
 10
231.70907302
 20
171.69390925
 10
231.76113185
 20
171.87412588
 10
231.82007669
 20
172.05145712
 10
231.88589452
 20
172.22591215
 10
231.88589452
 20
172.22591215
 10
231.95845835
 20
172.3959786
 10
232.03772519
 20
172.56215175
 10
232.12365802
 20
172.7243923
 10
232.21621985
 20
172.88266095
 10
232.31537369
 20
173.0369184
 10
232.42108252
 20
173.18712535
 10
232.53330935
 20
173.3332425
 10
232.65201719
 20
173.47523055
 10
232.77716902
 20
173.6130502
 10
232.90872785
 20
173.74666215
 10
232.90872785
 20
173.74666215
 10
233.04753169
 20
173.87705398
 10
233.19035852
 20
174.00117682
 10
233.33723135
 20
174.11901165
 10
233.48817319
 20
174.23053948
 10
233.64320702
 20
174.33574132
 10
233.80235585
 20
174.43459815
 10
233.96564269
 20
174.52709098
 10
234.13309052
 20
174.61320082
 10
234.30472235
 20
174.69290865
 10
234.48056119
 20
174.76619548
 10
234.48056119
 20
174.76619548
 10
234.65947519
 20
174.83322707
 10
234.84111319
 20
174.89312415
 10
235.02546919
 20
174.94590523
 10
235.21253719
 20
174.99158882
 10
235.40231119
 20
175.0301934
 10
235.59478519
 20
175.06173748
 10
235.78995319
 20
175.08623957
 10
235.98780919
 20
175.10371815
 10
236.18834719
 20
175.11419173
 10
236.39156119
 20
175.11767882
 10
236.39156119
 20
175.11767882
 10
236.59493285
 20
175.11419173
 10
236.79563452
 20
175.10371815
 10
236.99364619
 20
175.08623957
 10
237.18894785
 20
175.06173748
 10
237.38151952
 20
175.0301934
 10
237.57134119
 20
174.99158882
 10
237.75839285
 20
174.94590523
 10
237.94265452
 20
174.89312415
 10
238.12410619
 20
174.83322707
 10
238.30272785
 20
174.76619548
 10
238.30272785
 20
174.76619548
 10
238.47873052
 20
174.69290865
 10
238.65064919
 20
174.61320082
 10
238.81849985
 20
174.52709098
 10
238.98229852
 20
174.43459815
 10
239.14206119
 20
174.33574132
 10
239.29780385
 20
174.23053948
 10
239.44954252
 20
174.11901165
 10
239.59729319
 20
174.00117682
 10
239.74107185
 20
173.87705398
 10
239.88089452
 20
173.74666215
 10
239.88089452
 20
173.74666215
 10
240.01123935
 20
173.61188763
 10
240.13535319
 20
173.47306002
 10
240.25320502
 20
173.3302032
 10
240.36476385
 20
173.18334108
 10
240.46999869
 20
173.03249757
 10
240.56887852
 20
172.87769655
 10
240.66137235
 20
172.71896193
 10
240.74744919
 20
172.55631762
 10
240.82707802
 20
172.3897875
 10
240.90022785
 20
172.21939548
 10
240.90022785
 20
172.21939548
 10
240.96726985
 20
172.04510357
 10
241.02720385
 20
171.86802615
 10
241.08004185
 20
171.68816073
 10
241.12579585
 20
171.50550482
 10
241.16447785
 20
171.3200559
 10
241.19609985
 20
171.13181148
 10
241.22067385
 20
170.94076907
 10
241.23821185
 20
170.74692615
 10
241.24872585
 20
170.55028023
 10
241.25222785
 20
170.35082882
 10
241.25222785
 20
170.35082882
 10
241.25222785
 20
170.35082882
  0
HATCH
  5
411
100
AcDbEntity
  8
MST_1_1
 62
   190
100
AcDbHatch
 10
0.0
 20
0.0
 30
0.0
210
0.0
220
0.0
230
1.0
  2
SOLID
 70
     1
 71
     1
 91
        1
 92
        7
 72
     0
 73
     1
 93
      160
 10
241.25222785
 20
170.35082882
 10
241.24865585
 20
170.1526621
 10
241.23795185
 20
169.95719508
 10
241.22013385
 20
169.76444747
 10
241.19521985
 20
169.57443895
 10
241.16322785
 20
169.38718923
 10
241.12417585
 20
169.20271802
 10
241.07808185
 20
169.021045
 10
241.02496385
 20
168.84218988
 10
240.96483985
 20
168.66617237
 10
240.89772785
 20
168.49301215
 10
240.82399485
 20
168.32253828
 10
240.74360385
 20
168.15579122
 10
240.65656685
 20
167.99276275
 10
240.56289585
 20
167.83344468
 10
240.46260285
 20
167.67782882
 10
240.35569985
 20
167.52590695
 10
240.24219885
 20
167.37767088
 10
240.12211185
 20
167.23311242
 10
239.99545085
 20
167.09222335
 10
239.86222785
 20
166.95499548
 10
239.72348919
 20
166.8252147
 10
239.58057852
 20
166.70164722
 10
239.43350385
 20
166.58430033
 10
239.28227319
 20
166.47318135
 10
239.12689452
 20
166.36829757
 10
238.96737585
 20
166.26965628
 10
238.80372519
 20
166.1772648
 10
238.63595052
 20
166.09113042
 10
238.46405985
 20
166.01126043
 10
238.28806119
 20
165.93766215
 10
238.10901319
 20
165.87066402
 10
237.92749719
 20
165.81060708
 10
237.74355519
 20
165.75751755
 10
237.55722919
 20
165.71142162
 10
237.36856119
 20
165.67234548
 10
237.17759319
 20
165.64031535
 10
236.98436719
 20
165.61535742
 10
236.78892519
 20
165.59749788
 10
236.59130919
 20
165.58676295
 10
236.39156119
 20
165.58317882
 10
236.18964085
 20
165.58676295
 10
235.99019852
 20
165.59749788
 10
235.79326219
 20
165.61535742
 10
235.59885985
 20
165.64031535
 10
235.40701952
 20
165.67234548
 10
235.21776919
 20
165.71142162
 10
235.03113685
 20
165.75751755
 10
234.84715052
 20
165.81060708
 10
234.66583819
 20
165.87066402
 10
234.48722785
 20
165.93766215
 10
234.31130135
 20
166.01137778
 10
234.13941585
 20
166.09160122
 10
233.97156235
 20
166.17832725
 10
233.80773185
 20
166.27155068
 10
233.64791535
 20
166.37126632
 10
233.49210385
 20
166.47746895
 10
233.34028835
 20
166.59015338
 10
233.19245985
 20
166.70931442
 10
233.04860935
 20
166.83494685
 10
232.90872785
 20
166.96704548
 10
232.77716902
 20
167.10082037
 10
232.65201719
 20
167.23856455
 10
232.53330935
 20
167.38026233
 10
232.42108252
 20
167.52589802
 10
232.31537369
 20
167.6754559
 10
232.21621985
 20
167.82892028
 10
232.12365802
 20
167.98627547
 10
232.03772519
 20
168.14750575
 10
231.95845835
 20
168.31259543
 10
231.88589452
 20
168.48152882
 10
231.82007669
 20
168.65465147
 10
231.76113185
 20
168.83085602
 10
231.70907302
 20
169.01013737
 10
231.66391319
 20
169.19249042
 10
231.62566535
 20
169.37791007
 10
231.59434252
 20
169.56639122
 10
231.56995769
 20
169.75792877
 10
231.55252385
 20
169.95251762
 10
231.54205402
 20
170.15015267
 10
231.53856119
 20
170.35082882
 10
231.54205402
 20
170.55150085
 10
231.55252385
 20
170.74922308
 10
231.56995769
 20
170.94400472
 10
231.59434252
 20
171.13585495
 10
231.62566535
 20
171.32478298
 10
231.66391319
 20
171.51079802
 10
231.70907302
 20
171.69390925
 10
231.76113185
 20
171.87412588
 10
231.82007669
 20
172.05145712
 10
231.88589452
 20
172.22591215
 10
231.95845835
 20
172.3959786
 10
232.03772519
 20
172.56215175
 10
232.12365802
 20
172.7243923
 10
232.21621985
 20
172.88266095
 10
232.31537369
 20
173.0369184
 10
232.42108252
 20
173.18712535
 10
232.53330935
 20
173.3332425
 10
232.65201719
 20
173.47523055
 10
232.77716902
 20
173.6130502
 10
232.90872785
 20
173.74666215
 10
233.04753169
 20
173.87705398
 10
233.19035852
 20
174.00117682
 10
233.33723135
 20
174.11901165
 10
233.48817319
 20
174.23053948
 10
233.64320702
 20
174.33574132
 10
233.80235585
 20
174.43459815
 10
233.96564269
 20
174.52709098
 10
234.13309052
 20
174.61320082
 10
234.30472235
 20
174.69290865
 10
234.48056119
 20
174.76619548
 10
234.65947519
 20
174.83322707
 10
234.84111319
 20
174.89312415
 10
235.02546919
 20
174.94590523
 10
235.21253719
 20
174.99158882
 10
235.40231119
 20
175.0301934
 10
235.59478519
 20
175.06173748
 10
235.78995319
 20
175.08623957
 10
235.98780919
 20
175.10371815
 10
236.18834719
 20
175.11419173
 10
236.39156119
 20
175.11767882
 10
236.59493285
 20
175.11419173
 10
236.79563452
 20
175.10371815
 10
236.99364619
 20
175.08623957
 10
237.18894785
 20
175.06173748
 10
237.38151952
 20
175.0301934
 10
237.57134119
 20
174.99158882
 10
237.75839285
 20
174.94590523
 10
237.94265452
 20
174.89312415
 10
238.12410619
 20
174.83322707
 10
238.30272785
 20
174.76619548
 10
238.47873052
 20
174.69290865
 10
238.65064919
 20
174.61320082
 10
238.81849985
 20
174.52709098
 10
238.98229852
 20
174.43459815
 10
239.14206119
 20
174.33574132
 10
239.29780385
 20
174.23053948
 10
239.44954252
 20
174.11901165
 10
239.59729319
 20
174.00117682
 10
239.74107185
 20
173.87705398
 10
239.88089452
 20
173.74666215
 10
240.01123935
 20
173.61188763
 10
240.13535319
 20
173.47306002
 10
240.25320502
 20
173.3302032
 10
240.36476385
 20
173.18334108
 10
240.46999869
 20
173.03249757
 10
240.56887852
 20
172.87769655
 10
240.66137235
 20
172.71896193
 10
240.74744919
 20
172.55631762
 10
240.82707802
 20
172.3897875
 10
240.90022785
 20
172.21939548
 10
240.96726985
 20
172.04510357
 10
241.02720385
 20
171.86802615
 10
241.08004185
 20
171.68816073
 10
241.12579585
 20
171.50550482
 10
241.16447785
 20
171.3200559
 10
241.19609985
 20
171.13181148
 10
241.22067385
 20
170.94076907
 10
241.23821185
 20
170.74692615
 10
241.24872585
 20
170.55028023
 97
        1
330
410
 75
     0
 76
     2
 47
0.775229
 98
        1
 10
0.0
 20
0.0
  0
LWPOLYLINE
  5
412
102
{ACAD_REACTORS
330
413
102
}
100
AcDbEntity
  8
MST_1_1
 62
    12
100
AcDbPolyline
 90
       90
 70
     1
 43
0.0
 10
236.39156119
 20
168.63664548
 10
236.52677835
 20
168.6413808
 10
236.65653852
 20
168.65556402
 10
236.78085469
 20
168.67916103
 10
236.89973985
 20
168.71213775
 10
237.01320702
 20
168.75446007
 10
237.12126919
 20
168.80609388
 10
237.22393935
 20
168.8670051
 10
237.32123052
 20
168.93715962
 10
237.41315569
 20
169.01652333
 10
237.49972785
 20
169.10506215
 10
237.49972785
 20
169.10506215
 10
237.57942035
 20
169.20218717
 10
237.65078785
 20
169.30530828
 10
237.71381535
 20
169.4144646
 10
237.76848785
 20
169.52969522
 10
237.81479035
 20
169.65103923
 10
237.85270785
 20
169.77853575
 10
237.88222535
 20
169.91222387
 10
237.90332785
 20
170.05214268
 10
237.91600035
 20
170.1983313
 10
237.92022785
 20
170.35082882
 10
237.92022785
 20
170.35082882
 10
237.91600035
 20
170.50407435
 10
237.90332785
 20
170.65108308
 10
237.88222535
 20
170.79188822
 10
237.85270785
 20
170.92652295
 10
237.81479035
 20
171.05502048
 10
237.76848785
 20
171.17741402
 10
237.71381535
 20
171.29373675
 10
237.65078785
 20
171.40402188
 10
237.57942035
 20
171.50830262
 10
237.49972785
 20
171.60661215
 10
237.49972785
 20
171.60661215
 10
237.41315569
 20
171.69663753
 10
237.32123052
 20
171.77725322
 10
237.22393935
 20
171.8484435
 10
237.12126919
 20
171.91019268
 10
237.01320702
 20
171.96248507
 10
236.89973985
 20
172.00530495
 10
236.78085469
 20
172.03863663
 10
236.65653852
 20
172.06246442
 10
236.52677835
 20
172.0767726
 10
236.39156119
 20
172.08154548
 10
236.39156119
 20
172.08154548
 10
236.25640819
 20
172.07676853
 10
236.12655719
 20
172.06243188
 10
236.00202019
 20
172.03852683
 10
235.88280919
 20
172.00504468
 10
235.76893619
 20
171.96197673
 10
235.66041319
 20
171.90931428
 10
235.55725219
 20
171.84704863
 10
235.45946519
 20
171.77517108
 10
235.36706419
 20
171.69367293
 10
235.28006119
 20
171.60254548
 10
235.28006119
 20
171.60254548
 10
235.19971452
 20
171.50418152
 10
235.12786785
 20
171.39985975
 10
235.06451119
 20
171.28958038
 10
235.00963452
 20
171.17334362
 10
234.96322785
 20
171.05114965
 10
234.92528119
 20
170.92299868
 10
234.89578452
 20
170.78889092
 10
234.87472785
 20
170.64882655
 10
234.86210119
 20
170.50280578
 10
234.85789452
 20
170.35082882
 10
234.85789452
 20
170.35082882
 10
234.86210119
 20
170.1983313
 10
234.87472785
 20
170.05214268
 10
234.89578452
 20
169.91222387
 10
234.92528119
 20
169.77853575
 10
234.96322785
 20
169.65103923
 10
235.00963452
 20
169.52969522
 10
235.06451119
 20
169.4144646
 10
235.12786785
 20
169.30530828
 10
235.19971452
 20
169.20218717
 10
235.28006119
 20
169.10506215
 10
235.28006119
 20
169.10506215
 10
235.36706419
 20
169.01652333
 10
235.45946519
 20
168.93715962
 10
235.55725219
 20
168.8670051
 10
235.66041319
 20
168.80609388
 10
235.76893619
 20
168.75446007
 10
235.88280919
 20
168.71213775
 10
236.00202019
 20
168.67916103
 10
236.12655719
 20
168.65556402
 10
236.25640819
 20
168.6413808
 10
236.39156119
 20
168.63664548
 10
236.39156119
 20
168.63664548
 10
236.39156119
 20
168.63664548
  0
HATCH
  5
413
100
AcDbEntity
  8
MST_1_1
 62
    12
100
AcDbHatch
 10
0.0
 20
0.0
 30
0.0
210
0.0
220
0.0
230
1.0
  2
SOLID
 70
     1
 71
     1
 91
        1
 92
        7
 72
     0
 73
     1
 93
       80
 10
236.39156119
 20
168.63664548
 10
236.52677835
 20
168.6413808
 10
236.65653852
 20
168.65556402
 10
236.78085469
 20
168.67916103
 10
236.89973985
 20
168.71213775
 10
237.01320702
 20
168.75446007
 10
237.12126919
 20
168.80609388
 10
237.22393935
 20
168.8670051
 10
237.32123052
 20
168.93715962
 10
237.41315569
 20
169.01652333
 10
237.49972785
 20
169.10506215
 10
237.57942035
 20
169.20218717
 10
237.65078785
 20
169.30530828
 10
237.71381535
 20
169.4144646
 10
237.76848785
 20
169.52969522
 10
237.81479035
 20
169.65103923
 10
237.85270785
 20
169.77853575
 10
237.88222535
 20
169.91222387
 10
237.90332785
 20
170.05214268
 10
237.91600035
 20
170.1983313
 10
237.92022785
 20
170.35082882
 10
237.91600035
 20
170.50407435
 10
237.90332785
 20
170.65108308
 10
237.88222535
 20
170.79188822
 10
237.85270785
 20
170.92652295
 10
237.81479035
 20
171.05502048
 10
237.76848785
 20
171.17741402
 10
237.71381535
 20
171.29373675
 10
237.65078785
 20
171.40402188
 10
237.57942035
 20
171.50830262
 10
237.49972785
 20
171.60661215
 10
237.41315569
 20
171.69663753
 10
237.32123052
 20
171.77725322
 10
237.22393935
 20
171.8484435
 10
237.12126919
 20
171.91019268
 10
237.01320702
 20
171.96248507
 10
236.89973985
 20
172.00530495
 10
236.78085469
 20
172.03863663
 10
236.65653852
 20
172.06246442
 10
236.52677835
 20
172.0767726
 10
236.39156119
 20
172.08154548
 10
236.25640819
 20
172.07676853
 10
236.12655719
 20
172.06243188
 10
236.00202019
 20
172.03852683
 10
235.88280919
 20
172.00504468
 10
235.76893619
 20
171.96197673
 10
235.66041319
 20
171.90931428
 10
235.55725219
 20
171.84704863
 10
235.45946519
 20
171.77517108
 10
235.36706419
 20
171.69367293
 10
235.28006119
 20
171.60254548
 10
235.19971452
 20
171.50418152
 10
235.12786785
 20
171.39985975
 10
235.06451119
 20
171.28958038
 10
235.00963452
 20
171.17334362
 10
234.96322785
 20
171.05114965
 10
234.92528119
 20
170.92299868
 10
234.89578452
 20
170.78889092
 10
234.87472785
 20
170.64882655
 10
234.86210119
 20
170.50280578
 10
234.85789452
 20
170.35082882
 10
234.86210119
 20
170.1983313
 10
234.87472785
 20
170.05214268
 10
234.89578452
 20
169.91222387
 10
234.92528119
 20
169.77853575
 10
234.96322785
 20
169.65103923
 10
235.00963452
 20
169.52969522
 10
235.06451119
 20
169.4144646
 10
235.12786785
 20
169.30530828
 10
235.19971452
 20
169.20218717
 10
235.28006119
 20
169.10506215
 10
235.36706419
 20
169.01652333
 10
235.45946519
 20
168.93715962
 10
235.55725219
 20
168.8670051
 10
235.66041319
 20
168.80609388
 10
235.76893619
 20
168.75446007
 10
235.88280919
 20
168.71213775
 10
236.00202019
 20
168.67916103
 10
236.12655719
 20
168.65556402
 10
236.25640819
 20
168.6413808
 97
        1
330
412
 75
     0
 76
     2
 47
0.775229
 98
        1
 10
0.0
 20
0.0
  0
LWPOLYLINE
  5
414
102
{ACAD_REACTORS
330
415
102
}
100
AcDbEntity
  8
MST_1_1
 62
   190
100
AcDbPolyline
 90
       60
 70
     1
 43
0.0
 10
222.75252785
 20
165.82567882
 10
222.75252785
 20
174.91219548
 10
222.75252785
 20
174.91219548
 10
226.86279452
 20
174.91219548
 10
226.86279452
 20
174.91219548
 10
227.21153029
 20
174.90429485
 10
227.54347265
 20
174.88060242
 10
227.85861422
 20
174.84113238
 10
228.15694759
 20
174.78589895
 10
228.43846535
 20
174.71491632
 10
228.70316012
 20
174.62819868
 10
228.95102449
 20
174.52576025
 10
229.18205105
 20
174.40761522
 10
229.39623242
 20
174.27377778
 10
229.59356119
 20
174.12426215
 10
229.59356119
 20
174.12426215
 10
229.77276702
 20
173.9596731
 10
229.93308785
 20
173.78110775
 10
230.07452869
 20
173.5885988
 10
230.19709452
 20
173.38217895
 10
230.30079035
 20
173.1618809
 10
230.38562119
 20
172.92773735
 10
230.45159202
 20
172.679781
 10
230.49870785
 20
172.41804455
 10
230.52697369
 20
172.1425607
 10
230.53639452
 20
171.85336215
 10
230.53639452
 20
171.85336215
 10
230.53161285
 20
171.66287758
 10
230.51728119
 20
171.47923162
 10
230.49341952
 20
171.30243585
 10
230.46004785
 20
171.13250188
 10
230.41718619
 20
170.96944132
 10
230.36485452
 20
170.81326575
 10
230.30307285
 20
170.66398678
 10
230.23186119
 20
170.52161602
 10
230.15123952
 20
170.38616505
 10
230.06122785
 20
170.25764548
 10
230.06122785
 20
170.25764548
 10
229.96278685
 20
170.13705323
 10
229.85783985
 20
170.02701748
 10
229.74635085
 20
169.92752473
 10
229.62828385
 20
169.83856148
 10
229.50360285
 20
169.76011423
 10
229.37227185
 20
169.69216948
 10
229.23425485
 20
169.63471373
 10
229.08951585
 20
169.58773348
 10
228.93801885
 20
169.55121523
 10
228.77972785
 20
169.52514548
 10
228.77972785
 20
169.52514548
 10
231.20606119
 20
165.82567882
 10
231.20606119
 20
165.82567882
 10
227.54556119
 20
165.82567882
 10
227.54556119
 20
165.82567882
 10
225.95557785
 20
168.82299548
 10
225.95557785
 20
168.82299548
 10
225.95557785
 20
165.82567882
 10
225.95557785
 20
165.82567882
 10
222.75252785
 20
165.82567882
 10
222.75252785
 20
165.82567882
 10
222.75252785
 20
165.82567882
  0
HATCH
  5
415
100
AcDbEntity
  8
MST_1_1
 62
   190
100
AcDbHatch
 10
0.0
 20
0.0
 30
0.0
210
0.0
220
0.0
230
1.0
  2
SOLID
 70
     1
 71
     1
 91
        1
 92
        7
 72
     0
 73
     1
 93
       47
 10
222.75252785
 20
165.82567882
 10
222.75252785
 20
174.91219548
 10
226.86279452
 20
174.91219548
 10
227.21153029
 20
174.90429485
 10
227.54347265
 20
174.88060242
 10
227.85861422
 20
174.84113238
 10
228.15694759
 20
174.78589895
 10
228.43846535
 20
174.71491632
 10
228.70316012
 20
174.62819868
 10
228.95102449
 20
174.52576025
 10
229.18205105
 20
174.40761522
 10
229.39623242
 20
174.27377778
 10
229.59356119
 20
174.12426215
 10
229.77276702
 20
173.9596731
 10
229.93308785
 20
173.78110775
 10
230.07452869
 20
173.5885988
 10
230.19709452
 20
173.38217895
 10
230.30079035
 20
173.1618809
 10
230.38562119
 20
172.92773735
 10
230.45159202
 20
172.679781
 10
230.49870785
 20
172.41804455
 10
230.52697369
 20
172.1425607
 10
230.53639452
 20
171.85336215
 10
230.53161285
 20
171.66287758
 10
230.51728119
 20
171.47923162
 10
230.49341952
 20
171.30243585
 10
230.46004785
 20
171.13250188
 10
230.41718619
 20
170.96944132
 10
230.36485452
 20
170.81326575
 10
230.30307285
 20
170.66398678
 10
230.23186119
 20
170.52161602
 10
230.15123952
 20
170.38616505
 10
230.06122785
 20
170.25764548
 10
229.96278685
 20
170.13705323
 10
229.85783985
 20
170.02701748
 10
229.74635085
 20
169.92752473
 10
229.62828385
 20
169.83856148
 10
229.50360285
 20
169.76011423
 10
229.37227185
 20
169.69216948
 10
229.23425485
 20
169.63471373
 10
229.08951585
 20
169.58773348
 10
228.93801885
 20
169.55121523
 10
228.77972785
 20
169.52514548
 10
231.20606119
 20
165.82567882
 10
227.54556119
 20
165.82567882
 10
225.95557785
 20
168.82299548
 10
225.95557785
 20
165.82567882
 97
        1
330
414
 75
     0
 76
     2
 47
0.775229
 98
        1
 10
0.0
 20
0.0
  0
LWPOLYLINE
  5
416
102
{ACAD_REACTORS
330
417
102
}
100
AcDbEntity
  8
MST_1_1
 62
    12
100
AcDbPolyline
 90
       52
 70
     1
 43
0.0
 10
225.95557785
 20
172.57356215
 10
225.95557785
 20
170.79851215
 10
225.95557785
 20
170.79851215
 10
226.46469452
 20
170.79851215
 10
226.46469452
 20
170.79851215
 10
226.55574097
 20
170.80078355
 10
226.64242012
 20
170.80759335
 10
226.72474667
 20
170.81893495
 10
226.80273532
 20
170.83480175
 10
226.87640077
 20
170.85518715
 10
226.94575772
 20
170.88008455
 10
227.01082087
 20
170.90948735
 10
227.07160492
 20
170.94338895
 10
227.12812457
 20
170.98178275
 10
227.18039452
 20
171.02466215
 10
227.18039452
 20
171.02466215
 10
227.22823869
 20
171.07174563
 10
227.27106785
 20
171.12276802
 10
227.30887702
 20
171.1777322
 10
227.34166119
 20
171.23664108
 10
227.36941535
 20
171.29949757
 10
227.39213452
 20
171.36630455
 10
227.40981369
 20
171.43706493
 10
227.42244785
 20
171.51178162
 10
227.43003202
 20
171.5904575
 10
227.43256119
 20
171.67309548
 10
227.43256119
 20
171.67309548
 10
227.43003202
 20
171.75793428
 10
227.42244785
 20
171.83876388
 10
227.40981369
 20
171.91557408
 10
227.39213452
 20
171.98835468
 10
227.36941535
 20
172.05709548
 10
227.34166119
 20
172.12178628
 10
227.30887702
 20
172.18241688
 10
227.27106785
 20
172.23897708
 10
227.22823869
 20
172.29145668
 10
227.18039452
 20
172.33984548
 10
227.18039452
 20
172.33984548
 10
227.12812457
 20
172.38398165
 10
227.07160492
 20
172.42355682
 10
227.01082087
 20
172.45855098
 10
226.94575772
 20
172.48894415
 10
226.87640077
 20
172.51471632
 10
226.80273532
 20
172.53584748
 10
226.72474667
 20
172.55231765
 10
226.64242012
 20
172.56410682
 10
226.55574097
 20
172.57119498
 10
226.46469452
 20
172.57356215
 10
226.46469452
 20
172.57356215
 10
225.95557785
 20
172.57356215
 10
225.95557785
 20
172.57356215
 10
225.95557785
 20
172.57356215
  0
HATCH
  5
417
100
AcDbEntity
  8
MST_1_1
 62
    12
100
AcDbHatch
 10
0.0
 20
0.0
 30
0.0
210
0.0
220
0.0
230
1.0
  2
SOLID
 70
     1
 71
     1
 91
        1
 92
        7
 72
     0
 73
     1
 93
       43
 10
225.95557785
 20
172.57356215
 10
225.95557785
 20
170.79851215
 10
226.46469452
 20
170.79851215
 10
226.55574097
 20
170.80078355
 10
226.64242012
 20
170.80759335
 10
226.72474667
 20
170.81893495
 10
226.80273532
 20
170.83480175
 10
226.87640077
 20
170.85518715
 10
226.94575772
 20
170.88008455
 10
227.01082087
 20
170.90948735
 10
227.07160492
 20
170.94338895
 10
227.12812457
 20
170.98178275
 10
227.18039452
 20
171.02466215
 10
227.22823869
 20
171.07174563
 10
227.27106785
 20
171.12276802
 10
227.30887702
 20
171.1777322
 10
227.34166119
 20
171.23664108
 10
227.36941535
 20
171.29949757
 10
227.39213452
 20
171.36630455
 10
227.40981369
 20
171.43706493
 10
227.42244785
 20
171.51178162
 10
227.43003202
 20
171.5904575
 10
227.43256119
 20
171.67309548
 10
227.43003202
 20
171.75793428
 10
227.42244785
 20
171.83876388
 10
227.40981369
 20
171.91557408
 10
227.39213452
 20
171.98835468
 10
227.36941535
 20
172.05709548
 10
227.34166119
 20
172.12178628
 10
227.30887702
 20
172.18241688
 10
227.27106785
 20
172.23897708
 10
227.22823869
 20
172.29145668
 10
227.18039452
 20
172.33984548
 10
227.12812457
 20
172.38398165
 10
227.07160492
 20
172.42355682
 10
227.01082087
 20
172.45855098
 10
226.94575772
 20
172.48894415
 10
226.87640077
 20
172.51471632
 10
226.80273532
 20
172.53584748
 10
226.72474667
 20
172.55231765
 10
226.64242012
 20
172.56410682
 10
226.55574097
 20
172.57119498
 10
226.46469452
 20
172.57356215
 97
        1
330
416
 75
     0
 76
     2
 47
0.775229
 98
        1
 10
0.0
 20
0.0
  0
LWPOLYLINE
  5
418
102
{ACAD_REACTORS
330
419
102
}
100
AcDbEntity
  8
MST_1_1
 62
   190
100
AcDbPolyline
 90
       56
 70
     1
 43
0.0
 10
213.75292785
 20
165.82567882
 10
213.75292785
 20
174.91219548
 10
213.75292785
 20
174.91219548
 10
217.65764452
 20
174.91219548
 10
217.65764452
 20
174.91219548
 10
218.05842067
 20
174.90424682
 10
218.43707172
 20
174.88040415
 10
218.79360157
 20
174.84067248
 10
219.12801412
 20
174.78505682
 10
219.44031327
 20
174.71356215
 10
219.73050292
 20
174.62619348
 10
219.99858697
 20
174.52295582
 10
220.24456932
 20
174.40385415
 10
220.46845387
 20
174.26889348
 10
220.67024452
 20
174.11807882
 10
220.67024452
 20
174.11807882
 10
220.85129972
 20
173.94971748
 10
221.01330412
 20
173.76283015
 10
221.15625592
 20
173.55739682
 10
221.28015332
 20
173.33339748
 10
221.38499452
 20
173.09081215
 10
221.47077772
 20
172.82962082
 10
221.53750112
 20
172.54980348
 10
221.58516292
 20
172.25134015
 10
221.61376132
 20
171.93421082
 10
221.62329452
 20
171.59839548
 10
221.62329452
 20
171.59839548
 10
221.61472462
 20
171.28540347
 10
221.58902132
 20
170.98974135
 10
221.54619422
 20
170.71141503
 10
221.48625292
 20
170.45043042
 10
221.40920702
 20
170.2067934
 10
221.31506612
 20
169.98050988
 10
221.20383982
 20
169.77158577
 10
221.07553772
 20
169.58002695
 10
220.93016942
 20
169.40583933
 10
220.76774452
 20
169.24902882
 10
220.76774452
 20
169.24902882
 10
220.58599185
 20
169.10847137
 10
220.38418919
 20
168.98265722
 10
220.16232952
 20
168.87159867
 10
219.92040585
 20
168.77530802
 10
219.65841119
 20
168.69379757
 10
219.37633852
 20
168.62707962
 10
219.07418085
 20
168.57516647
 10
218.75193119
 20
168.53807042
 10
218.40958252
 20
168.51580377
 10
218.04712785
 20
168.50837882
 10
218.04712785
 20
168.50837882
 10
217.02417785
 20
168.50837882
 10
217.02417785
 20
168.50837882
 10
217.02417785
 20
165.82567882
 10
217.02417785
 20
165.82567882
 10
213.75292785
 20
165.82567882
 10
213.75292785
 20
165.82567882
 10
213.75292785
 20
165.82567882
  0
HATCH
  5
419
100
AcDbEntity
  8
MST_1_1
 62
   190
100
AcDbHatch
 10
0.0
 20
0.0
 30
0.0
210
0.0
220
0.0
230
1.0
  2
SOLID
 70
     1
 71
     1
 91
        1
 92
        7
 72
     0
 73
     1
 93
       45
 10
213.75292785
 20
165.82567882
 10
213.75292785
 20
174.91219548
 10
217.65764452
 20
174.91219548
 10
218.05842067
 20
174.90424682
 10
218.43707172
 20
174.88040415
 10
218.79360157
 20
174.84067248
 10
219.12801412
 20
174.78505682
 10
219.44031327
 20
174.71356215
 10
219.73050292
 20
174.62619348
 10
219.99858697
 20
174.52295582
 10
220.24456932
 20
174.40385415
 10
220.46845387
 20
174.26889348
 10
220.67024452
 20
174.11807882
 10
220.85129972
 20
173.94971748
 10
221.01330412
 20
173.76283015
 10
221.15625592
 20
173.55739682
 10
221.28015332
 20
173.33339748
 10
221.38499452
 20
173.09081215
 10
221.47077772
 20
172.82962082
 10
221.53750112
 20
172.54980348
 10
221.58516292
 20
172.25134015
 10
221.61376132
 20
171.93421082
 10
221.62329452
 20
171.59839548
 10
221.61472462
 20
171.28540347
 10
221.58902132
 20
170.98974135
 10
221.54619422
 20
170.71141503
 10
221.48625292
 20
170.45043042
 10
221.40920702
 20
170.2067934
 10
221.31506612
 20
169.98050988
 10
221.20383982
 20
169.77158577
 10
221.07553772
 20
169.58002695
 10
220.93016942
 20
169.40583933
 10
220.76774452
 20
169.24902882
 10
220.58599185
 20
169.10847137
 10
220.38418919
 20
168.98265722
 10
220.16232952
 20
168.87159867
 10
219.92040585
 20
168.77530802
 10
219.65841119
 20
168.69379757
 10
219.37633852
 20
168.62707962
 10
219.07418085
 20
168.57516647
 10
218.75193119
 20
168.53807042
 10
218.40958252
 20
168.51580377
 10
218.04712785
 20
168.50837882
 10
217.02417785
 20
168.50837882
 10
217.02417785
 20
165.82567882
 97
        1
330
418
 75
     0
 76
     2
 47
0.775229
 98
        1
 10
0.0
 20
0.0
  0
LWPOLYLINE
  5
41A
102
{ACAD_REACTORS
330
41B
102
}
100
AcDbEntity
  8
MST_1_1
 62
    12
100
AcDbPolyline
 90
       52
 70
     1
 43
0.0
 10
217.03694452
 20
172.38664548
 10
217.03694452
 20
170.87207882
 10
217.03694452
 20
170.87207882
 10
217.54459452
 20
170.87207882
 10
217.54459452
 20
170.87207882
 10
217.63543264
 20
170.87404712
 10
217.72203745
 20
170.87994522
 10
217.80437967
 20
170.88976292
 10
217.88242999
 20
170.90349002
 10
217.9561591
 20
170.92111632
 10
218.02553772
 20
170.94263162
 10
218.09053654
 20
170.96802572
 10
218.15112625
 20
170.99728842
 10
218.20727757
 20
171.03040952
 10
218.25896119
 20
171.06737882
 10
218.25896119
 20
171.06737882
 10
218.30602994
 20
171.10819618
 10
218.34816319
 20
171.15228375
 10
218.38535644
 20
171.19964972
 10
218.41760519
 20
171.25030228
 10
218.44490494
 20
171.30424965
 10
218.46725119
 20
171.36150002
 10
218.48463944
 20
171.42206158
 10
218.49706519
 20
171.48594255
 10
218.50452394
 20
171.55315112
 10
218.50701119
 20
171.62369548
 10
218.50701119
 20
171.62369548
 10
218.50447742
 20
171.69395317
 10
218.49686905
 20
171.76106895
 10
218.48417549
 20
171.82504693
 10
218.46638612
 20
171.88589122
 10
218.44349035
 20
171.9436059
 10
218.41547759
 20
171.99819508
 10
218.38233722
 20
172.04966287
 10
218.34405865
 20
172.09801335
 10
218.30063129
 20
172.14325063
 10
218.25204452
 20
172.18537882
 10
218.25204452
 20
172.18537882
 10
218.19929862
 20
172.22341023
 10
218.14257532
 20
172.25750415
 10
218.08186622
 20
172.28764507
 10
218.01716292
 20
172.31381748
 10
217.94845702
 20
172.3360059
 10
217.87574012
 20
172.35419482
 10
217.79900382
 20
172.36836873
 10
217.71823972
 20
172.37851215
 10
217.63343942
 20
172.38460957
 10
217.54459452
 20
172.38664548
 10
217.54459452
 20
172.38664548
 10
217.03694452
 20
172.38664548
 10
217.03694452
 20
172.38664548
 10
217.03694452
 20
172.38664548
  0
HATCH
  5
41B
100
AcDbEntity
  8
MST_1_1
 62
    12
100
AcDbHatch
 10
0.0
 20
0.0
 30
0.0
210
0.0
220
0.0
230
1.0
  2
SOLID
 70
     1
 71
     1
 91
        1
 92
        7
 72
     0
 73
     1
 93
       43
 10
217.03694452
 20
172.38664548
 10
217.03694452
 20
170.87207882
 10
217.54459452
 20
170.87207882
 10
217.63543264
 20
170.87404712
 10
217.72203745
 20
170.87994522
 10
217.80437967
 20
170.88976292
 10
217.88242999
 20
170.90349002
 10
217.9561591
 20
170.92111632
 10
218.02553772
 20
170.94263162
 10
218.09053654
 20
170.96802572
 10
218.15112625
 20
170.99728842
 10
218.20727757
 20
171.03040952
 10
218.25896119
 20
171.06737882
 10
218.30602994
 20
171.10819618
 10
218.34816319
 20
171.15228375
 10
218.38535644
 20
171.19964972
 10
218.41760519
 20
171.25030228
 10
218.44490494
 20
171.30424965
 10
218.46725119
 20
171.36150002
 10
218.48463944
 20
171.42206158
 10
218.49706519
 20
171.48594255
 10
218.50452394
 20
171.55315112
 10
218.50701119
 20
171.62369548
 10
218.50447742
 20
171.69395317
 10
218.49686905
 20
171.76106895
 10
218.48417549
 20
171.82504693
 10
218.46638612
 20
171.88589122
 10
218.44349035
 20
171.9436059
 10
218.41547759
 20
171.99819508
 10
218.38233722
 20
172.04966287
 10
218.34405865
 20
172.09801335
 10
218.30063129
 20
172.14325063
 10
218.25204452
 20
172.18537882
 10
218.19929862
 20
172.22341023
 10
218.14257532
 20
172.25750415
 10
218.08186622
 20
172.28764507
 10
218.01716292
 20
172.31381748
 10
217.94845702
 20
172.3360059
 10
217.87574012
 20
172.35419482
 10
217.79900382
 20
172.36836873
 10
217.71823972
 20
172.37851215
 10
217.63343942
 20
172.38460957
 10
217.54459452
 20
172.38664548
 97
        1
330
41A
 75
     0
 76
     2
 47
0.775229
 98
        1
 10
0.0
 20
0.0
  0
LWPOLYLINE
  5
41C
102
{ACAD_REACTORS
330
41D
102
}
100
AcDbEntity
  8
MST_1_1
 62
    12
100
AcDbPolyline
 90
       10
 70
     1
 43
0.0
 10
254.79939452
 20
165.82567882
 10
254.79939452
 20
174.91219548
 10
254.79939452
 20
174.91219548
 10
259.26722785
 20
174.91219548
 10
259.26722785
 20
174.91219548
 10
259.26722785
 20
165.82567882
 10
259.26722785
 20
165.82567882
 10
254.79939452
 20
165.82567882
 10
254.79939452
 20
165.82567882
 10
254.79939452
 20
165.82567882
  0
HATCH
  5
41D
100
AcDbEntity
  8
MST_1_1
 62
    12
100
AcDbHatch
 10
0.0
 20
0.0
 30
0.0
210
0.0
220
0.0
230
1.0
  2
SOLID
 70
     1
 71
     1
 91
        1
 92
        7
 72
     0
 73
     1
 93
        4
 10
254.79939452
 20
165.82567882
 10
254.79939452
 20
174.91219548
 10
259.26722785
 20
174.91219548
 10
259.26722785
 20
165.82567882
 97
        1
330
41C
 75
     0
 76
     2
 47
0.775229
 98
        1
 10
0.0
 20
0.0
  0
LWPOLYLINE
  5
41E
102
{ACAD_REACTORS
330
41F
102
}
100
AcDbEntity
  8
MST_1_1
 62
    12
100
AcDbPolyline
 90
      114
 70
     1
 43
0.0
 10
267.01656119
 20
167.88679548
 10
266.98220719
 20
167.94161383
 10
266.94964919
 20
167.99416428
 10
266.91889319
 20
168.04446993
 10
266.88994519
 20
168.09255388
 10
266.86281119
 20
168.13843923
 10
266.83749719
 20
168.18214908
 10
266.81400919
 20
168.22370653
 10
266.79235319
 20
168.26313468
 10
266.77253519
 20
168.30045663
 10
266.75456119
 20
168.33569548
 10
266.75456119
 20
168.33569548
 10
266.73725852
 20
168.36964665
 10
266.72093985
 20
168.40285682
 10
266.70558919
 20
168.43533598
 10
266.69119052
 20
168.46709415
 10
266.67772785
 20
168.49814132
 10
266.66518519
 20
168.52848748
 10
266.65354652
 20
168.55814265
 10
266.64279585
 20
168.58711682
 10
266.63291719
 20
168.61541998
 10
266.62389452
 20
168.64306215
 10
266.62389452
 20
168.64306215
 10
266.61623019
 20
168.61685817
 10
266.60779985
 20
168.59009428
 10
266.59854752
 20
168.5627676
 10
266.58841719
 20
168.53487522
 10
266.57735285
 20
168.50641423
 10
266.56529852
 20
168.47738175
 10
266.55219819
 20
168.44777487
 10
266.53799585
 20
168.41759068
 10
266.52263552
 20
168.3868263
 10
266.50606119
 20
168.35547882
 10
266.50606119
 20
168.35547882
 10
266.48872485
 20
168.32207283
 10
266.46873052
 20
168.28563495
 10
266.44610019
 20
168.24618027
 10
266.42085585
 20
168.20372388
 10
266.39301952
 20
168.1582809
 10
266.36261319
 20
168.10986642
 10
266.32965885
 20
168.05849553
 10
266.29417852
 20
168.00418335
 10
266.25619419
 20
167.94694497
 10
266.21572785
 20
167.88679548
 10
266.21572785
 20
167.88679548
 10
264.82606119
 20
165.82567882
 10
264.82606119
 20
165.82567882
 10
259.79839452
 20
165.82567882
 10
259.79839452
 20
165.82567882
 10
264.14122785
 20
170.66569548
 10
264.14122785
 20
170.66569548
 10
260.30922785
 20
174.91219548
 10
260.30922785
 20
174.91219548
 10
265.32872785
 20
174.91219548
 10
265.32872785
 20
174.91219548
 10
266.23206119
 20
173.42911215
 10
266.23206119
 20
173.42911215
 10
266.23488719
 20
173.42359907
 10
266.23824919
 20
173.41750148
 10
266.24212319
 20
173.4108219
 10
266.24648519
 20
173.40356282
 10
266.25131119
 20
173.39572673
 10
266.25657719
 20
173.38731615
 10
266.26225919
 20
173.37833357
 10
266.26833319
 20
173.36878148
 10
266.27477519
 20
173.3586624
 10
266.28156119
 20
173.34797882
 10
266.28156119
 20
173.34797882
 10
266.33029652
 20
173.2653259
 10
266.37580385
 20
173.18607748
 10
266.41808519
 20
173.11024907
 10
266.45714252
 20
173.03785615
 10
266.49297785
 20
172.96891423
 10
266.52559319
 20
172.90343882
 10
266.55499052
 20
172.8414454
 10
266.58117185
 20
172.78294948
 10
266.60413919
 20
172.72796657
 10
266.62389452
 20
172.67651215
 10
266.62389452
 20
172.67651215
 10
266.63600819
 20
172.70915545
 10
266.64866385
 20
172.74190455
 10
266.66188352
 20
172.77477325
 10
266.67568919
 20
172.80777535
 10
266.69010285
 20
172.84092465
 10
266.70514652
 20
172.87423495
 10
266.72084219
 20
172.90772005
 10
266.73721185
 20
172.94139375
 10
266.75427752
 20
172.97526985
 10
266.77206119
 20
173.00936215
 10
266.77206119
 20
173.00936215
 10
266.78934752
 20
173.0444445
 10
266.80797185
 20
173.08108495
 10
266.82788219
 20
173.1192736
 10
266.84902652
 20
173.15900055
 10
266.87135285
 20
173.2002559
 10
266.89480919
 20
173.24302975
 10
266.91934352
 20
173.2873122
 10
266.94490385
 20
173.33309335
 10
266.97143819
 20
173.3803633
 10
266.99889452
 20
173.42911215
 10
266.99889452
 20
173.42911215
 10
267.92639452
 20
174.91219548
 10
267.92639452
 20
174.91219548
 10
272.92306119
 20
174.91219548
 10
272.92306119
 20
174.91219548
 10
269.10372785
 20
170.66569548
 10
269.10372785
 20
170.66569548
 10
273.45139452
 20
165.82567882
 10
273.45139452
 20
165.82567882
 10
268.41922785
 20
165.82567882
 10
268.41922785
 20
165.82567882
 10
267.01656119
 20
167.88679548
 10
267.01656119
 20
167.88679548
 10
267.01656119
 20
167.88679548
  0
HATCH
  5
41F
100
AcDbEntity
  8
MST_1_1
 62
    12
100
AcDbHatch
 10
0.0
 20
0.0
 30
0.0
210
0.0
220
0.0
230
1.0
  2
SOLID
 70
     1
 71
     1
 91
        1
 92
        7
 72
     0
 73
     1
 93
       92
 10
267.01656119
 20
167.88679548
 10
266.98220719
 20
167.94161383
 10
266.94964919
 20
167.99416428
 10
266.91889319
 20
168.04446993
 10
266.88994519
 20
168.09255388
 10
266.86281119
 20
168.13843923
 10
266.83749719
 20
168.18214908
 10
266.81400919
 20
168.22370653
 10
266.79235319
 20
168.26313468
 10
266.77253519
 20
168.30045663
 10
266.75456119
 20
168.33569548
 10
266.73725852
 20
168.36964665
 10
266.72093985
 20
168.40285682
 10
266.70558919
 20
168.43533598
 10
266.69119052
 20
168.46709415
 10
266.67772785
 20
168.49814132
 10
266.66518519
 20
168.52848748
 10
266.65354652
 20
168.55814265
 10
266.64279585
 20
168.58711682
 10
266.63291719
 20
168.61541998
 10
266.62389452
 20
168.64306215
 10
266.61623019
 20
168.61685817
 10
266.60779985
 20
168.59009428
 10
266.59854752
 20
168.5627676
 10
266.58841719
 20
168.53487522
 10
266.57735285
 20
168.50641423
 10
266.56529852
 20
168.47738175
 10
266.55219819
 20
168.44777487
 10
266.53799585
 20
168.41759068
 10
266.52263552
 20
168.3868263
 10
266.50606119
 20
168.35547882
 10
266.48872485
 20
168.32207283
 10
266.46873052
 20
168.28563495
 10
266.44610019
 20
168.24618027
 10
266.42085585
 20
168.20372388
 10
266.39301952
 20
168.1582809
 10
266.36261319
 20
168.10986642
 10
266.32965885
 20
168.05849553
 10
266.29417852
 20
168.00418335
 10
266.25619419
 20
167.94694497
 10
266.21572785
 20
167.88679548
 10
264.82606119
 20
165.82567882
 10
259.79839452
 20
165.82567882
 10
264.14122785
 20
170.66569548
 10
260.30922785
 20
174.91219548
 10
265.32872785
 20
174.91219548
 10
266.23206119
 20
173.42911215
 10
266.23488719
 20
173.42359907
 10
266.23824919
 20
173.41750148
 10
266.24212319
 20
173.4108219
 10
266.24648519
 20
173.40356282
 10
266.25131119
 20
173.39572673
 10
266.25657719
 20
173.38731615
 10
266.26225919
 20
173.37833357
 10
266.26833319
 20
173.36878148
 10
266.27477519
 20
173.3586624
 10
266.28156119
 20
173.34797882
 10
266.33029652
 20
173.2653259
 10
266.37580385
 20
173.18607748
 10
266.41808519
 20
173.11024907
 10
266.45714252
 20
173.03785615
 10
266.49297785
 20
172.96891423
 10
266.52559319
 20
172.90343882
 10
266.55499052
 20
172.8414454
 10
266.58117185
 20
172.78294948
 10
266.60413919
 20
172.72796657
 10
266.62389452
 20
172.67651215
 10
266.63600819
 20
172.70915545
 10
266.64866385
 20
172.74190455
 10
266.66188352
 20
172.77477325
 10
266.67568919
 20
172.80777535
 10
266.69010285
 20
172.84092465
 10
266.70514652
 20
172.87423495
 10
266.72084219
 20
172.90772005
 10
266.73721185
 20
172.94139375
 10
266.75427752
 20
172.97526985
 10
266.77206119
 20
173.00936215
 10
266.78934752
 20
173.0444445
 10
266.80797185
 20
173.08108495
 10
266.82788219
 20
173.1192736
 10
266.84902652
 20
173.15900055
 10
266.87135285
 20
173.2002559
 10
266.89480919
 20
173.24302975
 10
266.91934352
 20
173.2873122
 10
266.94490385
 20
173.33309335
 10
266.97143819
 20
173.3803633
 10
266.99889452
 20
173.42911215
 10
267.92639452
 20
174.91219548
 10
272.92306119
 20
174.91219548
 10
269.10372785
 20
170.66569548
 10
273.45139452
 20
165.82567882
 10
268.41922785
 20
165.82567882
 97
        1
330
41E
 75
     0
 76
     2
 47
0.775229
 98
        1
 10
0.0
 20
0.0
  0
LWPOLYLINE
  5
420
102
{ACAD_REACTORS
330
421
102
}
100
AcDbEntity
  8
MST_1_1
 62
     7
100
AcDbPolyline
 90
       46
 70
     1
 43
0.0
 10
277.76656119
 20
181.03824548
 10
277.87909169
 20
181.02913198
 10
277.98600519
 20
181.00275748
 10
278.08583469
 20
180.96057098
 10
278.17711319
 20
180.90402148
 10
278.25837369
 20
180.83455798
 10
278.32814919
 20
180.75362948
 10
278.38497269
 20
180.66268498
 10
278.42737719
 20
180.56317348
 10
278.45389569
 20
180.45654398
 10
278.46306119
 20
180.34424548
 10
278.46306119
 20
180.34424548
 10
278.45389569
 20
180.23209182
 10
278.42737719
 20
180.12559615
 10
278.38497269
 20
180.02620648
 10
278.32814919
 20
179.93537082
 10
278.25837369
 20
179.85453715
 10
278.17711319
 20
179.78515348
 10
278.08583469
 20
179.72866782
 10
277.98600519
 20
179.68652815
 10
277.87909169
 20
179.66018248
 10
277.76656119
 20
179.65107882
 10
277.76656119
 20
179.65107882
 10
277.65344035
 20
179.66018248
 10
277.54613452
 20
179.68652815
 10
277.44607869
 20
179.72866782
 10
277.35470785
 20
179.78515348
 10
277.27345702
 20
179.85453715
 10
277.20376119
 20
179.93537082
 10
277.14705535
 20
180.02620648
 10
277.10477452
 20
180.12559615
 10
277.07835369
 20
180.23209182
 10
277.06922785
 20
180.34424548
 10
277.06922785
 20
180.34424548
 10
277.07835369
 20
180.45654398
 10
277.10477452
 20
180.56317348
 10
277.14705535
 20
180.66268498
 10
277.20376119
 20
180.75362948
 10
277.27345702
 20
180.83455798
 10
277.35470785
 20
180.90402148
 10
277.44607869
 20
180.96057098
 10
277.54613452
 20
181.00275748
 10
277.65344035
 20
181.02913198
 10
277.76656119
 20
181.03824548
 10
277.76656119
 20
181.03824548
 10
277.76656119
 20
181.03824548
  0
HATCH
  5
421
100
AcDbEntity
  8
MST_1_1
 62
     7
100
AcDbHatch
 10
0.0
 20
0.0
 30
0.0
210
0.0
220
0.0
230
1.0
  2
SOLID
 70
     1
 71
     1
 91
        1
 92
        7
 72
     0
 73
     1
 93
       40
 10
277.76656119
 20
181.03824548
 10
277.87909169
 20
181.02913198
 10
277.98600519
 20
181.00275748
 10
278.08583469
 20
180.96057098
 10
278.17711319
 20
180.90402148
 10
278.25837369
 20
180.83455798
 10
278.32814919
 20
180.75362948
 10
278.38497269
 20
180.66268498
 10
278.42737719
 20
180.56317348
 10
278.45389569
 20
180.45654398
 10
278.46306119
 20
180.34424548
 10
278.45389569
 20
180.23209182
 10
278.42737719
 20
180.12559615
 10
278.38497269
 20
180.02620648
 10
278.32814919
 20
179.93537082
 10
278.25837369
 20
179.85453715
 10
278.17711319
 20
179.78515348
 10
278.08583469
 20
179.72866782
 10
277.98600519
 20
179.68652815
 10
277.87909169
 20
179.66018248
 10
277.76656119
 20
179.65107882
 10
277.65344035
 20
179.66018248
 10
277.54613452
 20
179.68652815
 10
277.44607869
 20
179.72866782
 10
277.35470785
 20
179.78515348
 10
277.27345702
 20
179.85453715
 10
277.20376119
 20
179.93537082
 10
277.14705535
 20
180.02620648
 10
277.10477452
 20
180.12559615
 10
277.07835369
 20
180.23209182
 10
277.06922785
 20
180.34424548
 10
277.07835369
 20
180.45654398
 10
277.10477452
 20
180.56317348
 10
277.14705535
 20
180.66268498
 10
277.20376119
 20
180.75362948
 10
277.27345702
 20
180.83455798
 10
277.35470785
 20
180.90402148
 10
277.44607869
 20
180.96057098
 10
277.54613452
 20
181.00275748
 10
277.65344035
 20
181.02913198
 97
        1
330
420
 75
     0
 76
     2
 47
0.775229
 98
        1
 10
0.0
 20
0.0
  0
LWPOLYLINE
  5
422
102
{ACAD_REACTORS
330
423
102
}
100
AcDbEntity
  8
MST_1_1
 62
    12
100
AcDbPolyline
 90
       29
 70
     1
 43
0.0
 10
277.44689452
 20
180.82624548
 10
277.44689452
 20
179.91957882
 10
277.44689452
 20
179.91957882
 10
277.58106119
 20
179.91957882
 10
277.58106119
 20
179.91957882
 10
277.58106119
 20
180.32657882
 10
277.58106119
 20
180.32657882
 10
277.75939452
 20
180.32657882
 10
277.75939452
 20
180.32657882
 10
278.01872785
 20
179.92557882
 10
278.01872785
 20
179.92557882
 10
278.15489452
 20
179.92557882
 10
278.15489452
 20
179.92557882
 10
277.89606119
 20
180.33391215
 10
277.89606119
 20
180.33391215
 10
277.98464819
 20
180.35233382
 10
278.05431719
 20
180.39248548
 10
278.10478019
 20
180.44879715
 10
278.13574919
 20
180.51569882
 10
278.14693619
 20
180.58762048
 10
278.13805319
 20
180.65899215
 10
278.10881219
 20
180.72424382
 10
278.05892519
 20
180.77780548
 10
277.98810419
 20
180.81410715
 10
277.89606119
 20
180.82757882
 10
277.89606119
 20
180.82757882
 10
277.44689452
 20
180.82624548
 10
277.44689452
 20
180.82624548
 10
277.44689452
 20
180.82624548
  0
HATCH
  5
423
100
AcDbEntity
  8
MST_1_1
 62
    12
100
AcDbHatch
 10
0.0
 20
0.0
 30
0.0
210
0.0
220
0.0
230
1.0
  2
SOLID
 70
     1
 71
     1
 91
        1
 92
        7
 72
     0
 73
     1
 93
       18
 10
277.44689452
 20
180.82624548
 10
277.44689452
 20
179.91957882
 10
277.58106119
 20
179.91957882
 10
277.58106119
 20
180.32657882
 10
277.75939452
 20
180.32657882
 10
278.01872785
 20
179.92557882
 10
278.15489452
 20
179.92557882
 10
277.89606119
 20
180.33391215
 10
277.98464819
 20
180.35233382
 10
278.05431719
 20
180.39248548
 10
278.10478019
 20
180.44879715
 10
278.13574919
 20
180.51569882
 10
278.14693619
 20
180.58762048
 10
278.13805319
 20
180.65899215
 10
278.10881219
 20
180.72424382
 10
278.05892519
 20
180.77780548
 10
277.98810419
 20
180.81410715
 10
277.89606119
 20
180.82757882
 97
        1
330
422
 75
     0
 76
     2
 47
0.775229
 98
        1
 10
0.0
 20
0.0
  0
LWPOLYLINE
  5
424
102
{ACAD_REACTORS
330
425
102
}
100
AcDbEntity
  8
MST_1_1
 62
     7
100
AcDbPolyline
 90
       19
 70
     1
 43
0.0
 10
277.58106119
 20
180.72307882
 10
277.58106119
 20
180.43241215
 10
277.58106119
 20
180.43241215
 10
277.88239452
 20
180.43324548
 10
277.88239452
 20
180.43324548
 10
277.93537302
 20
180.44509582
 10
277.97684252
 20
180.46946815
 10
278.00670402
 20
180.50309448
 10
278.02485852
 20
180.54270682
 10
278.03120702
 20
180.58503715
 10
278.02565052
 20
180.62681748
 10
278.00809002
 20
180.66477982
 10
277.97842652
 20
180.69565615
 10
277.93656102
 20
180.71617848
 10
277.88239452
 20
180.72307882
 10
277.88239452
 20
180.72307882
 10
277.58106119
 20
180.72307882
 10
277.58106119
 20
180.72307882
 10
277.58106119
 20
180.72307882
  0
HATCH
  5
425
100
AcDbEntity
  8
MST_1_1
 62
     7
100
AcDbHatch
 10
0.0
 20
0.0
 30
0.0
210
0.0
220
0.0
230
1.0
  2
SOLID
 70
     1
 71
     1
 91
        1
 92
        7
 72
     0
 73
     1
 93
       13
 10
277.58106119
 20
180.72307882
 10
277.58106119
 20
180.43241215
 10
277.88239452
 20
180.43324548
 10
277.93537302
 20
180.44509582
 10
277.97684252
 20
180.46946815
 10
278.00670402
 20
180.50309448
 10
278.02485852
 20
180.54270682
 10
278.03120702
 20
180.58503715
 10
278.02565052
 20
180.62681748
 10
278.00809002
 20
180.66477982
 10
277.97842652
 20
180.69565615
 10
277.93656102
 20
180.71617848
 10
277.88239452
 20
180.72307882
 97
        1
330
424
 75
     0
 76
     2
 47
0.775229
 98
        1
 10
0.0
 20
0.0
  0
TEXT
  5
426
100
AcDbEntity
  8
MST_1_1
 62
     7
100
AcDbText
 10
52.93749597
 20
28.54545025
 30
0.0
 40
5.0
  1
50
  7
ARIAL
 50
89.9999975
 41
0.8
 51
0.0
100
AcDbText
  0
TEXT
  5
427
100
AcDbEntity
  8
MST_1_1
 62
     7
100
AcDbText
 10
42.93749597
 20
28.54545025
 30
0.0
 40
5.0
  1
40
  7
ARIAL
 50
89.9999975
 41
0.8
 51
0.0
100
AcDbText
  0
TEXT
  5
428
100
AcDbEntity
  8
MST_1_1
 62
     7
100
AcDbText
 10
37.93749597
 20
18.54545025
 30
0.0
 40
5.0
  1
35
  7
ARIAL
 50
89.9999975
 41
0.8
 51
0.0
100
AcDbText
  0
TEXT
  5
429
100
AcDbEntity
  8
MST_1_1
 62
     7
100
AcDbText
 10
32.93749597
 20
28.54545025
 30
0.0
 40
5.0
  1
30
  7
ARIAL
 50
89.9999975
 41
0.8
 51
0.0
100
AcDbText
  0
TEXT
  5
42A
100
AcDbEntity
  8
MST_1_1
 62
     7
100
AcDbText
 10
22.93749597
 20
28.54545025
 30
0.0
 40
5.0
  1
20
  7
ARIAL
 50
89.9999975
 41
0.8
 51
0.0
100
AcDbText
  0
TEXT
  5
42B
100
AcDbEntity
  8
MST_1_1
 62
     7
100
AcDbText
 10
27.93749597
 20
18.54545025
 30
0.0
 40
5.0
  1
25
  7
ARIAL
 50
89.9999975
 41
0.8
 51
0.0
100
AcDbText
  0
TEXT
  5
42C
100
AcDbEntity
  8
MST_1_1
 62
     7
100
AcDbText
 10
18.93749597
 20
18.54545025
 30
0.0
 40
5.0
  1
16
  7
ARIAL
 50
89.9999975
 41
0.8
 51
0.0
100
AcDbText
  0
TEXT
  5
42D
100
AcDbEntity
  8
MST_1_1
 62
     7
100
AcDbText
 10
14.93749597
 20
28.54545025
 30
0.0
 40
5.0
  1
12
  7
ARIAL
 50
89.9999975
 41
0.8
 51
0.0
100
AcDbText
  0
TEXT
  5
42E
100
AcDbEntity
  8
MST_1_1
 62
     7
100
AcDbText
 10
-74.34408066
 20
6.04545025
 30
0.0
 40
5.0
  1
HECO-FIX-plus SK 4.0x12
  7
ARIAL
 50
0.0
 41
0.8
 51
0.0
100
AcDbText
  0
TEXT
  5
42F
100
AcDbEntity
  8
MST_1_1
 62
     7
100
AcDbText
 10
-74.34408066
 20
-23.95454975
 30
0.0
 40
5.0
  1
HECO-FIX-plus SK 4.0x16
  7
ARIAL
 50
0.0
 41
0.8
 51
0.0
100
AcDbText
  0
TEXT
  5
430
100
AcDbEntity
  8
MST_1_1
 62
     7
100
AcDbText
 10
-74.34408066
 20
-53.95454975
 30
0.0
 40
5.0
  1
HECO-FIX-plus SK 4.0x20
  7
ARIAL
 50
0.0
 41
0.8
 51
0.0
100
AcDbText
  0
TEXT
  5
431
100
AcDbEntity
  8
MST_1_1
 62
     7
100
AcDbText
 10
-74.34408066
 20
-83.95454975
 30
0.0
 40
5.0
  1
HECO-FIX-plus SK 4.0x25
  7
ARIAL
 50
0.0
 41
0.8
 51
0.0
100
AcDbText
  0
TEXT
  5
432
100
AcDbEntity
  8
MST_1_1
 62
     7
100
AcDbText
 10
-74.34408066
 20
-113.95454975
 30
0.0
 40
5.0
  1
HECO-FIX-plus SK 4.0x30
  7
ARIAL
 50
0.0
 41
0.8
 51
0.0
100
AcDbText
  0
TEXT
  5
433
100
AcDbEntity
  8
MST_1_1
 62
     7
100
AcDbText
 10
-74.34408066
 20
-143.95454975
 30
0.0
 40
5.0
  1
HECO-FIX-plus SK 4.0x35
  7
ARIAL
 50
0.0
 41
0.8
 51
0.0
100
AcDbText
  0
TEXT
  5
434
100
AcDbEntity
  8
MST_1_1
 62
     7
100
AcDbText
 10
-74.34408066
 20
-173.95454975
 30
0.0
 40
5.0
  1
HECO-FIX-plus SK 4.0x40
  7
ARIAL
 50
0.0
 41
0.8
 51
0.0
100
AcDbText
  0
TEXT
  5
435
100
AcDbEntity
  8
MST_1_1
 62
     7
100
AcDbText
 10
-74.34408066
 20
-203.95454975
 30
0.0
 40
5.0
  1
HECO-FIX-plus SK 4.0x45
  7
ARIAL
 50
0.0
 41
0.8
 51
0.0
100
AcDbText
  0
TEXT
  5
436
100
AcDbEntity
  8
MST_1_1
 62
     7
100
AcDbText
 10
47.93749597
 20
18.54545025
 30
0.0
 40
5.0
  1
45
  7
ARIAL
 50
89.9999975
 41
0.8
 51
0.0
100
AcDbText
  0
TEXT
  5
437
100
AcDbEntity
  8
MST_1_1
 62
     7
100
AcDbText
 10
-74.34408066
 20
-233.95454975
 30
0.0
 40
5.0
  1
HECO-FIX-plus SK 4.0x50
  7
ARIAL
 50
0.0
 41
0.8
 51
0.0
100
AcDbText
  0
TEXT
  5
438
100
AcDbEntity
  8
MST_1_1
 62
     7
100
AcDbText
 10
-127.46006385
 20
6.04545025
 30
0.0
 40
5.0
  1
T-Drive T15
  7
ARIAL
 50
0.0
 41
0.8
 51
0.0
100
AcDbText
  0
TEXT
  5
439
100
AcDbEntity
  8
MST_1_1
 62
     7
100
AcDbText
 10
-127.46006385
 20
-23.95454975
 30
0.0
 40
5.0
  1
T-Drive T15
  7
ARIAL
 50
0.0
 41
0.8
 51
0.0
100
AcDbText
  0
TEXT
  5
43A
100
AcDbEntity
  8
MST_1_1
 62
     7
100
AcDbText
 10
-127.46006385
 20
-53.95454975
 30
0.0
 40
5.0
  1
T-Drive T15
  7
ARIAL
 50
0.0
 41
0.8
 51
0.0
100
AcDbText
  0
TEXT
  5
43B
100
AcDbEntity
  8
MST_1_1
 62
     7
100
AcDbText
 10
-127.46006385
 20
-83.95454975
 30
0.0
 40
5.0
  1
T-Drive T15
  7
ARIAL
 50
0.0
 41
0.8
 51
0.0
100
AcDbText
  0
TEXT
  5
43C
100
AcDbEntity
  8
MST_1_1
 62
     7
100
AcDbText
 10
-127.46006385
 20
-113.95454975
 30
0.0
 40
5.0
  1
T-Drive T15
  7
ARIAL
 50
0.0
 41
0.8
 51
0.0
100
AcDbText
  0
TEXT
  5
43D
100
AcDbEntity
  8
MST_1_1
 62
     7
100
AcDbText
 10
-127.46006385
 20
-143.95454975
 30
0.0
 40
5.0
  1
T-Drive T15
  7
ARIAL
 50
0.0
 41
0.8
 51
0.0
100
AcDbText
  0
TEXT
  5
43E
100
AcDbEntity
  8
MST_1_1
 62
     7
100
AcDbText
 10
-127.46006385
 20
-173.95454975
 30
0.0
 40
5.0
  1
T-Drive T15
  7
ARIAL
 50
0.0
 41
0.8
 51
0.0
100
AcDbText
  0
TEXT
  5
43F
100
AcDbEntity
  8
MST_1_1
 62
     7
100
AcDbText
 10
-127.46006385
 20
-203.95454975
 30
0.0
 40
5.0
  1
T-Drive T15
  7
ARIAL
 50
0.0
 41
0.8
 51
0.0
100
AcDbText
  0
TEXT
  5
440
100
AcDbEntity
  8
MST_1_1
 62
     7
100
AcDbText
 10
-127.46006385
 20
-233.95454975
 30
0.0
 40
5.0
  1
T-Drive T15
  7
ARIAL
 50
0.0
 41
0.8
 51
0.0
100
AcDbText
  0
ENDSEC
  0
SECTION
  2
OBJECTS
  0
DICTIONARY
  5
1
100
AcDbDictionary
  3
ACAD_GROUP
350
2
  3
ACAD_MLINESTYLE
350
3
  0
DICTIONARY
  5
2
102
{CDWK_REACTORS
330
1
102
}
100
AcDbDictionary
  0
DICTIONARY
  5
3
102
{CDWK_REACTORS
330
1
102
}
100
AcDbDictionary
  3
STANDARD
350
4
  0
MLINESTYLE
  5
4
102
{CDWK_REACTORS
330
3
102
}
100
AcDbMlineStyle
  2
STANDARD
 70
     0
  3

 62
     0
 51
90.0
 52
90.0
 71
     2
 49
0.5
 62
   256
  6
BYLAYER
 49
-0.5
 62
   256
  6
BYLAYER
  0
ENDSEC
  0
EOF
