  0
SECTION
  2
HEADER
  9
$ACADVER
  1
AC1012
  9
$DWGCODEPAGE
  3
ANSI_1252
  9
$INSBASE
 10
0.0
 20
0.0
 30
0.0
  9
$EXTMIN
 10
-146.49080326
 20
-387.35463343
  9
$EXTMAX
 10
275.32783055
 20
186.8272944
  9
$LIMMIN
 10
-146.49080326
 20
-387.35463343
  9
$LIMMAX
 10
275.32783055
 20
186.8272944
  9
$ORTHOMODE
 70
     0
  9
$REGENMODE
 70
     1
  9
$FILLMODE
 70
     1
  9
$QTEXTMODE
 70
     0
  9
$MIRRTEXT
 70
     1
  9
$DRAGMODE
 70
     2
  9
$LTSCALE
 40
1.0
  9
$OSMODE
 70
     0
  9
$ATTMODE
 70
     1
  9
$TEXTSIZE
 40
3.5
  9
$TRACEWID
 40
1.0
  9
$TEXTSTYLE
  7
STANDARD
  9
$CLAYER
  8
0
  9
$CELTYPE
  6
BYLAYER
  9
$CECOLOR
 62
   256
  9
$DIMSCALE
 40
1.0
  9
$DIMASZ
 40
2.0
  9
$DIMEXO
 40
5.0
  9
$DIMDLI
 40
10.0
  9
$DIMRND
 40
0.0
  9
$DIMDLE
 40
2.0
  9
$DIMEXE
 40
2.0
  9
$DIMTP
 40
0.0
  9
$DIMTM
 40
0.0
  9
$DIMTXT
 40
2.5
  9
$DIMCEN
 40
1.5
  9
$DIMTSZ
 40
0.0
  9
$DIMTOL
 70
     0
  9
$DIMLIM
 70
     0
  9
$DIMTIH
 70
     1
  9
$DIMTOH
 70
     0
  9
$DIMSE1
 70
     0
  9
$DIMSE2
 70
     0
  9
$DIMTAD
 70
     1
  9
$DIMZIN
 70
     8
  9
$DIMBLK
  1

  9
$DIMASO
 70
     1
  9
$DIMSHO
 70
     1
  9
$DIMPOST
  1

  9
$DIMAPOST
  1

  9
$DIMALT
 70
     0
  9
$DIMALTD
 70
     2
  9
$DIMALTF
 40
25.4
  9
$DIMLFAC
 40
1.0
  9
$DIMTOFL
 70
     0
  9
$DIMTVP
 40
0.0
  9
$DIMTIX
 70
     0
  9
$DIMSOXD
 70
     0
  9
$DIMSAH
 70
     0
  9
$DIMBLK1
  1

  9
$DIMBLK2
  1

  9
$DIMSTYLE
  2
*UNNAMED
  9
$DIMCLRD
 70
     9
  9
$DIMCLRE
 70
     9
  9
$DIMCLRT
 70
     7
  9
$DIMTFAC
 40
1.0
  9
$DIMGAP
 40
0.09
  9
$DIMUNIT
 70
     2
  9
$LUNITS
 70
     2
  9
$LUPREC
 70
     6
  9
$AXISMODE
 70
     0
  9
$AXISUNIT
 10
0.0
 20
0.0
  9
$SKETCHINC
 40
0.1
  9
$FILLETRAD
 40
0.0
  9
$AUNITS
 70
     0
  9
$AUPREC
 70
     0
  9
$MENU
  1
ACAD
  9
$ELEVATION
 40
0.0
  9
$PELEVATION
 40
0.0
  9
$THICKNESS
 40
0.0
  9
$LIMCHECK
 70
     0
  9
$BLIPMODE
 70
     1
  9
$CHAMFERA
 40
0.0
  9
$CHAMFERB
 40
0.0
  9
$SKPOLY
 70
     1
  9
$TDCREATE
 40
2456119.0000000000
  9
$TDUPDATE
 40
2456119.0000000000
  9
$TDINDWG
 40
0.0
  9
$TDUSRTIMER
 40
0.0
  9
$USRTIMER
 70
     1
  9
$ANGBASE
 50
0.0
  9
$ANGDIR
 70
     0
  9
$PDMODE
 70
     0
  9
$PDSIZE
 40
0.0
  9
$PLINEWID
 40
0.0
  9
$COORDS
 70
     2
  9
$SPLFRAME
 70
     0
  9
$SPLINETYPE
 70
     6
  9
$SPLINESEGS
 70
     8
  9
$ATTDIA
 70
     1
  9
$ATTREQ
 70
     1
  9
$HANDLING
 70
     1
  9
$HANDSEED
  5
     4AA
  9
$SURFTAB1
 70
     6
  9
$SURFTAB2
 70
     6
  9
$SURFTYPE
 70
     6
  9
$SURFU
 70
     6
  9
$SURFV
 70
     6
  9
$UCSNAME
  2

  9
$UCSORG
 10
0.0
 20
0.0
 30
0.0
  9
$UCSXDIR
 10
1.0
 20
0.0
 30
0.0
  9
$UCSYDIR
 10
0.0
 20
1.0
 30
0.0
  9
$PUCSNAME
  2

  9
$PUCSORG
 10
0.0
 20
0.0
 30
0.0
  9
$PUCSXDIR
 10
1.0
 20
0.0
 30
0.0
  9
$PUCSYDIR
 10
0.0
 20
1.0
 30
0.0
  9
$USERI1
 70
     0
  9
$USERI2
 70
     0
  9
$USERI3
 70
     0
  9
$USERI4
 70
     0
  9
$USERI5
 70
     0
  9
$USERR1
 40
0.0
  9
$USERR2
 40
0.0
  9
$USERR3
 40
0.0
  9
$USERR4
 40
0.0
  9
$USERR5
 40
0.0
  9
$WORLDVIEW
 70
     1
  9
$SHADEDGE
 70
     3
  9
$SHADEDIF
 70
    70
  9
$TILEMODE
 70
     1
  9
$MAXACTVP
 70
    16
  9
$PINSBASE
 10
0.0
 20
0.0
 30
0.0
  9
$PLIMCHECK
 70
     0
  9
$PEXTMIN
 10
1.0000000000000E+20
 20
1.0000000000000E+20
 30
1.0000000000000E+20
  9
$PEXTMAX
 10
-1.0000000000000E+20
 20
-1.0000000000000E+20
 30
-1.0000000000000E+20
  9
$PLIMMIN
 10
0.0
 20
0.0
  9
$UNITMODE
 70
     0
  9
$VISRETAIN
 70
     0
  9
$MEASUREMENT
 70
     1
  0
ENDSEC
  0
SECTION
  2
TABLES
  0
TABLE
  2
VPORT
  5
41
100
AcDbSymbolTable
 70
     1
  0
ENDTAB
  0
TABLE
  2
STYLE
  5
42
100
AcDbSymbolTable
 70
     4
  0
STYLE
  5
43
100
AcDbSymbolTableRecord
100
AcDbTextStyleTableRecord
  2
STANDARD
 70
     0
 40
0.0
 41
1.0
 50
0.0
 71
     0
 42
3.5
  3
MONOTXT
  4

  0
STYLE
  5
44
100
AcDbSymbolTableRecord
100
AcDbTextStyleTableRecord
  2
CADWORK1
 70
     0
 40
0.0
 41
1.0
 50
0.0
 71
     0
 42
3.5
  3
MONOTXT
  4

  0
STYLE
  5
45
100
AcDbSymbolTableRecord
100
AcDbTextStyleTableRecord
  2
MONOTXT
 70
     0
 40
0.0
 41
1.0
 50
0.0
 71
     0
 42
3.5
  3
MONOTXT
  4

  0
STYLE
  5
46
100
AcDbSymbolTableRecord
100
AcDbTextStyleTableRecord
  2
TAHOMA
 70
     0
 40
0.0
 41
1.0
 50
0.0
 71
     0
 42
3.5
  3

  4

1001
ACAD
1000
Tahoma
1071
        0
  0
STYLE
  5
47
100
AcDbSymbolTableRecord
100
AcDbTextStyleTableRecord
  2
ARIAL
 70
     0
 40
0.0
 41
1.0
 50
0.0
 71
     0
 42
3.5
  3

  4

1001
ACAD
1000
Arial
1071
        0
  0
ENDTAB
  0
TABLE
  2
LTYPE
  5
48
100
AcDbSymbolTable
 70
    12
  0
LTYPE
  5
49
100
AcDbSymbolTableRecord
100
AcDbLinetypeTableRecord
  2
BYBLOCK
 70
    64
  3

 72
    65
 73
     0
 40
0.0
  0
LTYPE
  5
4A
100
AcDbSymbolTableRecord
100
AcDbLinetypeTableRecord
  2
BYLAYER
 70
    64
  3

 72
    65
 73
     0
 40
0.0
  0
LTYPE
  5
4B
100
AcDbSymbolTableRecord
100
AcDbLinetypeTableRecord
  2
CONTINUOUS
 70
    64
  3
Solid line
 72
    65
 73
     0
 40
0.0
  0
LTYPE
  5
4C
100
AcDbSymbolTableRecord
100
AcDbLinetypeTableRecord
  2
DOT
 70
    64
  3
. . . . . . . . . . . . . . . . . . . . . . . .
 72
    65
 73
     2
 40
2.5
 49
0.0
 74
     0
 49
-2.5
 74
     0
  0
LTYPE
  5
4D
100
AcDbSymbolTableRecord
100
AcDbLinetypeTableRecord
  2
DASHED
 70
    64
  3
__ __ __ __ __ __ __ __ __ __ __ __ __ __ __ __
 72
    65
 73
     2
 40
7.5
 49
5.0
 74
     0
 49
-2.5
 74
     0
  0
LTYPE
  5
4E
100
AcDbSymbolTableRecord
100
AcDbLinetypeTableRecord
  2
BORDER
 70
    64
  3
 __ __ . __ __ . __ __ . __ __ . __ __ . __ __ .
 72
    65
 73
     6
 40
17.0
 49
5.0
 74
     0
 49
-2.0
 74
     0
 49
5.0
 74
     0
 49
-2.0
 74
     0
 49
1.0
 74
     0
 49
-2.0
 74
     0
  0
LTYPE
  5
4F
100
AcDbSymbolTableRecord
100
AcDbLinetypeTableRecord
  2
DAL
 70
    64
  3
Solid line (for MAPS)
 72
    65
 73
     0
 40
0.0
  0
LTYPE
  5
50
100
AcDbSymbolTableRecord
100
AcDbLinetypeTableRecord
  2
MUR
 70
    64
  3
Solid line (for MAPS)
 72
    65
 73
     0
 40
0.0
  0
LTYPE
  5
51
100
AcDbSymbolTableRecord
100
AcDbLinetypeTableRecord
  2
SOM
 70
    64
  3
Solid line (for MAPS)
 72
    65
 73
     0
 40
0.0
  0
LTYPE
  5
52
100
AcDbSymbolTableRecord
100
AcDbLinetypeTableRecord
  2
COL
 70
    64
  3
Solid line (for MAPS)
 72
    65
 73
     0
 40
0.0
  0
LTYPE
  5
53
100
AcDbSymbolTableRecord
100
AcDbLinetypeTableRecord
  2
LGN
 70
    64
  3
Solid line (for MAPS)
 72
    65
 73
     0
 40
0.0
  0
LTYPE
  5
54
100
AcDbSymbolTableRecord
100
AcDbLinetypeTableRecord
  2
PNT
 70
    64
  3
Solid line (for MAPS)
 72
    65
 73
     0
 40
0.0
  0
ENDTAB
  0
TABLE
  2
LAYER
  5
55
100
AcDbSymbolTable
 70
     1
  0
LAYER
  5
56
100
AcDbSymbolTableRecord
100
AcDbLayerTableRecord
  2
0
 70
     0
 62
     1
  6
CONTINUOUS
  0
LAYER
  5
57
100
AcDbSymbolTableRecord
100
AcDbLayerTableRecord
  2
MST_1_1
 70
     0
 62
     7
  6
CONTINUOUS
  0
ENDTAB
  0
TABLE
  2
VIEW
  5
58
100
AcDbSymbolTable
 70
     0
  0
ENDTAB
  0
TABLE
  2
UCS
  5
59
100
AcDbSymbolTable
 70
     0
  0
ENDTAB
  0
TABLE
  2
APPID
  5
5A
100
AcDbSymbolTable
 70
     1
  0
APPID
  5
5B
100
AcDbSymbolTableRecord
100
AcDbRegAppTableRecord
  2
ACAD
 70
     0
  0
ENDTAB
  0
TABLE
  2
DIMSTYLE
  5
5C
100
AcDbSymbolTable
 70
     0
  0
ENDTAB
  0
TABLE
  2
BLOCK_RECORD
  5
5D
100
AcDbSymbolTable
 70
     0
  0
BLOCK_RECORD
  5
5E
100
AcDbSymbolTableRecord
100
AcDbBlockTableRecord
  2
*MODEL_SPACE
  0
BLOCK_RECORD
  5
5F
100
AcDbSymbolTableRecord
100
AcDbBlockTableRecord
  2
*PAPER_SPACE
  0
BLOCK_RECORD
  5
60
100
AcDbSymbolTableRecord
100
AcDbBlockTableRecord
  2
CDWK_EXTR_0
  0
BLOCK_RECORD
  5
61
100
AcDbSymbolTableRecord
100
AcDbBlockTableRecord
  2
CDWK_EXTR_1D
  0
BLOCK_RECORD
  5
62
100
AcDbSymbolTableRecord
100
AcDbBlockTableRecord
  2
CDWK_EXTR_1G
  0
BLOCK_RECORD
  5
63
100
AcDbSymbolTableRecord
100
AcDbBlockTableRecord
  2
CDWK_EXTR_2
  0
BLOCK_RECORD
  5
64
100
AcDbSymbolTableRecord
100
AcDbBlockTableRecord
  2
CDWK_EXTR_3
  0
BLOCK_RECORD
  5
65
100
AcDbSymbolTableRecord
100
AcDbBlockTableRecord
  2
CDWK_EXTR_4
  0
BLOCK_RECORD
  5
66
100
AcDbSymbolTableRecord
100
AcDbBlockTableRecord
  2
CDWK_PTTYP0
  0
ENDTAB
  0
ENDSEC
  0
SECTION
  2
BLOCKS
  0
BLOCK
  5
67
100
AcDbEntity
  8
0
100
AcDbBlockBegin
  2
*MODEL_SPACE
 70
     0
 10
0.0
 20
0.0
 30
0.0
  3
*MODEL_SPACE
  1

  0
ENDBLK
  5
68
100
AcDbEntity
100
AcDbBlockEnd
  0
BLOCK
  5
69
100
AcDbEntity
  8
0
100
AcDbBlockBegin
  2
*PAPER_SPACE
 70
     0
 10
0.0
 20
0.0
 30
0.0
  3
*PAPER_SPACE
  1

  0
ENDBLK
  5
6A
100
AcDbEntity
100
AcDbBlockEnd
  0
BLOCK
  5
6B
100
AcDbEntity
  8
0
100
AcDbBlockBegin
  2
CDWK_EXTR_0
 70
     0
 10
0.0
 20
0.0
 30
0.0
  3
CDWK_EXTR_0
  1

  4
Cadwork line-extremity
  0
LINE
  5
6C
100
AcDbEntity
  8
0
 62
     0
100
AcDbLine
 10
0.0
 20
0.0
 30
0.0
 11
2.0
 21
0.5
 31
0.0
  0
LINE
  5
6D
100
AcDbEntity
  8
0
 62
     0
100
AcDbLine
 10
0.0
 20
0.0
 30
0.0
 11
2.0
 21
-0.5
 31
0.0
  0
LINE
  5
6E
100
AcDbEntity
  8
0
 62
     0
100
AcDbLine
 10
2.0
 20
0.5
 30
0.0
 11
2.0
 21
-0.5
 31
0.0
  0
ENDBLK
  5
6F
100
AcDbEntity
100
AcDbBlockEnd
  0
BLOCK
  5
70
100
AcDbEntity
  8
0
100
AcDbBlockBegin
  2
CDWK_EXTR_1D
 70
     0
 10
0.0
 20
0.0
 30
0.0
  3
CDWK_EXTR_1D
  1

  4
Cadwork line-extremity
  0
LINE
  5
71
100
AcDbEntity
  8
0
 62
     0
100
AcDbLine
 10
0.0
 20
0.0
 30
0.0
 11
0.0
 21
1.0
 31
0.0
  0
LINE
  5
72
100
AcDbEntity
  8
0
 62
     0
100
AcDbLine
 10
0.0
 20
1.0
 30
0.0
 11
0.5
 21
1.5
 31
0.0
  0
LINE
  5
73
100
AcDbEntity
  8
0
 62
     0
100
AcDbLine
 10
0.5
 20
1.5
 30
0.0
 11
1.5
 21
1.5
 31
0.0
  0
ENDBLK
  5
74
100
AcDbEntity
100
AcDbBlockEnd
  0
BLOCK
  5
75
100
AcDbEntity
  8
0
100
AcDbBlockBegin
  2
CDWK_EXTR_1G
 70
     0
 10
0.0
 20
0.0
 30
0.0
  3
CDWK_EXTR_1G
  1

  4
Cadwork line-extremity
  0
LINE
  5
76
100
AcDbEntity
  8
0
 62
     0
100
AcDbLine
 10
0.0
 20
0.0
 30
0.0
 11
0.0
 21
-1.0
 31
0.0
  0
LINE
  5
77
100
AcDbEntity
  8
0
 62
     0
100
AcDbLine
 10
0.0
 20
-1.0
 30
0.0
 11
0.5
 21
-1.5
 31
0.0
  0
LINE
  5
78
100
AcDbEntity
  8
0
 62
     0
100
AcDbLine
 10
0.5
 20
-1.5
 30
0.0
 11
1.5
 21
-1.5
 31
0.0
  0
ENDBLK
  5
79
100
AcDbEntity
100
AcDbBlockEnd
  0
BLOCK
  5
7A
100
AcDbEntity
  8
0
100
AcDbBlockBegin
  2
CDWK_EXTR_2
 70
     0
 10
0.0
 20
0.0
 30
0.0
  3
CDWK_EXTR_2
  1

  4
Cadwork line-extremity
  0
SOLID
  5
7B
100
AcDbEntity
  8
0
 62
     0
100
AcDbTrace
 10
0.0
 20
0.0
 11
2.0
 21
0.5
 12
2.0
 22
-0.5
 13
2.0
 23
-0.5
  0
ENDBLK
  5
7C
100
AcDbEntity
100
AcDbBlockEnd
  0
BLOCK
  5
7D
100
AcDbEntity
  8
0
100
AcDbBlockBegin
  2
CDWK_EXTR_3
 70
     0
 10
0.0
 20
0.0
 30
0.0
  3
CDWK_EXTR_3
  1

  4
Cadwork line-extremity
  0
SOLID
  5
7E
100
AcDbEntity
  8
0
 62
     0
100
AcDbTrace
 10
0.0
 20
0.0
 11
2.0
 21
0.5
 12
2.0
 22
-0.5
 13
2.0
 23
-0.5
  0
LINE
  5
7F
100
AcDbEntity
  8
0
 62
     0
100
AcDbLine
 10
0.0
 20
1.0
 30
0.0
 11
0.0
 21
-1.0
 31
0.0
  0
ENDBLK
  5
80
100
AcDbEntity
100
AcDbBlockEnd
  0
BLOCK
  5
81
100
AcDbEntity
  8
0
100
AcDbBlockBegin
  2
CDWK_EXTR_4
 70
     0
 10
0.0
 20
0.0
 30
0.0
  3
CDWK_EXTR_4
  1

  4
Cadwork line-extremity
  0
POLYLINE
  5
82
100
AcDbEntity
  8
0
 62
     0
100
AcDb2dPolyline
 70
     1
 66
     1
 10
0.0
 20
0.0
 30
0.0
 40
0.5
 41
0.5
  0
VERTEX
  5
83
100
AcDbEntity
  8
0
100
AcDbVertex
100
AcDb2dVertex
 10
-0.25
 20
0.0
 30
0.0
 42
1.0
  0
VERTEX
  5
84
100
AcDbEntity
  8
0
100
AcDbVertex
100
AcDb2dVertex
 10
0.25
 20
0.0
 30
0.0
 42
1.0
  0
SEQEND
  5
85
100
AcDbEntity
  0
ENDBLK
  5
86
100
AcDbEntity
100
AcDbBlockEnd
  0
BLOCK
  5
87
100
AcDbEntity
  8
0
100
AcDbBlockBegin
  2
CDWK_PTTYP0
 70
     0
 10
0.0
 20
0.0
 30
0.0
  3
CDWK_PTTYP0
  1

  4
Cadwork point
  0
POINT
  5
88
100
AcDbEntity
  8
0
 62
     0
100
AcDbPoint
 10
0.0
 20
0.0
 30
0.0
  0
ENDBLK
  5
89
100
AcDbEntity
100
AcDbBlockEnd
  0
ENDSEC
  0
SECTION
  2
ENTITIES
  0
LINE
  5
8A
100
AcDbEntity
  8
MST_1_1
 62
     7
  6
DASHED
100
AcDbLine
 10
-2.06250403
 20
28.54545025
 30
0.0
 11
-2.06250403
 21
-276.45454975
 31
0.0
  0
LINE
  5
8B
100
AcDbEntity
  8
MST_1_1
 62
     7
  6
DASHED
100
AcDbLine
 10
47.93749597
 20
28.54545025
 30
0.0
 11
47.93749597
 21
-216.45454975
 31
0.0
  0
LINE
  5
8C
100
AcDbEntity
  8
MST_1_1
 62
     7
  6
DASHED
100
AcDbLine
 10
37.93749597
 20
28.54545025
 30
0.0
 11
37.93749597
 21
-156.45454975
 31
0.0
  0
LINE
  5
8D
100
AcDbEntity
  8
MST_1_1
 62
     7
  6
DASHED
100
AcDbLine
 10
32.93749597
 20
18.54545025
 30
0.0
 11
32.93749597
 21
-126.45454975
 31
0.0
  0
LINE
  5
8E
100
AcDbEntity
  8
MST_1_1
 62
     7
  6
DASHED
100
AcDbLine
 10
27.93749597
 20
28.54545025
 30
0.0
 11
27.93749597
 21
-96.45454975
 31
0.0
  0
LWPOLYLINE
  5
8F
100
AcDbEntity
  8
MST_1_1
 62
     1
  6
BORDER
100
AcDbPolyline
 90
        3
 70
     0
 43
0.0
 10
22.93749597
 20
-51.45454975
 10
-2.06250403
 20
-51.45454975
 10
-7.06250403
 20
-51.45454975
  0
LINE
  5
90
100
AcDbEntity
  8
MST_1_1
 62
     7
  6
DASHED
100
AcDbLine
 10
22.93749597
 20
18.54545025
 30
0.0
 11
22.93749597
 21
-66.45454975
 31
0.0
  0
LINE
  5
91
100
AcDbEntity
  8
MST_1_1
 62
     7
  6
DASHED
100
AcDbLine
 10
17.93749597
 20
28.54545025
 30
0.0
 11
17.93749597
 21
-36.45454975
 31
0.0
  0
LINE
  5
92
100
AcDbEntity
  8
MST_1_1
 62
     7
  6
DASHED
100
AcDbLine
 10
13.93749597
 20
18.54545025
 30
0.0
 11
13.93749597
 21
-6.45454975
 31
0.0
  0
LWPOLYLINE
  5
93
100
AcDbEntity
  8
MST_1_1
 62
     1
  6
BORDER
100
AcDbPolyline
 90
        3
 70
     0
 43
0.0
 10
17.93749597
 20
-21.45454975
 10
-2.06250403
 20
-21.45454975
 10
-7.06250403
 20
-21.45454975
  0
LWPOLYLINE
  5
94
100
AcDbEntity
  8
MST_1_1
 62
     1
  6
BORDER
100
AcDbPolyline
 90
        3
 70
     0
 43
0.0
 10
13.93749597
 20
8.54545025
 10
-2.06250403
 20
8.54545025
 10
-7.06250403
 20
8.54545025
  0
LWPOLYLINE
  5
95
100
AcDbEntity
  8
MST_1_1
 62
     1
  6
BORDER
100
AcDbPolyline
 90
        3
 70
     0
 43
0.0
 10
27.93749597
 20
-81.45454975
 10
-2.06250403
 20
-81.45454975
 10
-7.06250403
 20
-81.45454975
  0
LWPOLYLINE
  5
96
100
AcDbEntity
  8
MST_1_1
 62
     1
  6
BORDER
100
AcDbPolyline
 90
        3
 70
     0
 43
0.0
 10
32.93749597
 20
-111.45454975
 10
-2.06250403
 20
-111.45454975
 10
-7.06250403
 20
-111.45454975
  0
LWPOLYLINE
  5
97
100
AcDbEntity
  8
MST_1_1
 62
     1
  6
BORDER
100
AcDbPolyline
 90
        3
 70
     0
 43
0.0
 10
37.93749597
 20
-141.45454975
 10
-2.06250403
 20
-141.45454975
 10
-7.06250403
 20
-141.45454975
  0
LWPOLYLINE
  5
98
100
AcDbEntity
  8
MST_1_1
 62
     1
  6
BORDER
100
AcDbPolyline
 90
        3
 70
     0
 43
0.0
 10
42.93749597
 20
-171.45454975
 10
-2.06250403
 20
-171.45454975
 10
-7.06250403
 20
-171.45454975
  0
LINE
  5
99
100
AcDbEntity
  8
MST_1_1
 62
     7
  6
DASHED
100
AcDbLine
 10
42.93749597
 20
18.54545025
 30
0.0
 11
42.93749597
 21
-186.45454975
 31
0.0
  0
LINE
  5
9A
100
AcDbEntity
  8
MST_1_1
 62
   137
  6
CONTINUOUS
100
AcDbLine
 10
-2.06250403
 20
-81.45454975
 30
0.0
 11
-2.06250403
 21
-76.95454975
 31
0.0
  0
LINE
  5
9B
100
AcDbEntity
  8
MST_1_1
 62
   137
  6
CONTINUOUS
100
AcDbLine
 10
-2.06250403
 20
-76.95454975
 30
0.0
 11
-1.96250406
 21
-76.95454975
 31
0.0
  0
LWPOLYLINE
  5
9C
100
AcDbEntity
  8
MST_1_1
 62
   137
  6
CONTINUOUS
100
AcDbPolyline
 90
        6
 70
     0
 43
0.0
 38
2500.0
 10
3.19406305
 20
-79.20454959
 10
2.99463883
 20
-80.06597832
 10
4.68070932
 20
-83.70454975
 10
4.88013362
 20
-82.84312118
 10
3.19406305
 20
-79.20454959
 10
4.68070932
 20
-83.70454975
  0
LINE
  5
9D
100
AcDbEntity
  8
MST_1_1
 62
   137
  6
CONTINUOUS
100
AcDbLine
 10
0.63749597
 20
-80.06597832
 30
2500.0
 11
2.99463883
 21
-80.06597832
 31
2500.0
  0
LWPOLYLINE
  5
9E
100
AcDbEntity
  8
MST_1_1
 62
   137
  6
CONTINUOUS
100
AcDbPolyline
 90
        4
 70
     0
 43
0.0
 38
2500.0
 10
1.71010505
 20
-82.84312118
 10
2.10928075
 20
-83.70454975
 10
2.30870505
 20
-82.84312118
 10
2.00958296
 20
-82.19761015
  0
LINE
  5
9F
100
AcDbEntity
  8
MST_1_1
 62
   137
  6
CONTINUOUS
100
AcDbLine
 10
1.7770345
 20
-82.69885779
 30
2500.0
 11
2.10928075
 21
-83.70454975
 31
2500.0
  0
LINE
  5
A0
100
AcDbEntity
  8
MST_1_1
 62
   137
  6
CONTINUOUS
100
AcDbLine
 10
1.71010505
 20
-82.84312118
 30
2500.0
 11
2.00958296
 21
-82.19761015
 31
2500.0
  0
LINE
  5
A1
100
AcDbEntity
  8
MST_1_1
 62
   137
  6
CONTINUOUS
100
AcDbLine
 10
4.28153362
 20
-82.84312118
 30
2500.0
 11
2.30870505
 21
-82.84312118
 31
2500.0
  0
LINE
  5
A2
100
AcDbEntity
  8
MST_1_1
 62
   137
  6
CONTINUOUS
100
AcDbLine
 10
1.71010505
 20
-82.84312118
 30
2500.0
 11
0.63749597
 21
-82.84312118
 31
2500.0
  0
LINE
  5
A3
100
AcDbEntity
  8
MST_1_1
 62
   137
  6
CONTINUOUS
100
AcDbLine
 10
-1.96250406
 20
-76.95454975
 30
0.0
 11
0.63749597
 21
-80.06597832
 31
0.0
  0
LINE
  5
A4
100
AcDbEntity
  8
MST_1_1
 62
   137
  6
CONTINUOUS
100
AcDbLine
 10
0.63749597
 20
-82.84312118
 30
0.0
 11
-1.96250406
 21
-85.95454975
 31
0.0
  0
LINE
  5
A5
100
AcDbEntity
  8
MST_1_1
 62
   137
  6
CONTINUOUS
100
AcDbLine
 10
-1.96250406
 20
-85.95454975
 30
0.0
 11
-2.06250403
 21
-85.95454975
 31
0.0
  0
LINE
  5
A6
100
AcDbEntity
  8
MST_1_1
 62
   137
  6
CONTINUOUS
100
AcDbLine
 10
-2.06250403
 20
-85.95454975
 30
0.0
 11
-2.06250403
 21
-81.45454975
 31
0.0
  0
LWPOLYLINE
  5
A7
100
AcDbEntity
  8
MST_1_1
 62
   137
  6
CONTINUOUS
100
AcDbPolyline
 90
        6
 70
     0
 43
0.0
 38
2500.0
 10
5.76549162
 20
-79.20454959
 10
5.5660674
 20
-80.06597832
 10
7.25213789
 20
-83.70454975
 10
7.45156219
 20
-82.84312118
 10
5.76549162
 20
-79.20454959
 10
7.25213789
 20
-83.70454975
  0
LWPOLYLINE
  5
A8
100
AcDbEntity
  8
MST_1_1
 62
   137
  6
CONTINUOUS
100
AcDbPolyline
 90
        6
 70
     0
 43
0.0
 38
2500.0
 10
8.3369202
 20
-79.20454959
 10
8.13749597
 20
-80.06597832
 10
9.82356646
 20
-83.70454975
 10
10.02299076
 20
-82.84312118
 10
8.3369202
 20
-79.20454959
 10
9.82356646
 20
-83.70454975
  0
LWPOLYLINE
  5
A9
100
AcDbEntity
  8
MST_1_1
 62
   137
  6
CONTINUOUS
100
AcDbPolyline
 90
        6
 70
     0
 43
0.0
 38
2500.0
 10
18.62263448
 20
-79.20454959
 10
18.42321025
 20
-80.06597832
 10
20.10928075
 20
-83.70454975
 10
20.27832031
 20
-82.77755034
 10
18.62263448
 20
-79.20454959
 10
20.10928075
 20
-83.70454975
  0
LWPOLYLINE
  5
AA
100
AcDbEntity
  8
MST_1_1
 62
   137
  6
CONTINUOUS
100
AcDbPolyline
 90
        6
 70
     0
 43
0.0
 38
2500.0
 10
21.15617245
 20
-79.49729301
 10
20.99463883
 20
-80.19505028
 10
22.38702553
 20
-83.19984664
 10
22.54855916
 20
-82.50208937
 10
21.15617245
 20
-79.49729301
 10
22.36035593
 20
-83.14229314
  0
LINE
  5
AB
100
AcDbEntity
  8
MST_1_1
 62
   251
  6
CONTINUOUS
100
AcDbLine
 10
4.88013362
 20
-82.84312118
 30
2500.0
 11
6.85296219
 21
-82.84312118
 31
2500.0
  0
LINE
  5
AC
100
AcDbEntity
  8
MST_1_1
 62
   251
  6
CONTINUOUS
100
AcDbLine
 10
7.45156219
 20
-82.84312118
 30
2500.0
 11
9.42439076
 21
-82.84312118
 31
2500.0
  0
LINE
  5
AD
100
AcDbEntity
  8
MST_1_1
 62
   251
  6
CONTINUOUS
100
AcDbLine
 10
17.73727648
 20
-82.84312118
 30
2500.0
 11
19.02444527
 21
-82.83743476
 31
2500.0
  0
LINE
  5
AE
100
AcDbEntity
  8
MST_1_1
 62
   251
  6
CONTINUOUS
100
AcDbLine
 10
5.5660674
 20
-80.06597832
 30
2500.0
 11
3.59323882
 21
-80.06597832
 31
2500.0
  0
LINE
  5
AF
100
AcDbEntity
  8
MST_1_1
 62
   251
  6
CONTINUOUS
100
AcDbLine
 10
8.13749597
 20
-80.06597832
 30
2500.0
 11
6.1646674
 21
-80.06597832
 31
2500.0
  0
LINE
  5
B0
100
AcDbEntity
  8
MST_1_1
 62
   251
  6
CONTINUOUS
100
AcDbLine
 10
18.42321025
 20
-80.06597832
 30
2500.0
 11
16.45038168
 21
-80.06597832
 31
2500.0
  0
ARC
  5
B1
100
AcDbEntity
  8
MST_1_1
 62
   251
  6
CONTINUOUS
100
AcDbCircle
 10
18.49439771
 20
-104.32685365
 30
2500.0
 40
24.26097977
100
AcDbArc
 50
84.08482032
 51
88.74811714
  0
LWPOLYLINE
  5
B2
100
AcDbEntity
  8
MST_1_1
 62
   251
  6
CONTINUOUS
100
AcDbPolyline
 90
        3
 70
     0
 43
0.0
 38
2500.0
 10
27.93749597
 20
-81.45454975
 10
23.15808505
 20
-80.51834341
 42
0.01723995
 10
21.50663588
 20
-80.2535996
  0
ARC
  5
B3
100
AcDbEntity
  8
MST_1_1
 62
   251
  6
CONTINUOUS
100
AcDbCircle
 10
18.49439771
 20
-58.58224585
 30
2500.0
 40
24.26097977
100
AcDbArc
 50
271.25189287
 51
272.83975061
  0
LWPOLYLINE
  5
B4
100
AcDbEntity
  8
MST_1_1
 62
   251
  6
CONTINUOUS
100
AcDbPolyline
 90
        3
 70
     0
 43
0.0
 38
2500.0
 10
27.93749597
 20
-81.45454975
 10
23.15808505
 20
-82.39075609
 42
-0.0063851
 10
22.54855916
 20
-82.50208937
  0
ARC
  5
B5
100
AcDbEntity
  8
MST_1_1
 62
   251
  6
CONTINUOUS
100
AcDbCircle
 10
18.49439771
 20
-58.58224585
 30
2500.0
 40
24.26097977
100
AcDbArc
 50
274.21680449
 51
278.53995004
  0
LWPOLYLINE
  5
B6
100
AcDbEntity
  8
MST_1_1
 62
   137
  6
CONTINUOUS
100
AcDbPolyline
 90
        6
 70
     0
 43
0.0
 38
2500.0
 10
23.67267959
 20
-80.1377405
 10
23.5660674
 20
-80.5982603
 10
24.48504262
 20
-82.5814259
 10
24.58699776
 20
-82.11085608
 10
23.67267959
 20
-80.1377405
 10
24.46744068
 20
-82.54344059
  0
LWPOLYLINE
  5
B7
100
AcDbEntity
  8
MST_1_1
 62
     1
  6
BORDER
100
AcDbPolyline
 90
        3
 70
     0
 43
0.0
 10
47.93749597
 20
-201.45454975
 10
-2.06250403
 20
-201.45454975
 10
-7.06250403
 20
-201.45454975
  0
LWPOLYLINE
  5
B8
100
AcDbEntity
  8
MST_1_1
 62
   137
  6
CONTINUOUS
100
AcDbPolyline
 90
        6
 70
     0
 43
0.0
 38
2500.0
 10
13.47977734
 20
-79.20454959
 10
13.28035311
 20
-80.06597832
 10
14.96642361
 20
-83.70454975
 10
15.1658479
 20
-82.84312118
 10
13.47977734
 20
-79.20454959
 10
14.96642361
 20
-83.70454975
  0
LWPOLYLINE
  5
B9
100
AcDbEntity
  8
MST_1_1
 62
   137
  6
CONTINUOUS
100
AcDbPolyline
 90
        6
 70
     0
 43
0.0
 38
2500.0
 10
16.05120591
 20
-79.20454959
 10
15.85178168
 20
-80.06597832
 10
17.53785218
 20
-83.70454975
 10
17.73727648
 20
-82.84312118
 10
16.05120591
 20
-79.20454959
 10
17.53785218
 20
-83.70454975
  0
LINE
  5
BA
100
AcDbEntity
  8
MST_1_1
 62
   251
  6
CONTINUOUS
100
AcDbLine
 10
12.59441933
 20
-82.84312118
 30
2500.0
 11
14.56724791
 21
-82.84312118
 31
2500.0
  0
LINE
  5
BB
100
AcDbEntity
  8
MST_1_1
 62
   251
  6
CONTINUOUS
100
AcDbLine
 10
15.1658479
 20
-82.84312118
 30
2500.0
 11
17.13867648
 21
-82.84312118
 31
2500.0
  0
LINE
  5
BC
100
AcDbEntity
  8
MST_1_1
 62
   251
  6
CONTINUOUS
100
AcDbLine
 10
13.28035311
 20
-80.06597832
 30
2500.0
 11
11.30752454
 21
-80.06597832
 31
2500.0
  0
LINE
  5
BD
100
AcDbEntity
  8
MST_1_1
 62
   251
  6
CONTINUOUS
100
AcDbLine
 10
15.85178168
 20
-80.06597832
 30
2500.0
 11
13.87895311
 21
-80.06597832
 31
2500.0
  0
LWPOLYLINE
  5
BE
100
AcDbEntity
  8
MST_1_1
 62
   137
  6
CONTINUOUS
100
AcDbPolyline
 90
        6
 70
     0
 43
0.0
 38
2500.0
 10
10.90834877
 20
-79.20454959
 10
10.70892454
 20
-80.06597832
 10
12.39499503
 20
-83.70454975
 10
12.59441933
 20
-82.84312118
 10
10.90834877
 20
-79.20454959
 10
12.39499503
 20
-83.70454975
  0
LINE
  5
BF
100
AcDbEntity
  8
MST_1_1
 62
   251
  6
CONTINUOUS
100
AcDbLine
 10
10.02299076
 20
-82.84312118
 30
2500.0
 11
11.99581933
 21
-82.84312118
 31
2500.0
  0
LINE
  5
C0
100
AcDbEntity
  8
MST_1_1
 62
   251
  6
CONTINUOUS
100
AcDbLine
 10
10.70892454
 20
-80.06597832
 30
2500.0
 11
8.73609597
 21
-80.06597832
 31
2500.0
  0
LINE
  5
C1
100
AcDbEntity
  8
MST_1_1
 62
     7
  6
DASHED
100
AcDbLine
 10
57.93749597
 20
28.54545025
 30
0.0
 11
57.93749597
 21
-276.45454975
 31
0.0
  0
LINE
  5
C2
100
AcDbEntity
  8
MST_1_1
 62
     7
  6
DASHED
100
AcDbLine
 10
52.93749597
 20
18.54545025
 30
0.0
 11
52.93749597
 21
-246.45454975
 31
0.0
  0
LINE
  5
C3
100
AcDbEntity
  8
MST_1_1
 62
   137
  6
CONTINUOUS
100
AcDbLine
 10
-2.06250403
 20
-51.45454975
 30
0.0
 11
-2.06250403
 21
-46.95454975
 31
0.0
  0
LINE
  5
C4
100
AcDbEntity
  8
MST_1_1
 62
   137
  6
CONTINUOUS
100
AcDbLine
 10
-2.06250403
 20
-46.95454975
 30
0.0
 11
-1.96250406
 21
-46.95454975
 31
0.0
  0
LWPOLYLINE
  5
C5
100
AcDbEntity
  8
MST_1_1
 62
   137
  6
CONTINUOUS
100
AcDbPolyline
 90
        6
 70
     0
 43
0.0
 38
2500.0
 10
3.3369202
 20
-49.20454959
 10
3.13749597
 20
-50.06597832
 10
4.82356646
 20
-53.70454975
 10
5.02299076
 20
-52.84312118
 10
3.3369202
 20
-49.20454959
 10
4.82356646
 20
-53.70454975
  0
LINE
  5
C6
100
AcDbEntity
  8
MST_1_1
 62
   137
  6
CONTINUOUS
100
AcDbLine
 10
0.63749597
 20
-50.06597832
 30
2500.0
 11
3.13749597
 21
-50.06597832
 31
2500.0
  0
LWPOLYLINE
  5
C7
100
AcDbEntity
  8
MST_1_1
 62
   137
  6
CONTINUOUS
100
AcDbPolyline
 90
        4
 70
     0
 43
0.0
 38
2500.0
 10
1.85296219
 20
-52.84312118
 10
2.25213789
 20
-53.70454975
 10
2.45156219
 20
-52.84312118
 10
2.1524401
 20
-52.19761015
  0
LINE
  5
C8
100
AcDbEntity
  8
MST_1_1
 62
   137
  6
CONTINUOUS
100
AcDbLine
 10
1.91989164
 20
-52.69885779
 30
2500.0
 11
2.25213789
 21
-53.70454975
 31
2500.0
  0
LINE
  5
C9
100
AcDbEntity
  8
MST_1_1
 62
   137
  6
CONTINUOUS
100
AcDbLine
 10
1.85296219
 20
-52.84312118
 30
2500.0
 11
2.1524401
 21
-52.19761015
 31
2500.0
  0
LINE
  5
CA
100
AcDbEntity
  8
MST_1_1
 62
   137
  6
CONTINUOUS
100
AcDbLine
 10
4.42439076
 20
-52.84312118
 30
2500.0
 11
2.45156219
 21
-52.84312118
 31
2500.0
  0
LINE
  5
CB
100
AcDbEntity
  8
MST_1_1
 62
   137
  6
CONTINUOUS
100
AcDbLine
 10
1.85296219
 20
-52.84312118
 30
2500.0
 11
0.63749597
 21
-52.84312118
 31
2500.0
  0
LINE
  5
CC
100
AcDbEntity
  8
MST_1_1
 62
   137
  6
CONTINUOUS
100
AcDbLine
 10
-1.96250406
 20
-46.95454975
 30
0.0
 11
0.63749597
 21
-50.06597832
 31
0.0
  0
LINE
  5
CD
100
AcDbEntity
  8
MST_1_1
 62
   137
  6
CONTINUOUS
100
AcDbLine
 10
0.63749597
 20
-52.84312118
 30
0.0
 11
-1.96250406
 21
-55.95454975
 31
0.0
  0
LINE
  5
CE
100
AcDbEntity
  8
MST_1_1
 62
   137
  6
CONTINUOUS
100
AcDbLine
 10
-1.96250406
 20
-55.95454975
 30
0.0
 11
-2.06250403
 21
-55.95454975
 31
0.0
  0
LINE
  5
CF
100
AcDbEntity
  8
MST_1_1
 62
   137
  6
CONTINUOUS
100
AcDbLine
 10
-2.06250403
 20
-55.95454975
 30
0.0
 11
-2.06250403
 21
-51.45454975
 31
0.0
  0
LWPOLYLINE
  5
D0
100
AcDbEntity
  8
MST_1_1
 62
   137
  6
CONTINUOUS
100
AcDbPolyline
 90
        6
 70
     0
 43
0.0
 38
2500.0
 10
13.62263448
 20
-49.20454959
 10
13.42321025
 20
-50.06597832
 10
15.10928075
 20
-53.70454975
 10
15.27832031
 20
-52.77755034
 10
13.62263448
 20
-49.20454959
 10
15.10928075
 20
-53.70454975
  0
LWPOLYLINE
  5
D1
100
AcDbEntity
  8
MST_1_1
 62
   137
  6
CONTINUOUS
100
AcDbPolyline
 90
        6
 70
     0
 43
0.0
 38
2500.0
 10
16.15617245
 20
-49.49729301
 10
15.99463883
 20
-50.19505028
 10
17.38702553
 20
-53.19984664
 10
17.54855916
 20
-52.50208937
 10
16.15617245
 20
-49.49729301
 10
17.36035593
 20
-53.14229314
  0
LINE
  5
D2
100
AcDbEntity
  8
MST_1_1
 62
   251
  6
CONTINUOUS
100
AcDbLine
 10
12.73727648
 20
-52.84312118
 30
2500.0
 11
14.02444527
 21
-52.83743476
 31
2500.0
  0
LINE
  5
D3
100
AcDbEntity
  8
MST_1_1
 62
   251
  6
CONTINUOUS
100
AcDbLine
 10
13.42321025
 20
-50.06597832
 30
2500.0
 11
11.45038168
 21
-50.06597832
 31
2500.0
  0
ARC
  5
D4
100
AcDbEntity
  8
MST_1_1
 62
   251
  6
CONTINUOUS
100
AcDbCircle
 10
13.49439771
 20
-74.32685365
 30
2500.0
 40
24.26097977
100
AcDbArc
 50
84.08482032
 51
88.74811714
  0
LWPOLYLINE
  5
D5
100
AcDbEntity
  8
MST_1_1
 62
   251
  6
CONTINUOUS
100
AcDbPolyline
 90
        3
 70
     0
 43
0.0
 38
2500.0
 10
22.93749597
 20
-51.45454975
 10
18.15808505
 20
-50.51834341
 42
0.01723995
 10
16.50663588
 20
-50.2535996
  0
ARC
  5
D6
100
AcDbEntity
  8
MST_1_1
 62
   251
  6
CONTINUOUS
100
AcDbCircle
 10
13.49439771
 20
-28.58224585
 30
2500.0
 40
24.26097977
100
AcDbArc
 50
271.25189287
 51
272.83975061
  0
LWPOLYLINE
  5
D7
100
AcDbEntity
  8
MST_1_1
 62
   251
  6
CONTINUOUS
100
AcDbPolyline
 90
        3
 70
     0
 43
0.0
 38
2500.0
 10
22.93749597
 20
-51.45454975
 10
18.15808505
 20
-52.39075609
 42
-0.0063851
 10
17.54855916
 20
-52.50208937
  0
ARC
  5
D8
100
AcDbEntity
  8
MST_1_1
 62
   251
  6
CONTINUOUS
100
AcDbCircle
 10
13.49439771
 20
-28.58224585
 30
2500.0
 40
24.26097977
100
AcDbArc
 50
274.21680449
 51
278.53995004
  0
LWPOLYLINE
  5
D9
100
AcDbEntity
  8
MST_1_1
 62
   137
  6
CONTINUOUS
100
AcDbPolyline
 90
        6
 70
     0
 43
0.0
 38
2500.0
 10
18.67267959
 20
-50.1377405
 10
18.5660674
 20
-50.5982603
 10
19.48504262
 20
-52.5814259
 10
19.58699776
 20
-52.11085608
 10
18.67267959
 20
-50.1377405
 10
19.46744068
 20
-52.54344059
  0
LWPOLYLINE
  5
DA
100
AcDbEntity
  8
MST_1_1
 62
   137
  6
CONTINUOUS
100
AcDbPolyline
 90
        6
 70
     0
 43
0.0
 38
2500.0
 10
8.47977734
 20
-49.20454959
 10
8.28035311
 20
-50.06597832
 10
9.96642361
 20
-53.70454975
 10
10.1658479
 20
-52.84312118
 10
8.47977734
 20
-49.20454959
 10
9.96642361
 20
-53.70454975
  0
LWPOLYLINE
  5
DB
100
AcDbEntity
  8
MST_1_1
 62
   137
  6
CONTINUOUS
100
AcDbPolyline
 90
        6
 70
     0
 43
0.0
 38
2500.0
 10
11.05120591
 20
-49.20454959
 10
10.85178168
 20
-50.06597832
 10
12.53785218
 20
-53.70454975
 10
12.73727648
 20
-52.84312118
 10
11.05120591
 20
-49.20454959
 10
12.53785218
 20
-53.70454975
  0
LINE
  5
DC
100
AcDbEntity
  8
MST_1_1
 62
   251
  6
CONTINUOUS
100
AcDbLine
 10
7.59441933
 20
-52.84312118
 30
2500.0
 11
9.56724791
 21
-52.84312118
 31
2500.0
  0
LINE
  5
DD
100
AcDbEntity
  8
MST_1_1
 62
   251
  6
CONTINUOUS
100
AcDbLine
 10
10.1658479
 20
-52.84312118
 30
2500.0
 11
12.13867648
 21
-52.84312118
 31
2500.0
  0
LINE
  5
DE
100
AcDbEntity
  8
MST_1_1
 62
   251
  6
CONTINUOUS
100
AcDbLine
 10
8.28035311
 20
-50.06597832
 30
2500.0
 11
6.30752454
 21
-50.06597832
 31
2500.0
  0
LINE
  5
DF
100
AcDbEntity
  8
MST_1_1
 62
   251
  6
CONTINUOUS
100
AcDbLine
 10
10.85178168
 20
-50.06597832
 30
2500.0
 11
8.87895311
 21
-50.06597832
 31
2500.0
  0
LWPOLYLINE
  5
E0
100
AcDbEntity
  8
MST_1_1
 62
   137
  6
CONTINUOUS
100
AcDbPolyline
 90
        6
 70
     0
 43
0.0
 38
2500.0
 10
5.90834877
 20
-49.20454959
 10
5.70892454
 20
-50.06597832
 10
7.39499503
 20
-53.70454975
 10
7.59441933
 20
-52.84312118
 10
5.90834877
 20
-49.20454959
 10
7.39499503
 20
-53.70454975
  0
LINE
  5
E1
100
AcDbEntity
  8
MST_1_1
 62
   251
  6
CONTINUOUS
100
AcDbLine
 10
5.02299076
 20
-52.84312118
 30
2500.0
 11
6.99581933
 21
-52.84312118
 31
2500.0
  0
LINE
  5
E2
100
AcDbEntity
  8
MST_1_1
 62
   251
  6
CONTINUOUS
100
AcDbLine
 10
5.70892454
 20
-50.06597832
 30
2500.0
 11
3.73609597
 21
-50.06597832
 31
2500.0
  0
LINE
  5
E3
100
AcDbEntity
  8
MST_1_1
 62
   137
  6
CONTINUOUS
100
AcDbLine
 10
-2.06250403
 20
-21.45454975
 30
0.0
 11
-2.06250403
 21
-16.95454975
 31
0.0
  0
LINE
  5
E4
100
AcDbEntity
  8
MST_1_1
 62
   137
  6
CONTINUOUS
100
AcDbLine
 10
-2.06250403
 20
-16.95454975
 30
0.0
 11
-1.96250406
 21
-16.95454975
 31
0.0
  0
LWPOLYLINE
  5
E5
100
AcDbEntity
  8
MST_1_1
 62
   137
  6
CONTINUOUS
100
AcDbPolyline
 90
        6
 70
     0
 43
0.0
 38
2500.0
 10
3.47977734
 20
-19.20454959
 10
3.28035311
 20
-20.06597832
 10
4.96642361
 20
-23.70454975
 10
5.1658479
 20
-22.84312118
 10
3.47977734
 20
-19.20454959
 10
4.96642361
 20
-23.70454975
  0
LINE
  5
E6
100
AcDbEntity
  8
MST_1_1
 62
   137
  6
CONTINUOUS
100
AcDbLine
 10
0.63749597
 20
-20.06597832
 30
2500.0
 11
3.28035311
 21
-20.06597832
 31
2500.0
  0
LWPOLYLINE
  5
E7
100
AcDbEntity
  8
MST_1_1
 62
   137
  6
CONTINUOUS
100
AcDbPolyline
 90
        4
 70
     0
 43
0.0
 38
2500.0
 10
1.99581933
 20
-22.84312118
 10
2.39499503
 20
-23.70454975
 10
2.59441933
 20
-22.84312118
 10
2.29529724
 20
-22.19761015
  0
LINE
  5
E8
100
AcDbEntity
  8
MST_1_1
 62
   137
  6
CONTINUOUS
100
AcDbLine
 10
2.06274878
 20
-22.69885779
 30
2500.0
 11
2.39499503
 21
-23.70454975
 31
2500.0
  0
LINE
  5
E9
100
AcDbEntity
  8
MST_1_1
 62
   137
  6
CONTINUOUS
100
AcDbLine
 10
1.99581933
 20
-22.84312118
 30
2500.0
 11
2.29529724
 21
-22.19761015
 31
2500.0
  0
LINE
  5
EA
100
AcDbEntity
  8
MST_1_1
 62
   137
  6
CONTINUOUS
100
AcDbLine
 10
4.56724791
 20
-22.84312118
 30
2500.0
 11
2.59441933
 21
-22.84312118
 31
2500.0
  0
LINE
  5
EB
100
AcDbEntity
  8
MST_1_1
 62
   137
  6
CONTINUOUS
100
AcDbLine
 10
1.99581933
 20
-22.84312118
 30
2500.0
 11
0.63749597
 21
-22.84312118
 31
2500.0
  0
LINE
  5
EC
100
AcDbEntity
  8
MST_1_1
 62
   137
  6
CONTINUOUS
100
AcDbLine
 10
-1.96250406
 20
-16.95454975
 30
0.0
 11
0.63749597
 21
-20.06597832
 31
0.0
  0
LINE
  5
ED
100
AcDbEntity
  8
MST_1_1
 62
   137
  6
CONTINUOUS
100
AcDbLine
 10
0.63749597
 20
-22.84312118
 30
0.0
 11
-1.96250406
 21
-25.95454975
 31
0.0
  0
LINE
  5
EE
100
AcDbEntity
  8
MST_1_1
 62
   137
  6
CONTINUOUS
100
AcDbLine
 10
-1.96250406
 20
-25.95454975
 30
0.0
 11
-2.06250403
 21
-25.95454975
 31
0.0
  0
LINE
  5
EF
100
AcDbEntity
  8
MST_1_1
 62
   137
  6
CONTINUOUS
100
AcDbLine
 10
-2.06250403
 20
-25.95454975
 30
0.0
 11
-2.06250403
 21
-21.45454975
 31
0.0
  0
LWPOLYLINE
  5
F0
100
AcDbEntity
  8
MST_1_1
 62
   137
  6
CONTINUOUS
100
AcDbPolyline
 90
        6
 70
     0
 43
0.0
 38
2500.0
 10
8.62263448
 20
-19.20454959
 10
8.42321025
 20
-20.06597832
 10
10.10928075
 20
-23.70454975
 10
10.27832031
 20
-22.77755034
 10
8.62263448
 20
-19.20454959
 10
10.10928075
 20
-23.70454975
  0
LWPOLYLINE
  5
F1
100
AcDbEntity
  8
MST_1_1
 62
   137
  6
CONTINUOUS
100
AcDbPolyline
 90
        6
 70
     0
 43
0.0
 38
2500.0
 10
11.15617245
 20
-19.49729301
 10
10.99463883
 20
-20.19505028
 10
12.38702553
 20
-23.19984664
 10
12.54855916
 20
-22.50208937
 10
11.15617245
 20
-19.49729301
 10
12.36035593
 20
-23.14229314
  0
LINE
  5
F2
100
AcDbEntity
  8
MST_1_1
 62
   251
  6
CONTINUOUS
100
AcDbLine
 10
7.73727648
 20
-22.84312118
 30
2500.0
 11
9.02444527
 21
-22.83743476
 31
2500.0
  0
LINE
  5
F3
100
AcDbEntity
  8
MST_1_1
 62
   251
  6
CONTINUOUS
100
AcDbLine
 10
8.42321025
 20
-20.06597832
 30
2500.0
 11
6.45038168
 21
-20.06597832
 31
2500.0
  0
ARC
  5
F4
100
AcDbEntity
  8
MST_1_1
 62
   251
  6
CONTINUOUS
100
AcDbCircle
 10
8.49439771
 20
-44.32685365
 30
2500.0
 40
24.26097977
100
AcDbArc
 50
84.08482032
 51
88.74811714
  0
LWPOLYLINE
  5
F5
100
AcDbEntity
  8
MST_1_1
 62
   251
  6
CONTINUOUS
100
AcDbPolyline
 90
        3
 70
     0
 43
0.0
 38
2500.0
 10
17.93749597
 20
-21.45454975
 10
13.15808505
 20
-20.51834341
 42
0.01723995
 10
11.50663588
 20
-20.2535996
  0
ARC
  5
F6
100
AcDbEntity
  8
MST_1_1
 62
   251
  6
CONTINUOUS
100
AcDbCircle
 10
8.49439771
 20
1.41775415
 30
2500.0
 40
24.26097977
100
AcDbArc
 50
271.25189287
 51
272.83975061
  0
LWPOLYLINE
  5
F7
100
AcDbEntity
  8
MST_1_1
 62
   251
  6
CONTINUOUS
100
AcDbPolyline
 90
        3
 70
     0
 43
0.0
 38
2500.0
 10
17.93749597
 20
-21.45454975
 10
13.15808505
 20
-22.39075609
 42
-0.0063851
 10
12.54855916
 20
-22.50208937
  0
ARC
  5
F8
100
AcDbEntity
  8
MST_1_1
 62
   251
  6
CONTINUOUS
100
AcDbCircle
 10
8.49439771
 20
1.41775415
 30
2500.0
 40
24.26097977
100
AcDbArc
 50
274.21680449
 51
278.53995004
  0
LWPOLYLINE
  5
F9
100
AcDbEntity
  8
MST_1_1
 62
   137
  6
CONTINUOUS
100
AcDbPolyline
 90
        6
 70
     0
 43
0.0
 38
2500.0
 10
13.67267959
 20
-20.1377405
 10
13.5660674
 20
-20.5982603
 10
14.48504262
 20
-22.5814259
 10
14.58699776
 20
-22.11085608
 10
13.67267959
 20
-20.1377405
 10
14.46744068
 20
-22.54344059
  0
LINE
  5
FA
100
AcDbEntity
  8
MST_1_1
 62
   137
  6
CONTINUOUS
100
AcDbLine
 10
-2.06250403
 20
8.54545025
 30
0.0
 11
-2.06250403
 21
13.04545025
 31
0.0
  0
LINE
  5
FB
100
AcDbEntity
  8
MST_1_1
 62
   137
  6
CONTINUOUS
100
AcDbLine
 10
-2.06250403
 20
13.04545025
 30
0.0
 11
-1.96250406
 21
13.04545025
 31
0.0
  0
LINE
  5
FC
100
AcDbEntity
  8
MST_1_1
 62
   137
  6
CONTINUOUS
100
AcDbLine
 10
0.63749597
 20
9.93402168
 30
2500.0
 11
1.85178168
 21
9.93402168
 31
2500.0
  0
LINE
  5
FD
100
AcDbEntity
  8
MST_1_1
 62
   137
  6
CONTINUOUS
100
AcDbLine
 10
3.13867648
 20
7.15687882
 30
2500.0
 11
0.63749597
 21
7.15687882
 31
2500.0
  0
LINE
  5
FE
100
AcDbEntity
  8
MST_1_1
 62
   137
  6
CONTINUOUS
100
AcDbLine
 10
-1.96250406
 20
13.04545025
 30
0.0
 11
0.63749597
 21
9.93402168
 31
0.0
  0
LINE
  5
FF
100
AcDbEntity
  8
MST_1_1
 62
   137
  6
CONTINUOUS
100
AcDbLine
 10
0.63749597
 20
7.15687882
 30
0.0
 11
-1.96250406
 21
4.04545025
 31
0.0
  0
LINE
  5
100
100
AcDbEntity
  8
MST_1_1
 62
   137
  6
CONTINUOUS
100
AcDbLine
 10
-1.96250406
 20
4.04545025
 30
0.0
 11
-2.06250403
 21
4.04545025
 31
0.0
  0
LINE
  5
101
100
AcDbEntity
  8
MST_1_1
 62
   137
  6
CONTINUOUS
100
AcDbLine
 10
-2.06250403
 20
4.04545025
 30
0.0
 11
-2.06250403
 21
8.54545025
 31
0.0
  0
LWPOLYLINE
  5
102
100
AcDbEntity
  8
MST_1_1
 62
   137
  6
CONTINUOUS
100
AcDbPolyline
 90
        6
 70
     0
 43
0.0
 38
2500.0
 10
4.62263448
 20
10.79545041
 10
4.42321025
 20
9.93402168
 10
6.10928075
 20
6.29545025
 10
6.27832031
 20
7.22244966
 10
4.62263448
 20
10.79545041
 10
6.10928075
 20
6.29545025
  0
LWPOLYLINE
  5
103
100
AcDbEntity
  8
MST_1_1
 62
   137
  6
CONTINUOUS
100
AcDbPolyline
 90
        6
 70
     0
 43
0.0
 38
2500.0
 10
7.15617245
 20
10.50270699
 10
6.99463883
 20
9.80494972
 10
8.38702553
 20
6.80015336
 10
8.54855916
 20
7.49791063
 10
7.15617245
 20
10.50270699
 10
8.36035593
 20
6.85770686
  0
LINE
  5
104
100
AcDbEntity
  8
MST_1_1
 62
   251
  6
CONTINUOUS
100
AcDbLine
 10
3.73727648
 20
7.15687882
 30
2500.0
 11
5.02444527
 21
7.16256524
 31
2500.0
  0
ARC
  5
105
100
AcDbEntity
  8
MST_1_1
 62
   251
  6
CONTINUOUS
100
AcDbCircle
 10
4.49439771
 20
-14.32685365
 30
2500.0
 40
24.26097977
100
AcDbArc
 50
84.08482032
 51
88.74811714
  0
LWPOLYLINE
  5
106
100
AcDbEntity
  8
MST_1_1
 62
   251
  6
CONTINUOUS
100
AcDbPolyline
 90
        3
 70
     0
 43
0.0
 38
2500.0
 10
13.93749597
 20
8.54545025
 10
9.15808505
 20
9.48165659
 42
0.01723995
 10
7.50663588
 20
9.7464004
  0
ARC
  5
107
100
AcDbEntity
  8
MST_1_1
 62
   251
  6
CONTINUOUS
100
AcDbCircle
 10
4.49439771
 20
31.41775415
 30
2500.0
 40
24.26097977
100
AcDbArc
 50
271.25189287
 51
272.83975061
  0
LWPOLYLINE
  5
108
100
AcDbEntity
  8
MST_1_1
 62
   251
  6
CONTINUOUS
100
AcDbPolyline
 90
        3
 70
     0
 43
0.0
 38
2500.0
 10
13.93749597
 20
8.54545025
 10
9.15808505
 20
7.60924391
 42
-0.0063851
 10
8.54855916
 20
7.49791063
  0
ARC
  5
109
100
AcDbEntity
  8
MST_1_1
 62
   251
  6
CONTINUOUS
100
AcDbCircle
 10
4.49439771
 20
31.41775415
 30
2500.0
 40
24.26097977
100
AcDbArc
 50
274.21680449
 51
278.53995004
  0
LWPOLYLINE
  5
10A
100
AcDbEntity
  8
MST_1_1
 62
   137
  6
CONTINUOUS
100
AcDbPolyline
 90
        6
 70
     0
 43
0.0
 38
2500.0
 10
9.67267959
 20
9.8622595
 10
9.5660674
 20
9.4017397
 10
10.48504262
 20
7.4185741
 10
10.58699776
 20
7.88914392
 10
9.67267959
 20
9.8622595
 10
10.46744068
 20
7.45655941
  0
LINE
  5
10B
100
AcDbEntity
  8
MST_1_1
 62
   137
  6
CONTINUOUS
100
AcDbLine
 10
-2.06250403
 20
-111.45454975
 30
0.0
 11
-2.06250403
 21
-106.95454975
 31
0.0
  0
LINE
  5
10C
100
AcDbEntity
  8
MST_1_1
 62
   137
  6
CONTINUOUS
100
AcDbLine
 10
-2.06250403
 20
-106.95454975
 30
0.0
 11
-1.96250406
 21
-106.95454975
 31
0.0
  0
LWPOLYLINE
  5
10D
100
AcDbEntity
  8
MST_1_1
 62
   137
  6
CONTINUOUS
100
AcDbPolyline
 90
        6
 70
     0
 43
0.0
 38
2500.0
 10
3.05120591
 20
-109.20454959
 10
2.85178168
 20
-110.06597832
 10
4.53785218
 20
-113.70454975
 10
4.73727648
 20
-112.84312118
 10
3.05120591
 20
-109.20454959
 10
4.53785218
 20
-113.70454975
  0
LINE
  5
10E
100
AcDbEntity
  8
MST_1_1
 62
   137
  6
CONTINUOUS
100
AcDbLine
 10
0.63749597
 20
-110.06597832
 30
2500.0
 11
2.85178168
 21
-110.06597832
 31
2500.0
  0
LWPOLYLINE
  5
10F
100
AcDbEntity
  8
MST_1_1
 62
   137
  6
CONTINUOUS
100
AcDbPolyline
 90
        4
 70
     0
 43
0.0
 38
2500.0
 10
1.56724791
 20
-112.84312118
 10
1.96642361
 20
-113.70454975
 10
2.1658479
 20
-112.84312118
 10
1.86672581
 20
-112.19761015
  0
LINE
  5
110
100
AcDbEntity
  8
MST_1_1
 62
   137
  6
CONTINUOUS
100
AcDbLine
 10
1.63417735
 20
-112.69885779
 30
2500.0
 11
1.96642361
 21
-113.70454975
 31
2500.0
  0
LINE
  5
111
100
AcDbEntity
  8
MST_1_1
 62
   137
  6
CONTINUOUS
100
AcDbLine
 10
1.56724791
 20
-112.84312118
 30
2500.0
 11
1.86672581
 21
-112.19761015
 31
2500.0
  0
LINE
  5
112
100
AcDbEntity
  8
MST_1_1
 62
   137
  6
CONTINUOUS
100
AcDbLine
 10
4.13867648
 20
-112.84312118
 30
2500.0
 11
2.1658479
 21
-112.84312118
 31
2500.0
  0
LINE
  5
113
100
AcDbEntity
  8
MST_1_1
 62
   137
  6
CONTINUOUS
100
AcDbLine
 10
1.56724791
 20
-112.84312118
 30
2500.0
 11
0.63749597
 21
-112.84312118
 31
2500.0
  0
LINE
  5
114
100
AcDbEntity
  8
MST_1_1
 62
   137
  6
CONTINUOUS
100
AcDbLine
 10
-1.96250406
 20
-106.95454975
 30
0.0
 11
0.63749597
 21
-110.06597832
 31
0.0
  0
LINE
  5
115
100
AcDbEntity
  8
MST_1_1
 62
   137
  6
CONTINUOUS
100
AcDbLine
 10
0.63749597
 20
-112.84312118
 30
0.0
 11
-1.96250406
 21
-115.95454975
 31
0.0
  0
LINE
  5
116
100
AcDbEntity
  8
MST_1_1
 62
   137
  6
CONTINUOUS
100
AcDbLine
 10
-1.96250406
 20
-115.95454975
 30
0.0
 11
-2.06250403
 21
-115.95454975
 31
0.0
  0
LINE
  5
117
100
AcDbEntity
  8
MST_1_1
 62
   137
  6
CONTINUOUS
100
AcDbLine
 10
-2.06250403
 20
-115.95454975
 30
0.0
 11
-2.06250403
 21
-111.45454975
 31
0.0
  0
LWPOLYLINE
  5
118
100
AcDbEntity
  8
MST_1_1
 62
   137
  6
CONTINUOUS
100
AcDbPolyline
 90
        6
 70
     0
 43
0.0
 38
2500.0
 10
5.62263448
 20
-109.20454959
 10
5.42321025
 20
-110.06597832
 10
7.10928075
 20
-113.70454975
 10
7.30870505
 20
-112.84312118
 10
5.62263448
 20
-109.20454959
 10
7.10928075
 20
-113.70454975
  0
LWPOLYLINE
  5
119
100
AcDbEntity
  8
MST_1_1
 62
   137
  6
CONTINUOUS
100
AcDbPolyline
 90
        6
 70
     0
 43
0.0
 38
2500.0
 10
8.19406305
 20
-109.20454959
 10
7.99463883
 20
-110.06597832
 10
9.68070932
 20
-113.70454975
 10
9.88013362
 20
-112.84312118
 10
8.19406305
 20
-109.20454959
 10
9.68070932
 20
-113.70454975
  0
LWPOLYLINE
  5
11A
100
AcDbEntity
  8
MST_1_1
 62
   137
  6
CONTINUOUS
100
AcDbPolyline
 90
        6
 70
     0
 43
0.0
 38
2500.0
 10
23.62263448
 20
-109.20454959
 10
23.42321025
 20
-110.06597832
 10
25.10928075
 20
-113.70454975
 10
25.27832031
 20
-112.77755034
 10
23.62263448
 20
-109.20454959
 10
25.10928075
 20
-113.70454975
  0
LWPOLYLINE
  5
11B
100
AcDbEntity
  8
MST_1_1
 62
   137
  6
CONTINUOUS
100
AcDbPolyline
 90
        6
 70
     0
 43
0.0
 38
2500.0
 10
26.15617245
 20
-109.49729301
 10
25.99463883
 20
-110.19505028
 10
27.38702553
 20
-113.19984664
 10
27.54855916
 20
-112.50208937
 10
26.15617245
 20
-109.49729301
 10
27.36035593
 20
-113.14229314
  0
LINE
  5
11C
100
AcDbEntity
  8
MST_1_1
 62
   251
  6
CONTINUOUS
100
AcDbLine
 10
4.73727648
 20
-112.84312118
 30
2500.0
 11
6.71010505
 21
-112.84312118
 31
2500.0
  0
LINE
  5
11D
100
AcDbEntity
  8
MST_1_1
 62
   251
  6
CONTINUOUS
100
AcDbLine
 10
7.30870505
 20
-112.84312118
 30
2500.0
 11
9.28153362
 21
-112.84312118
 31
2500.0
  0
LINE
  5
11E
100
AcDbEntity
  8
MST_1_1
 62
   251
  6
CONTINUOUS
100
AcDbLine
 10
22.73727648
 20
-112.84312118
 30
2500.0
 11
24.02444527
 21
-112.83743476
 31
2500.0
  0
LINE
  5
11F
100
AcDbEntity
  8
MST_1_1
 62
   251
  6
CONTINUOUS
100
AcDbLine
 10
5.42321025
 20
-110.06597832
 30
2500.0
 11
3.45038168
 21
-110.06597832
 31
2500.0
  0
LINE
  5
120
100
AcDbEntity
  8
MST_1_1
 62
   251
  6
CONTINUOUS
100
AcDbLine
 10
7.99463883
 20
-110.06597832
 30
2500.0
 11
6.02181025
 21
-110.06597832
 31
2500.0
  0
LINE
  5
121
100
AcDbEntity
  8
MST_1_1
 62
   251
  6
CONTINUOUS
100
AcDbLine
 10
23.42321025
 20
-110.06597832
 30
2500.0
 11
21.45038168
 21
-110.06597832
 31
2500.0
  0
ARC
  5
122
100
AcDbEntity
  8
MST_1_1
 62
   251
  6
CONTINUOUS
100
AcDbCircle
 10
23.49439771
 20
-134.32685365
 30
2500.0
 40
24.26097977
100
AcDbArc
 50
84.08482032
 51
88.74811714
  0
LWPOLYLINE
  5
123
100
AcDbEntity
  8
MST_1_1
 62
   251
  6
CONTINUOUS
100
AcDbPolyline
 90
        3
 70
     0
 43
0.0
 38
2500.0
 10
32.93749597
 20
-111.45454975
 10
28.15808505
 20
-110.51834341
 42
0.01723995
 10
26.50663588
 20
-110.2535996
  0
ARC
  5
124
100
AcDbEntity
  8
MST_1_1
 62
   251
  6
CONTINUOUS
100
AcDbCircle
 10
23.49439771
 20
-88.58224585
 30
2500.0
 40
24.26097977
100
AcDbArc
 50
271.25189287
 51
272.83975061
  0
LWPOLYLINE
  5
125
100
AcDbEntity
  8
MST_1_1
 62
   251
  6
CONTINUOUS
100
AcDbPolyline
 90
        3
 70
     0
 43
0.0
 38
2500.0
 10
32.93749597
 20
-111.45454975
 10
28.15808505
 20
-112.39075609
 42
-0.0063851
 10
27.54855916
 20
-112.50208937
  0
ARC
  5
126
100
AcDbEntity
  8
MST_1_1
 62
   251
  6
CONTINUOUS
100
AcDbCircle
 10
23.49439771
 20
-88.58224585
 30
2500.0
 40
24.26097977
100
AcDbArc
 50
274.21680449
 51
278.53995004
  0
LWPOLYLINE
  5
127
100
AcDbEntity
  8
MST_1_1
 62
   137
  6
CONTINUOUS
100
AcDbPolyline
 90
        6
 70
     0
 43
0.0
 38
2500.0
 10
28.67267959
 20
-110.1377405
 10
28.5660674
 20
-110.5982603
 10
29.48504262
 20
-112.5814259
 10
29.58699776
 20
-112.11085608
 10
28.67267959
 20
-110.1377405
 10
29.46744068
 20
-112.54344059
  0
LWPOLYLINE
  5
128
100
AcDbEntity
  8
MST_1_1
 62
   137
  6
CONTINUOUS
100
AcDbPolyline
 90
        6
 70
     0
 43
0.0
 38
2500.0
 10
13.3369202
 20
-109.20454959
 10
13.13749597
 20
-110.06597832
 10
14.82356646
 20
-113.70454975
 10
15.02299076
 20
-112.84312118
 10
13.3369202
 20
-109.20454959
 10
14.82356646
 20
-113.70454975
  0
LWPOLYLINE
  5
129
100
AcDbEntity
  8
MST_1_1
 62
   137
  6
CONTINUOUS
100
AcDbPolyline
 90
        6
 70
     0
 43
0.0
 38
2500.0
 10
21.05120591
 20
-109.20454959
 10
20.85178168
 20
-110.06597832
 10
22.53785218
 20
-113.70454975
 10
22.73727648
 20
-112.84312118
 10
21.05120591
 20
-109.20454959
 10
22.53785218
 20
-113.70454975
  0
LINE
  5
12A
100
AcDbEntity
  8
MST_1_1
 62
   251
  6
CONTINUOUS
100
AcDbLine
 10
12.45156219
 20
-112.84312118
 30
2500.0
 11
14.42439076
 21
-112.84312118
 31
2500.0
  0
LINE
  5
12B
100
AcDbEntity
  8
MST_1_1
 62
   251
  6
CONTINUOUS
100
AcDbLine
 10
20.1658479
 20
-112.84312118
 30
2500.0
 11
22.13867648
 21
-112.84312118
 31
2500.0
  0
LINE
  5
12C
100
AcDbEntity
  8
MST_1_1
 62
   251
  6
CONTINUOUS
100
AcDbLine
 10
13.13749597
 20
-110.06597832
 30
2500.0
 11
11.1646674
 21
-110.06597832
 31
2500.0
  0
LINE
  5
12D
100
AcDbEntity
  8
MST_1_1
 62
   251
  6
CONTINUOUS
100
AcDbLine
 10
20.85178168
 20
-110.06597832
 30
2500.0
 11
18.87895311
 21
-110.06597832
 31
2500.0
  0
LWPOLYLINE
  5
12E
100
AcDbEntity
  8
MST_1_1
 62
   137
  6
CONTINUOUS
100
AcDbPolyline
 90
        6
 70
     0
 43
0.0
 38
2500.0
 10
10.76549162
 20
-109.20454959
 10
10.5660674
 20
-110.06597832
 10
12.25213789
 20
-113.70454975
 10
12.45156219
 20
-112.84312118
 10
10.76549162
 20
-109.20454959
 10
12.25213789
 20
-113.70454975
  0
LINE
  5
12F
100
AcDbEntity
  8
MST_1_1
 62
   251
  6
CONTINUOUS
100
AcDbLine
 10
9.88013362
 20
-112.84312118
 30
2500.0
 11
11.85296219
 21
-112.84312118
 31
2500.0
  0
LINE
  5
130
100
AcDbEntity
  8
MST_1_1
 62
   251
  6
CONTINUOUS
100
AcDbLine
 10
10.5660674
 20
-110.06597832
 30
2500.0
 11
8.59323882
 21
-110.06597832
 31
2500.0
  0
LINE
  5
131
100
AcDbEntity
  8
MST_1_1
 62
   137
  6
CONTINUOUS
100
AcDbLine
 10
-2.06250403
 20
-141.45454975
 30
0.0
 11
-2.06250403
 21
-136.95454975
 31
0.0
  0
LINE
  5
132
100
AcDbEntity
  8
MST_1_1
 62
   137
  6
CONTINUOUS
100
AcDbLine
 10
-2.06250403
 20
-136.95454975
 30
0.0
 11
-1.96250406
 21
-136.95454975
 31
0.0
  0
LWPOLYLINE
  5
133
100
AcDbEntity
  8
MST_1_1
 62
   137
  6
CONTINUOUS
100
AcDbPolyline
 90
        6
 70
     0
 43
0.0
 38
2500.0
 10
2.90834877
 20
-139.20454959
 10
2.70892454
 20
-140.06597832
 10
4.39499503
 20
-143.70454975
 10
4.59441933
 20
-142.84312118
 10
2.90834877
 20
-139.20454959
 10
4.39499503
 20
-143.70454975
  0
LINE
  5
134
100
AcDbEntity
  8
MST_1_1
 62
   137
  6
CONTINUOUS
100
AcDbLine
 10
0.63749597
 20
-140.06597832
 30
2500.0
 11
2.70892454
 21
-140.06597832
 31
2500.0
  0
LWPOLYLINE
  5
135
100
AcDbEntity
  8
MST_1_1
 62
   137
  6
CONTINUOUS
100
AcDbPolyline
 90
        4
 70
     0
 43
0.0
 38
2500.0
 10
1.42439076
 20
-142.84312118
 10
1.82356646
 20
-143.70454975
 10
2.02299076
 20
-142.84312118
 10
1.72386867
 20
-142.19761015
  0
LINE
  5
136
100
AcDbEntity
  8
MST_1_1
 62
   137
  6
CONTINUOUS
100
AcDbLine
 10
1.49132021
 20
-142.69885779
 30
2500.0
 11
1.82356646
 21
-143.70454975
 31
2500.0
  0
LINE
  5
137
100
AcDbEntity
  8
MST_1_1
 62
   137
  6
CONTINUOUS
100
AcDbLine
 10
1.42439076
 20
-142.84312118
 30
2500.0
 11
1.72386867
 21
-142.19761015
 31
2500.0
  0
LINE
  5
138
100
AcDbEntity
  8
MST_1_1
 62
   137
  6
CONTINUOUS
100
AcDbLine
 10
3.99581933
 20
-142.84312118
 30
2500.0
 11
2.02299076
 21
-142.84312118
 31
2500.0
  0
LINE
  5
139
100
AcDbEntity
  8
MST_1_1
 62
   137
  6
CONTINUOUS
100
AcDbLine
 10
1.42439076
 20
-142.84312118
 30
2500.0
 11
0.63749597
 21
-142.84312118
 31
2500.0
  0
LINE
  5
13A
100
AcDbEntity
  8
MST_1_1
 62
   137
  6
CONTINUOUS
100
AcDbLine
 10
-1.96250406
 20
-136.95454975
 30
0.0
 11
0.63749597
 21
-140.06597832
 31
0.0
  0
LINE
  5
13B
100
AcDbEntity
  8
MST_1_1
 62
   137
  6
CONTINUOUS
100
AcDbLine
 10
0.63749597
 20
-142.84312118
 30
0.0
 11
-1.96250406
 21
-145.95454975
 31
0.0
  0
LINE
  5
13C
100
AcDbEntity
  8
MST_1_1
 62
   137
  6
CONTINUOUS
100
AcDbLine
 10
-1.96250406
 20
-145.95454975
 30
0.0
 11
-2.06250403
 21
-145.95454975
 31
0.0
  0
LINE
  5
13D
100
AcDbEntity
  8
MST_1_1
 62
   137
  6
CONTINUOUS
100
AcDbLine
 10
-2.06250403
 20
-145.95454975
 30
0.0
 11
-2.06250403
 21
-141.45454975
 31
0.0
  0
LWPOLYLINE
  5
13E
100
AcDbEntity
  8
MST_1_1
 62
   137
  6
CONTINUOUS
100
AcDbPolyline
 90
        6
 70
     0
 43
0.0
 38
2500.0
 10
5.47977734
 20
-139.20454959
 10
5.28035311
 20
-140.06597832
 10
6.96642361
 20
-143.70454975
 10
7.1658479
 20
-142.84312118
 10
5.47977734
 20
-139.20454959
 10
6.96642361
 20
-143.70454975
  0
LWPOLYLINE
  5
13F
100
AcDbEntity
  8
MST_1_1
 62
   137
  6
CONTINUOUS
100
AcDbPolyline
 90
        6
 70
     0
 43
0.0
 38
2500.0
 10
8.05120591
 20
-139.20454959
 10
7.85178168
 20
-140.06597832
 10
9.53785218
 20
-143.70454975
 10
9.73727648
 20
-142.84312118
 10
8.05120591
 20
-139.20454959
 10
9.53785218
 20
-143.70454975
  0
LWPOLYLINE
  5
140
100
AcDbEntity
  8
MST_1_1
 62
   137
  6
CONTINUOUS
100
AcDbPolyline
 90
        6
 70
     0
 43
0.0
 38
2500.0
 10
28.62263448
 20
-139.20454959
 10
28.42321025
 20
-140.06597832
 10
30.10928075
 20
-143.70454975
 10
30.27832031
 20
-142.77755034
 10
28.62263448
 20
-139.20454959
 10
30.10928075
 20
-143.70454975
  0
LWPOLYLINE
  5
141
100
AcDbEntity
  8
MST_1_1
 62
   137
  6
CONTINUOUS
100
AcDbPolyline
 90
        6
 70
     0
 43
0.0
 38
2500.0
 10
31.15617245
 20
-139.49729301
 10
30.99463883
 20
-140.19505028
 10
32.38702553
 20
-143.19984664
 10
32.54855916
 20
-142.50208937
 10
31.15617245
 20
-139.49729301
 10
32.36035593
 20
-143.14229314
  0
LINE
  5
142
100
AcDbEntity
  8
MST_1_1
 62
   251
  6
CONTINUOUS
100
AcDbLine
 10
4.59441933
 20
-142.84312118
 30
2500.0
 11
6.56724791
 21
-142.84312118
 31
2500.0
  0
LINE
  5
143
100
AcDbEntity
  8
MST_1_1
 62
   251
  6
CONTINUOUS
100
AcDbLine
 10
7.1658479
 20
-142.84312118
 30
2500.0
 11
9.13867648
 21
-142.84312118
 31
2500.0
  0
LINE
  5
144
100
AcDbEntity
  8
MST_1_1
 62
   251
  6
CONTINUOUS
100
AcDbLine
 10
27.73727648
 20
-142.84312118
 30
2500.0
 11
29.02444527
 21
-142.83743476
 31
2500.0
  0
LINE
  5
145
100
AcDbEntity
  8
MST_1_1
 62
   251
  6
CONTINUOUS
100
AcDbLine
 10
5.28035311
 20
-140.06597832
 30
2500.0
 11
3.30752454
 21
-140.06597832
 31
2500.0
  0
LINE
  5
146
100
AcDbEntity
  8
MST_1_1
 62
   251
  6
CONTINUOUS
100
AcDbLine
 10
7.85178168
 20
-140.06597832
 30
2500.0
 11
5.87895311
 21
-140.06597832
 31
2500.0
  0
LINE
  5
147
100
AcDbEntity
  8
MST_1_1
 62
   251
  6
CONTINUOUS
100
AcDbLine
 10
28.42321025
 20
-140.06597832
 30
2500.0
 11
26.45038168
 21
-140.06597832
 31
2500.0
  0
ARC
  5
148
100
AcDbEntity
  8
MST_1_1
 62
   251
  6
CONTINUOUS
100
AcDbCircle
 10
28.49439771
 20
-164.32685365
 30
2500.0
 40
24.26097977
100
AcDbArc
 50
84.08482032
 51
88.74811714
  0
LWPOLYLINE
  5
149
100
AcDbEntity
  8
MST_1_1
 62
   251
  6
CONTINUOUS
100
AcDbPolyline
 90
        3
 70
     0
 43
0.0
 38
2500.0
 10
37.93749597
 20
-141.45454975
 10
33.15808505
 20
-140.51834341
 42
0.01723995
 10
31.50663588
 20
-140.2535996
  0
ARC
  5
14A
100
AcDbEntity
  8
MST_1_1
 62
   251
  6
CONTINUOUS
100
AcDbCircle
 10
28.49439771
 20
-118.58224585
 30
2500.0
 40
24.26097977
100
AcDbArc
 50
271.25189287
 51
272.83975061
  0
LWPOLYLINE
  5
14B
100
AcDbEntity
  8
MST_1_1
 62
   251
  6
CONTINUOUS
100
AcDbPolyline
 90
        3
 70
     0
 43
0.0
 38
2500.0
 10
37.93749597
 20
-141.45454975
 10
33.15808505
 20
-142.39075609
 42
-0.0063851
 10
32.54855916
 20
-142.50208937
  0
ARC
  5
14C
100
AcDbEntity
  8
MST_1_1
 62
   251
  6
CONTINUOUS
100
AcDbCircle
 10
28.49439771
 20
-118.58224585
 30
2500.0
 40
24.26097977
100
AcDbArc
 50
274.21680449
 51
278.53995004
  0
LWPOLYLINE
  5
14D
100
AcDbEntity
  8
MST_1_1
 62
   137
  6
CONTINUOUS
100
AcDbPolyline
 90
        6
 70
     0
 43
0.0
 38
2500.0
 10
33.67267959
 20
-140.1377405
 10
33.5660674
 20
-140.5982603
 10
34.48504262
 20
-142.5814259
 10
34.58699776
 20
-142.11085608
 10
33.67267959
 20
-140.1377405
 10
34.46744068
 20
-142.54344059
  0
LWPOLYLINE
  5
14E
100
AcDbEntity
  8
MST_1_1
 62
   137
  6
CONTINUOUS
100
AcDbPolyline
 90
        6
 70
     0
 43
0.0
 38
2500.0
 10
13.19406305
 20
-139.20454959
 10
12.99463883
 20
-140.06597832
 10
14.68070932
 20
-143.70454975
 10
14.88013362
 20
-142.84312118
 10
13.19406305
 20
-139.20454959
 10
14.68070932
 20
-143.70454975
  0
LWPOLYLINE
  5
14F
100
AcDbEntity
  8
MST_1_1
 62
   137
  6
CONTINUOUS
100
AcDbPolyline
 90
        6
 70
     0
 43
0.0
 38
2500.0
 10
26.05120591
 20
-139.20454959
 10
25.85178168
 20
-140.06597832
 10
27.53785218
 20
-143.70454975
 10
27.73727648
 20
-142.84312118
 10
26.05120591
 20
-139.20454959
 10
27.53785218
 20
-143.70454975
  0
LINE
  5
150
100
AcDbEntity
  8
MST_1_1
 62
   251
  6
CONTINUOUS
100
AcDbLine
 10
12.30870505
 20
-142.84312118
 30
2500.0
 11
14.28153362
 21
-142.84312118
 31
2500.0
  0
LINE
  5
151
100
AcDbEntity
  8
MST_1_1
 62
   251
  6
CONTINUOUS
100
AcDbLine
 10
25.1658479
 20
-142.84312118
 30
2500.0
 11
27.13867648
 21
-142.84312118
 31
2500.0
  0
LINE
  5
152
100
AcDbEntity
  8
MST_1_1
 62
   251
  6
CONTINUOUS
100
AcDbLine
 10
12.99463883
 20
-140.06597832
 30
2500.0
 11
11.02181025
 21
-140.06597832
 31
2500.0
  0
LINE
  5
153
100
AcDbEntity
  8
MST_1_1
 62
   251
  6
CONTINUOUS
100
AcDbLine
 10
25.85178168
 20
-140.06597832
 30
2500.0
 11
23.87895311
 21
-140.06597832
 31
2500.0
  0
LWPOLYLINE
  5
154
100
AcDbEntity
  8
MST_1_1
 62
   137
  6
CONTINUOUS
100
AcDbPolyline
 90
        6
 70
     0
 43
0.0
 38
2500.0
 10
10.62263448
 20
-139.20454959
 10
10.42321025
 20
-140.06597832
 10
12.10928075
 20
-143.70454975
 10
12.30870505
 20
-142.84312118
 10
10.62263448
 20
-139.20454959
 10
12.10928075
 20
-143.70454975
  0
LINE
  5
155
100
AcDbEntity
  8
MST_1_1
 62
   251
  6
CONTINUOUS
100
AcDbLine
 10
9.73727648
 20
-142.84312118
 30
2500.0
 11
11.71010505
 21
-142.84312118
 31
2500.0
  0
LINE
  5
156
100
AcDbEntity
  8
MST_1_1
 62
   251
  6
CONTINUOUS
100
AcDbLine
 10
10.42321025
 20
-140.06597832
 30
2500.0
 11
8.45038168
 21
-140.06597832
 31
2500.0
  0
LINE
  5
157
100
AcDbEntity
  8
MST_1_1
 62
   137
  6
CONTINUOUS
100
AcDbLine
 10
-2.06250403
 20
-171.45454975
 30
0.0
 11
-2.06250403
 21
-166.95454975
 31
0.0
  0
LINE
  5
158
100
AcDbEntity
  8
MST_1_1
 62
   137
  6
CONTINUOUS
100
AcDbLine
 10
-2.06250403
 20
-166.95454975
 30
0.0
 11
-1.96250406
 21
-166.95454975
 31
0.0
  0
LWPOLYLINE
  5
159
100
AcDbEntity
  8
MST_1_1
 62
   137
  6
CONTINUOUS
100
AcDbPolyline
 90
        6
 70
     0
 43
0.0
 38
2500.0
 10
2.76549162
 20
-169.20454959
 10
2.5660674
 20
-170.06597832
 10
4.25213789
 20
-173.70454975
 10
4.45156219
 20
-172.84312118
 10
2.76549162
 20
-169.20454959
 10
4.25213789
 20
-173.70454975
  0
LINE
  5
15A
100
AcDbEntity
  8
MST_1_1
 62
   137
  6
CONTINUOUS
100
AcDbLine
 10
0.63749597
 20
-170.06597832
 30
2500.0
 11
2.5660674
 21
-170.06597832
 31
2500.0
  0
LWPOLYLINE
  5
15B
100
AcDbEntity
  8
MST_1_1
 62
   137
  6
CONTINUOUS
100
AcDbPolyline
 90
        4
 70
     0
 43
0.0
 38
2500.0
 10
1.28153362
 20
-172.84312118
 10
1.68070932
 20
-173.70454975
 10
1.88013362
 20
-172.84312118
 10
1.58101153
 20
-172.19761015
  0
LINE
  5
15C
100
AcDbEntity
  8
MST_1_1
 62
   137
  6
CONTINUOUS
100
AcDbLine
 10
1.34846307
 20
-172.69885779
 30
2500.0
 11
1.68070932
 21
-173.70454975
 31
2500.0
  0
LINE
  5
15D
100
AcDbEntity
  8
MST_1_1
 62
   137
  6
CONTINUOUS
100
AcDbLine
 10
1.28153362
 20
-172.84312118
 30
2500.0
 11
1.58101153
 21
-172.19761015
 31
2500.0
  0
LINE
  5
15E
100
AcDbEntity
  8
MST_1_1
 62
   137
  6
CONTINUOUS
100
AcDbLine
 10
3.85296219
 20
-172.84312118
 30
2500.0
 11
1.88013362
 21
-172.84312118
 31
2500.0
  0
LINE
  5
15F
100
AcDbEntity
  8
MST_1_1
 62
   137
  6
CONTINUOUS
100
AcDbLine
 10
1.28153362
 20
-172.84312118
 30
2500.0
 11
0.63749597
 21
-172.84312118
 31
2500.0
  0
LINE
  5
160
100
AcDbEntity
  8
MST_1_1
 62
   137
  6
CONTINUOUS
100
AcDbLine
 10
-1.96250406
 20
-166.95454975
 30
0.0
 11
0.63749597
 21
-170.06597832
 31
0.0
  0
LINE
  5
161
100
AcDbEntity
  8
MST_1_1
 62
   137
  6
CONTINUOUS
100
AcDbLine
 10
0.63749597
 20
-172.84312118
 30
0.0
 11
-1.96250406
 21
-175.95454975
 31
0.0
  0
LINE
  5
162
100
AcDbEntity
  8
MST_1_1
 62
   137
  6
CONTINUOUS
100
AcDbLine
 10
-1.96250406
 20
-175.95454975
 30
0.0
 11
-2.06250403
 21
-175.95454975
 31
0.0
  0
LINE
  5
163
100
AcDbEntity
  8
MST_1_1
 62
   137
  6
CONTINUOUS
100
AcDbLine
 10
-2.06250403
 20
-175.95454975
 30
0.0
 11
-2.06250403
 21
-171.45454975
 31
0.0
  0
LWPOLYLINE
  5
164
100
AcDbEntity
  8
MST_1_1
 62
   137
  6
CONTINUOUS
100
AcDbPolyline
 90
        6
 70
     0
 43
0.0
 38
2500.0
 10
5.3369202
 20
-169.20454959
 10
5.13749597
 20
-170.06597832
 10
6.82356646
 20
-173.70454975
 10
7.02299076
 20
-172.84312118
 10
5.3369202
 20
-169.20454959
 10
6.82356646
 20
-173.70454975
  0
LWPOLYLINE
  5
165
100
AcDbEntity
  8
MST_1_1
 62
   137
  6
CONTINUOUS
100
AcDbPolyline
 90
        6
 70
     0
 43
0.0
 38
2500.0
 10
7.90834877
 20
-169.20454959
 10
7.70892454
 20
-170.06597832
 10
9.39499503
 20
-173.70454975
 10
9.59441933
 20
-172.84312118
 10
7.90834877
 20
-169.20454959
 10
9.39499503
 20
-173.70454975
  0
LWPOLYLINE
  5
166
100
AcDbEntity
  8
MST_1_1
 62
   137
  6
CONTINUOUS
100
AcDbPolyline
 90
        6
 70
     0
 43
0.0
 38
2500.0
 10
33.62263448
 20
-169.20454959
 10
33.42321025
 20
-170.06597832
 10
35.10928075
 20
-173.70454975
 10
35.27832031
 20
-172.77755034
 10
33.62263448
 20
-169.20454959
 10
35.10928075
 20
-173.70454975
  0
LWPOLYLINE
  5
167
100
AcDbEntity
  8
MST_1_1
 62
   137
  6
CONTINUOUS
100
AcDbPolyline
 90
        6
 70
     0
 43
0.0
 38
2500.0
 10
36.15617245
 20
-169.49729301
 10
35.99463883
 20
-170.19505028
 10
37.38702553
 20
-173.19984664
 10
37.54855916
 20
-172.50208937
 10
36.15617245
 20
-169.49729301
 10
37.36035593
 20
-173.14229314
  0
LINE
  5
168
100
AcDbEntity
  8
MST_1_1
 62
   251
  6
CONTINUOUS
100
AcDbLine
 10
4.45156219
 20
-172.84312118
 30
2500.0
 11
6.42439076
 21
-172.84312118
 31
2500.0
  0
LINE
  5
169
100
AcDbEntity
  8
MST_1_1
 62
   251
  6
CONTINUOUS
100
AcDbLine
 10
7.02299076
 20
-172.84312118
 30
2500.0
 11
8.99581933
 21
-172.84312118
 31
2500.0
  0
LINE
  5
16A
100
AcDbEntity
  8
MST_1_1
 62
   251
  6
CONTINUOUS
100
AcDbLine
 10
32.73727648
 20
-172.84312118
 30
2500.0
 11
34.02444527
 21
-172.83743476
 31
2500.0
  0
LINE
  5
16B
100
AcDbEntity
  8
MST_1_1
 62
   251
  6
CONTINUOUS
100
AcDbLine
 10
5.13749597
 20
-170.06597832
 30
2500.0
 11
3.1646674
 21
-170.06597832
 31
2500.0
  0
LINE
  5
16C
100
AcDbEntity
  8
MST_1_1
 62
   251
  6
CONTINUOUS
100
AcDbLine
 10
7.70892454
 20
-170.06597832
 30
2500.0
 11
5.73609597
 21
-170.06597832
 31
2500.0
  0
LINE
  5
16D
100
AcDbEntity
  8
MST_1_1
 62
   251
  6
CONTINUOUS
100
AcDbLine
 10
33.42321025
 20
-170.06597832
 30
2500.0
 11
31.45038168
 21
-170.06597832
 31
2500.0
  0
ARC
  5
16E
100
AcDbEntity
  8
MST_1_1
 62
   251
  6
CONTINUOUS
100
AcDbCircle
 10
33.49439771
 20
-194.32685365
 30
2500.0
 40
24.26097977
100
AcDbArc
 50
84.08482032
 51
88.74811714
  0
LWPOLYLINE
  5
16F
100
AcDbEntity
  8
MST_1_1
 62
   251
  6
CONTINUOUS
100
AcDbPolyline
 90
        3
 70
     0
 43
0.0
 38
2500.0
 10
42.93749597
 20
-171.45454975
 10
38.15808505
 20
-170.51834341
 42
0.01723995
 10
36.50663588
 20
-170.2535996
  0
ARC
  5
170
100
AcDbEntity
  8
MST_1_1
 62
   251
  6
CONTINUOUS
100
AcDbCircle
 10
33.49439771
 20
-148.58224585
 30
2500.0
 40
24.26097977
100
AcDbArc
 50
271.25189287
 51
272.83975061
  0
LWPOLYLINE
  5
171
100
AcDbEntity
  8
MST_1_1
 62
   251
  6
CONTINUOUS
100
AcDbPolyline
 90
        3
 70
     0
 43
0.0
 38
2500.0
 10
42.93749597
 20
-171.45454975
 10
38.15808505
 20
-172.39075609
 42
-0.0063851
 10
37.54855916
 20
-172.50208937
  0
ARC
  5
172
100
AcDbEntity
  8
MST_1_1
 62
   251
  6
CONTINUOUS
100
AcDbCircle
 10
33.49439771
 20
-148.58224585
 30
2500.0
 40
24.26097977
100
AcDbArc
 50
274.21680449
 51
278.53995004
  0
LWPOLYLINE
  5
173
100
AcDbEntity
  8
MST_1_1
 62
   137
  6
CONTINUOUS
100
AcDbPolyline
 90
        6
 70
     0
 43
0.0
 38
2500.0
 10
38.67267959
 20
-170.1377405
 10
38.5660674
 20
-170.5982603
 10
39.48504262
 20
-172.5814259
 10
39.58699776
 20
-172.11085608
 10
38.67267959
 20
-170.1377405
 10
39.46744068
 20
-172.54344059
  0
LWPOLYLINE
  5
174
100
AcDbEntity
  8
MST_1_1
 62
   137
  6
CONTINUOUS
100
AcDbPolyline
 90
        6
 70
     0
 43
0.0
 38
2500.0
 10
13.05120591
 20
-169.20454959
 10
12.85178168
 20
-170.06597832
 10
14.53785218
 20
-173.70454975
 10
14.73727648
 20
-172.84312118
 10
13.05120591
 20
-169.20454959
 10
14.53785218
 20
-173.70454975
  0
LWPOLYLINE
  5
175
100
AcDbEntity
  8
MST_1_1
 62
   137
  6
CONTINUOUS
100
AcDbPolyline
 90
        6
 70
     0
 43
0.0
 38
2500.0
 10
31.05120591
 20
-169.20454959
 10
30.85178168
 20
-170.06597832
 10
32.53785218
 20
-173.70454975
 10
32.73727648
 20
-172.84312118
 10
31.05120591
 20
-169.20454959
 10
32.53785218
 20
-173.70454975
  0
LINE
  5
176
100
AcDbEntity
  8
MST_1_1
 62
   251
  6
CONTINUOUS
100
AcDbLine
 10
12.1658479
 20
-172.84312118
 30
2500.0
 11
14.13867648
 21
-172.84312118
 31
2500.0
  0
LINE
  5
177
100
AcDbEntity
  8
MST_1_1
 62
   251
  6
CONTINUOUS
100
AcDbLine
 10
30.1658479
 20
-172.84312118
 30
2500.0
 11
32.13867648
 21
-172.84312118
 31
2500.0
  0
LINE
  5
178
100
AcDbEntity
  8
MST_1_1
 62
   251
  6
CONTINUOUS
100
AcDbLine
 10
12.85178168
 20
-170.06597832
 30
2500.0
 11
10.87895311
 21
-170.06597832
 31
2500.0
  0
LINE
  5
179
100
AcDbEntity
  8
MST_1_1
 62
   251
  6
CONTINUOUS
100
AcDbLine
 10
30.85178168
 20
-170.06597832
 30
2500.0
 11
28.87895311
 21
-170.06597832
 31
2500.0
  0
LWPOLYLINE
  5
17A
100
AcDbEntity
  8
MST_1_1
 62
   137
  6
CONTINUOUS
100
AcDbPolyline
 90
        6
 70
     0
 43
0.0
 38
2500.0
 10
10.47977734
 20
-169.20454959
 10
10.28035311
 20
-170.06597832
 10
11.96642361
 20
-173.70454975
 10
12.1658479
 20
-172.84312118
 10
10.47977734
 20
-169.20454959
 10
11.96642361
 20
-173.70454975
  0
LINE
  5
17B
100
AcDbEntity
  8
MST_1_1
 62
   251
  6
CONTINUOUS
100
AcDbLine
 10
9.59441933
 20
-172.84312118
 30
2500.0
 11
11.56724791
 21
-172.84312118
 31
2500.0
  0
LINE
  5
17C
100
AcDbEntity
  8
MST_1_1
 62
   251
  6
CONTINUOUS
100
AcDbLine
 10
10.28035311
 20
-170.06597832
 30
2500.0
 11
8.30752454
 21
-170.06597832
 31
2500.0
  0
LINE
  5
17D
100
AcDbEntity
  8
MST_1_1
 62
   137
  6
CONTINUOUS
100
AcDbLine
 10
-2.06250403
 20
-201.45454975
 30
0.0
 11
-2.06250403
 21
-196.95454975
 31
0.0
  0
LINE
  5
17E
100
AcDbEntity
  8
MST_1_1
 62
   137
  6
CONTINUOUS
100
AcDbLine
 10
-2.06250403
 20
-196.95454975
 30
0.0
 11
-1.96250406
 21
-196.95454975
 31
0.0
  0
LWPOLYLINE
  5
17F
100
AcDbEntity
  8
MST_1_1
 62
   137
  6
CONTINUOUS
100
AcDbPolyline
 90
        6
 70
     0
 43
0.0
 38
2500.0
 10
5.19406305
 20
-199.20454959
 10
4.99463883
 20
-200.06597832
 10
6.68070932
 20
-203.70454975
 10
6.88013362
 20
-202.84312118
 10
5.19406305
 20
-199.20454959
 10
6.68070932
 20
-203.70454975
  0
LINE
  5
180
100
AcDbEntity
  8
MST_1_1
 62
   137
  6
CONTINUOUS
100
AcDbLine
 10
0.63749597
 20
-200.06597832
 30
2500.0
 11
4.99463883
 21
-200.06597832
 31
2500.0
  0
LWPOLYLINE
  5
181
100
AcDbEntity
  8
MST_1_1
 62
   137
  6
CONTINUOUS
100
AcDbPolyline
 90
        4
 70
     0
 43
0.0
 38
2500.0
 10
3.71010505
 20
-202.84312118
 10
4.10928075
 20
-203.70454975
 10
4.30870505
 20
-202.84312118
 10
4.00958296
 20
-202.19761015
  0
LINE
  5
182
100
AcDbEntity
  8
MST_1_1
 62
   137
  6
CONTINUOUS
100
AcDbLine
 10
3.7770345
 20
-202.69885779
 30
2500.0
 11
4.10928075
 21
-203.70454975
 31
2500.0
  0
LINE
  5
183
100
AcDbEntity
  8
MST_1_1
 62
   137
  6
CONTINUOUS
100
AcDbLine
 10
3.71010505
 20
-202.84312118
 30
2500.0
 11
4.00958296
 21
-202.19761015
 31
2500.0
  0
LINE
  5
184
100
AcDbEntity
  8
MST_1_1
 62
   137
  6
CONTINUOUS
100
AcDbLine
 10
6.28153362
 20
-202.84312118
 30
2500.0
 11
4.30870505
 21
-202.84312118
 31
2500.0
  0
LINE
  5
185
100
AcDbEntity
  8
MST_1_1
 62
   137
  6
CONTINUOUS
100
AcDbLine
 10
3.71010505
 20
-202.84312118
 30
2500.0
 11
0.63749597
 21
-202.84312118
 31
2500.0
  0
LINE
  5
186
100
AcDbEntity
  8
MST_1_1
 62
   137
  6
CONTINUOUS
100
AcDbLine
 10
-1.96250406
 20
-196.95454975
 30
0.0
 11
0.63749597
 21
-200.06597832
 31
0.0
  0
LINE
  5
187
100
AcDbEntity
  8
MST_1_1
 62
   137
  6
CONTINUOUS
100
AcDbLine
 10
0.63749597
 20
-202.84312118
 30
0.0
 11
-1.96250406
 21
-205.95454975
 31
0.0
  0
LINE
  5
188
100
AcDbEntity
  8
MST_1_1
 62
   137
  6
CONTINUOUS
100
AcDbLine
 10
-1.96250406
 20
-205.95454975
 30
0.0
 11
-2.06250403
 21
-205.95454975
 31
0.0
  0
LINE
  5
189
100
AcDbEntity
  8
MST_1_1
 62
   137
  6
CONTINUOUS
100
AcDbLine
 10
-2.06250403
 20
-205.95454975
 30
0.0
 11
-2.06250403
 21
-201.45454975
 31
0.0
  0
LWPOLYLINE
  5
18A
100
AcDbEntity
  8
MST_1_1
 62
   137
  6
CONTINUOUS
100
AcDbPolyline
 90
        6
 70
     0
 43
0.0
 38
2500.0
 10
7.76549162
 20
-199.20454959
 10
7.5660674
 20
-200.06597832
 10
9.25213789
 20
-203.70454975
 10
9.45156219
 20
-202.84312118
 10
7.76549162
 20
-199.20454959
 10
9.25213789
 20
-203.70454975
  0
LWPOLYLINE
  5
18B
100
AcDbEntity
  8
MST_1_1
 62
   137
  6
CONTINUOUS
100
AcDbPolyline
 90
        6
 70
     0
 43
0.0
 38
2500.0
 10
10.3369202
 20
-199.20454959
 10
10.13749597
 20
-200.06597832
 10
11.82356646
 20
-203.70454975
 10
12.02299076
 20
-202.84312118
 10
10.3369202
 20
-199.20454959
 10
11.82356646
 20
-203.70454975
  0
LWPOLYLINE
  5
18C
100
AcDbEntity
  8
MST_1_1
 62
   137
  6
CONTINUOUS
100
AcDbPolyline
 90
        6
 70
     0
 43
0.0
 38
2500.0
 10
38.62263448
 20
-199.20454959
 10
38.42321025
 20
-200.06597832
 10
40.10928075
 20
-203.70454975
 10
40.27832031
 20
-202.77755034
 10
38.62263448
 20
-199.20454959
 10
40.10928075
 20
-203.70454975
  0
LWPOLYLINE
  5
18D
100
AcDbEntity
  8
MST_1_1
 62
   137
  6
CONTINUOUS
100
AcDbPolyline
 90
        6
 70
     0
 43
0.0
 38
2500.0
 10
41.15617245
 20
-199.49729301
 10
40.99463883
 20
-200.19505028
 10
42.38702553
 20
-203.19984664
 10
42.54855916
 20
-202.50208937
 10
41.15617245
 20
-199.49729301
 10
42.36035593
 20
-203.14229314
  0
LINE
  5
18E
100
AcDbEntity
  8
MST_1_1
 62
   251
  6
CONTINUOUS
100
AcDbLine
 10
6.88013362
 20
-202.84312118
 30
2500.0
 11
8.85296219
 21
-202.84312118
 31
2500.0
  0
LINE
  5
18F
100
AcDbEntity
  8
MST_1_1
 62
   251
  6
CONTINUOUS
100
AcDbLine
 10
9.45156219
 20
-202.84312118
 30
2500.0
 11
11.42439076
 21
-202.84312118
 31
2500.0
  0
LINE
  5
190
100
AcDbEntity
  8
MST_1_1
 62
   251
  6
CONTINUOUS
100
AcDbLine
 10
37.73727648
 20
-202.84312118
 30
2500.0
 11
39.02444527
 21
-202.83743476
 31
2500.0
  0
LINE
  5
191
100
AcDbEntity
  8
MST_1_1
 62
   251
  6
CONTINUOUS
100
AcDbLine
 10
7.5660674
 20
-200.06597832
 30
2500.0
 11
5.59323882
 21
-200.06597832
 31
2500.0
  0
LINE
  5
192
100
AcDbEntity
  8
MST_1_1
 62
   251
  6
CONTINUOUS
100
AcDbLine
 10
10.13749597
 20
-200.06597832
 30
2500.0
 11
8.1646674
 21
-200.06597832
 31
2500.0
  0
LINE
  5
193
100
AcDbEntity
  8
MST_1_1
 62
   251
  6
CONTINUOUS
100
AcDbLine
 10
38.42321025
 20
-200.06597832
 30
2500.0
 11
36.45038168
 21
-200.06597832
 31
2500.0
  0
ARC
  5
194
100
AcDbEntity
  8
MST_1_1
 62
   251
  6
CONTINUOUS
100
AcDbCircle
 10
38.49439771
 20
-224.32685365
 30
2500.0
 40
24.26097977
100
AcDbArc
 50
84.08482032
 51
88.74811714
  0
LWPOLYLINE
  5
195
100
AcDbEntity
  8
MST_1_1
 62
   251
  6
CONTINUOUS
100
AcDbPolyline
 90
        3
 70
     0
 43
0.0
 38
2500.0
 10
47.93749597
 20
-201.45454975
 10
43.15808505
 20
-200.51834341
 42
0.01723995
 10
41.50663588
 20
-200.2535996
  0
ARC
  5
196
100
AcDbEntity
  8
MST_1_1
 62
   251
  6
CONTINUOUS
100
AcDbCircle
 10
38.49439771
 20
-178.58224585
 30
2500.0
 40
24.26097977
100
AcDbArc
 50
271.25189287
 51
272.83975061
  0
LWPOLYLINE
  5
197
100
AcDbEntity
  8
MST_1_1
 62
   251
  6
CONTINUOUS
100
AcDbPolyline
 90
        3
 70
     0
 43
0.0
 38
2500.0
 10
47.93749597
 20
-201.45454975
 10
43.15808505
 20
-202.39075609
 42
-0.0063851
 10
42.54855916
 20
-202.50208937
  0
ARC
  5
198
100
AcDbEntity
  8
MST_1_1
 62
   251
  6
CONTINUOUS
100
AcDbCircle
 10
38.49439771
 20
-178.58224585
 30
2500.0
 40
24.26097977
100
AcDbArc
 50
274.21680449
 51
278.53995004
  0
LWPOLYLINE
  5
199
100
AcDbEntity
  8
MST_1_1
 62
   137
  6
CONTINUOUS
100
AcDbPolyline
 90
        6
 70
     0
 43
0.0
 38
2500.0
 10
43.67267959
 20
-200.1377405
 10
43.5660674
 20
-200.5982603
 10
44.48504262
 20
-202.5814259
 10
44.58699776
 20
-202.11085608
 10
43.67267959
 20
-200.1377405
 10
44.46744068
 20
-202.54344059
  0
LWPOLYLINE
  5
19A
100
AcDbEntity
  8
MST_1_1
 62
   137
  6
CONTINUOUS
100
AcDbPolyline
 90
        6
 70
     0
 43
0.0
 38
2500.0
 10
15.47977734
 20
-199.20454959
 10
15.28035311
 20
-200.06597832
 10
16.96642361
 20
-203.70454975
 10
17.1658479
 20
-202.84312118
 10
15.47977734
 20
-199.20454959
 10
16.96642361
 20
-203.70454975
  0
LWPOLYLINE
  5
19B
100
AcDbEntity
  8
MST_1_1
 62
   137
  6
CONTINUOUS
100
AcDbPolyline
 90
        6
 70
     0
 43
0.0
 38
2500.0
 10
36.05120591
 20
-199.20454959
 10
35.85178168
 20
-200.06597832
 10
37.53785218
 20
-203.70454975
 10
37.73727648
 20
-202.84312118
 10
36.05120591
 20
-199.20454959
 10
37.53785218
 20
-203.70454975
  0
LINE
  5
19C
100
AcDbEntity
  8
MST_1_1
 62
   251
  6
CONTINUOUS
100
AcDbLine
 10
14.59441933
 20
-202.84312118
 30
2500.0
 11
16.56724791
 21
-202.84312118
 31
2500.0
  0
LINE
  5
19D
100
AcDbEntity
  8
MST_1_1
 62
   251
  6
CONTINUOUS
100
AcDbLine
 10
35.1658479
 20
-202.84312118
 30
2500.0
 11
37.13867648
 21
-202.84312118
 31
2500.0
  0
LINE
  5
19E
100
AcDbEntity
  8
MST_1_1
 62
   251
  6
CONTINUOUS
100
AcDbLine
 10
15.28035311
 20
-200.06597832
 30
2500.0
 11
13.30752454
 21
-200.06597832
 31
2500.0
  0
LINE
  5
19F
100
AcDbEntity
  8
MST_1_1
 62
   251
  6
CONTINUOUS
100
AcDbLine
 10
35.85178168
 20
-200.06597832
 30
2500.0
 11
33.87895311
 21
-200.06597832
 31
2500.0
  0
LWPOLYLINE
  5
1A0
100
AcDbEntity
  8
MST_1_1
 62
   137
  6
CONTINUOUS
100
AcDbPolyline
 90
        6
 70
     0
 43
0.0
 38
2500.0
 10
12.90834877
 20
-199.20454959
 10
12.70892454
 20
-200.06597832
 10
14.39499503
 20
-203.70454975
 10
14.59441933
 20
-202.84312118
 10
12.90834877
 20
-199.20454959
 10
14.39499503
 20
-203.70454975
  0
LINE
  5
1A1
100
AcDbEntity
  8
MST_1_1
 62
   251
  6
CONTINUOUS
100
AcDbLine
 10
12.02299076
 20
-202.84312118
 30
2500.0
 11
13.99581933
 21
-202.84312118
 31
2500.0
  0
LINE
  5
1A2
100
AcDbEntity
  8
MST_1_1
 62
   251
  6
CONTINUOUS
100
AcDbLine
 10
12.70892454
 20
-200.06597832
 30
2500.0
 11
10.73609597
 21
-200.06597832
 31
2500.0
  0
LINE
  5
1A3
100
AcDbEntity
  8
MST_1_1
 62
   137
  6
CONTINUOUS
100
AcDbLine
 10
-2.06250403
 20
-231.45454975
 30
0.0
 11
-2.06250403
 21
-226.95454975
 31
0.0
  0
LINE
  5
1A4
100
AcDbEntity
  8
MST_1_1
 62
   137
  6
CONTINUOUS
100
AcDbLine
 10
-2.06250403
 20
-226.95454975
 30
0.0
 11
-1.96250406
 21
-226.95454975
 31
0.0
  0
LWPOLYLINE
  5
1A5
100
AcDbEntity
  8
MST_1_1
 62
   137
  6
CONTINUOUS
100
AcDbPolyline
 90
        6
 70
     0
 43
0.0
 38
2500.0
 10
5.05120591
 20
-229.20454959
 10
4.85178168
 20
-230.06597832
 10
6.53785218
 20
-233.70454975
 10
6.73727648
 20
-232.84312118
 10
5.05120591
 20
-229.20454959
 10
6.53785218
 20
-233.70454975
  0
LINE
  5
1A6
100
AcDbEntity
  8
MST_1_1
 62
   137
  6
CONTINUOUS
100
AcDbLine
 10
0.63749597
 20
-230.06597832
 30
2500.0
 11
4.85178168
 21
-230.06597832
 31
2500.0
  0
LWPOLYLINE
  5
1A7
100
AcDbEntity
  8
MST_1_1
 62
   137
  6
CONTINUOUS
100
AcDbPolyline
 90
        4
 70
     0
 43
0.0
 38
2500.0
 10
3.56724791
 20
-232.84312118
 10
3.96642361
 20
-233.70454975
 10
4.1658479
 20
-232.84312118
 10
3.86672581
 20
-232.19761015
  0
LINE
  5
1A8
100
AcDbEntity
  8
MST_1_1
 62
   137
  6
CONTINUOUS
100
AcDbLine
 10
3.63417735
 20
-232.69885779
 30
2500.0
 11
3.96642361
 21
-233.70454975
 31
2500.0
  0
LINE
  5
1A9
100
AcDbEntity
  8
MST_1_1
 62
   137
  6
CONTINUOUS
100
AcDbLine
 10
3.56724791
 20
-232.84312118
 30
2500.0
 11
3.86672581
 21
-232.19761015
 31
2500.0
  0
LINE
  5
1AA
100
AcDbEntity
  8
MST_1_1
 62
   137
  6
CONTINUOUS
100
AcDbLine
 10
6.13867648
 20
-232.84312118
 30
2500.0
 11
4.1658479
 21
-232.84312118
 31
2500.0
  0
LINE
  5
1AB
100
AcDbEntity
  8
MST_1_1
 62
   137
  6
CONTINUOUS
100
AcDbLine
 10
3.63417735
 20
-232.69885779
 30
2500.0
 11
0.63749597
 21
-232.84312118
 31
2500.0
  0
LINE
  5
1AC
100
AcDbEntity
  8
MST_1_1
 62
   137
  6
CONTINUOUS
100
AcDbLine
 10
-1.96250406
 20
-226.95454975
 30
0.0
 11
0.63749597
 21
-230.06597832
 31
0.0
  0
LINE
  5
1AD
100
AcDbEntity
  8
MST_1_1
 62
   137
  6
CONTINUOUS
100
AcDbLine
 10
0.63749597
 20
-232.84312118
 30
0.0
 11
-1.96250406
 21
-235.95454975
 31
0.0
  0
LINE
  5
1AE
100
AcDbEntity
  8
MST_1_1
 62
   137
  6
CONTINUOUS
100
AcDbLine
 10
-1.96250406
 20
-235.95454975
 30
0.0
 11
-2.06250403
 21
-235.95454975
 31
0.0
  0
LINE
  5
1AF
100
AcDbEntity
  8
MST_1_1
 62
   137
  6
CONTINUOUS
100
AcDbLine
 10
-2.06250403
 20
-235.95454975
 30
0.0
 11
-2.06250403
 21
-231.45454975
 31
0.0
  0
LWPOLYLINE
  5
1B0
100
AcDbEntity
  8
MST_1_1
 62
   137
  6
CONTINUOUS
100
AcDbPolyline
 90
        6
 70
     0
 43
0.0
 38
2500.0
 10
7.62263448
 20
-229.20454959
 10
7.42321025
 20
-230.06597832
 10
9.10928075
 20
-233.70454975
 10
9.30870505
 20
-232.84312118
 10
7.62263448
 20
-229.20454959
 10
9.10928075
 20
-233.70454975
  0
LWPOLYLINE
  5
1B1
100
AcDbEntity
  8
MST_1_1
 62
   137
  6
CONTINUOUS
100
AcDbPolyline
 90
        6
 70
     0
 43
0.0
 38
2500.0
 10
10.19406305
 20
-229.20454959
 10
9.99463883
 20
-230.06597832
 10
11.68070932
 20
-233.70454975
 10
11.88013362
 20
-232.84312118
 10
10.19406305
 20
-229.20454959
 10
11.68070932
 20
-233.70454975
  0
LWPOLYLINE
  5
1B2
100
AcDbEntity
  8
MST_1_1
 62
   137
  6
CONTINUOUS
100
AcDbPolyline
 90
        6
 70
     0
 43
0.0
 38
2500.0
 10
43.62263448
 20
-229.20454959
 10
43.42321025
 20
-230.06597832
 10
45.10928075
 20
-233.70454975
 10
45.27832031
 20
-232.77755034
 10
43.62263448
 20
-229.20454959
 10
45.10928075
 20
-233.70454975
  0
LWPOLYLINE
  5
1B3
100
AcDbEntity
  8
MST_1_1
 62
   137
  6
CONTINUOUS
100
AcDbPolyline
 90
        6
 70
     0
 43
0.0
 38
2500.0
 10
46.15617245
 20
-229.49729301
 10
45.99463883
 20
-230.19505028
 10
47.38702553
 20
-233.19984664
 10
47.54855916
 20
-232.50208937
 10
46.15617245
 20
-229.49729301
 10
47.36035593
 20
-233.14229314
  0
LINE
  5
1B4
100
AcDbEntity
  8
MST_1_1
 62
   251
  6
CONTINUOUS
100
AcDbLine
 10
6.73727648
 20
-232.84312118
 30
2500.0
 11
8.71010505
 21
-232.84312118
 31
2500.0
  0
LINE
  5
1B5
100
AcDbEntity
  8
MST_1_1
 62
   251
  6
CONTINUOUS
100
AcDbLine
 10
9.30870505
 20
-232.84312118
 30
2500.0
 11
11.28153362
 21
-232.84312118
 31
2500.0
  0
LINE
  5
1B6
100
AcDbEntity
  8
MST_1_1
 62
   251
  6
CONTINUOUS
100
AcDbLine
 10
42.73727648
 20
-232.84312118
 30
2500.0
 11
44.02444527
 21
-232.83743476
 31
2500.0
  0
LINE
  5
1B7
100
AcDbEntity
  8
MST_1_1
 62
   251
  6
CONTINUOUS
100
AcDbLine
 10
7.42321025
 20
-230.06597832
 30
2500.0
 11
5.45038168
 21
-230.06597832
 31
2500.0
  0
LINE
  5
1B8
100
AcDbEntity
  8
MST_1_1
 62
   251
  6
CONTINUOUS
100
AcDbLine
 10
9.99463883
 20
-230.06597832
 30
2500.0
 11
8.02181025
 21
-230.06597832
 31
2500.0
  0
LINE
  5
1B9
100
AcDbEntity
  8
MST_1_1
 62
   251
  6
CONTINUOUS
100
AcDbLine
 10
43.42321025
 20
-230.06597832
 30
2500.0
 11
41.45038168
 21
-230.06597832
 31
2500.0
  0
ARC
  5
1BA
100
AcDbEntity
  8
MST_1_1
 62
   251
  6
CONTINUOUS
100
AcDbCircle
 10
43.49439771
 20
-254.32685365
 30
2500.0
 40
24.26097977
100
AcDbArc
 50
84.08482032
 51
88.74811714
  0
LWPOLYLINE
  5
1BB
100
AcDbEntity
  8
MST_1_1
 62
   251
  6
CONTINUOUS
100
AcDbPolyline
 90
        3
 70
     0
 43
0.0
 38
2500.0
 10
52.93749597
 20
-231.45454975
 10
48.15808505
 20
-230.51834341
 42
0.01723995
 10
46.50663588
 20
-230.2535996
  0
ARC
  5
1BC
100
AcDbEntity
  8
MST_1_1
 62
   251
  6
CONTINUOUS
100
AcDbCircle
 10
43.49439771
 20
-208.58224585
 30
2500.0
 40
24.26097977
100
AcDbArc
 50
271.25189287
 51
272.83975061
  0
LWPOLYLINE
  5
1BD
100
AcDbEntity
  8
MST_1_1
 62
   251
  6
CONTINUOUS
100
AcDbPolyline
 90
        3
 70
     0
 43
0.0
 38
2500.0
 10
52.93749597
 20
-231.45454975
 10
48.15808505
 20
-232.39075609
 42
-0.0063851
 10
47.54855916
 20
-232.50208937
  0
ARC
  5
1BE
100
AcDbEntity
  8
MST_1_1
 62
   251
  6
CONTINUOUS
100
AcDbCircle
 10
43.49439771
 20
-208.58224585
 30
2500.0
 40
24.26097977
100
AcDbArc
 50
274.21680449
 51
278.53995004
  0
LWPOLYLINE
  5
1BF
100
AcDbEntity
  8
MST_1_1
 62
   137
  6
CONTINUOUS
100
AcDbPolyline
 90
        6
 70
     0
 43
0.0
 38
2500.0
 10
48.67267959
 20
-230.1377405
 10
48.5660674
 20
-230.5982603
 10
49.48504262
 20
-232.5814259
 10
49.58699776
 20
-232.11085608
 10
48.67267959
 20
-230.1377405
 10
49.46744068
 20
-232.54344059
  0
LWPOLYLINE
  5
1C0
100
AcDbEntity
  8
MST_1_1
 62
   137
  6
CONTINUOUS
100
AcDbPolyline
 90
        6
 70
     0
 43
0.0
 38
2500.0
 10
15.3369202
 20
-229.20454959
 10
15.13749597
 20
-230.06597832
 10
16.82356646
 20
-233.70454975
 10
17.02299076
 20
-232.84312118
 10
15.3369202
 20
-229.20454959
 10
16.82356646
 20
-233.70454975
  0
LWPOLYLINE
  5
1C1
100
AcDbEntity
  8
MST_1_1
 62
   137
  6
CONTINUOUS
100
AcDbPolyline
 90
        6
 70
     0
 43
0.0
 38
2500.0
 10
41.05120591
 20
-229.20454959
 10
40.85178168
 20
-230.06597832
 10
42.53785218
 20
-233.70454975
 10
42.73727648
 20
-232.84312118
 10
41.05120591
 20
-229.20454959
 10
42.53785218
 20
-233.70454975
  0
LINE
  5
1C2
100
AcDbEntity
  8
MST_1_1
 62
   251
  6
CONTINUOUS
100
AcDbLine
 10
14.45156219
 20
-232.84312118
 30
2500.0
 11
16.42439076
 21
-232.84312118
 31
2500.0
  0
LINE
  5
1C3
100
AcDbEntity
  8
MST_1_1
 62
   251
  6
CONTINUOUS
100
AcDbLine
 10
40.1658479
 20
-232.84312118
 30
2500.0
 11
42.13867648
 21
-232.84312118
 31
2500.0
  0
LINE
  5
1C4
100
AcDbEntity
  8
MST_1_1
 62
   251
  6
CONTINUOUS
100
AcDbLine
 10
15.13749597
 20
-230.06597832
 30
2500.0
 11
13.1646674
 21
-230.06597832
 31
2500.0
  0
LINE
  5
1C5
100
AcDbEntity
  8
MST_1_1
 62
   251
  6
CONTINUOUS
100
AcDbLine
 10
40.85178168
 20
-230.06597832
 30
2500.0
 11
38.87895311
 21
-230.06597832
 31
2500.0
  0
LWPOLYLINE
  5
1C6
100
AcDbEntity
  8
MST_1_1
 62
   137
  6
CONTINUOUS
100
AcDbPolyline
 90
        6
 70
     0
 43
0.0
 38
2500.0
 10
12.76549162
 20
-229.20454959
 10
12.5660674
 20
-230.06597832
 10
14.25213789
 20
-233.70454975
 10
14.45156219
 20
-232.84312118
 10
12.76549162
 20
-229.20454959
 10
14.25213789
 20
-233.70454975
  0
LINE
  5
1C7
100
AcDbEntity
  8
MST_1_1
 62
   251
  6
CONTINUOUS
100
AcDbLine
 10
11.88013362
 20
-232.84312118
 30
2500.0
 11
13.85296219
 21
-232.84312118
 31
2500.0
  0
LINE
  5
1C8
100
AcDbEntity
  8
MST_1_1
 62
   251
  6
CONTINUOUS
100
AcDbLine
 10
12.5660674
 20
-230.06597832
 30
2500.0
 11
10.59323882
 21
-230.06597832
 31
2500.0
  0
LINE
  5
1C9
100
AcDbEntity
  8
MST_1_1
 62
   137
  6
CONTINUOUS
100
AcDbLine
 10
-2.06250403
 20
-261.45454975
 30
0.0
 11
-2.06250403
 21
-256.95454975
 31
0.0
  0
LINE
  5
1CA
100
AcDbEntity
  8
MST_1_1
 62
   137
  6
CONTINUOUS
100
AcDbLine
 10
-2.06250403
 20
-256.95454975
 30
0.0
 11
-1.96250406
 21
-256.95454975
 31
0.0
  0
LWPOLYLINE
  5
1CB
100
AcDbEntity
  8
MST_1_1
 62
   137
  6
CONTINUOUS
100
AcDbPolyline
 90
        6
 70
     0
 43
0.0
 38
2500.0
 10
2.3369202
 20
-259.20454959
 10
2.13749597
 20
-260.06597832
 10
3.82356646
 20
-263.70454975
 10
4.02299076
 20
-262.84312118
 10
2.3369202
 20
-259.20454959
 10
3.82356646
 20
-263.70454975
  0
LINE
  5
1CC
100
AcDbEntity
  8
MST_1_1
 62
   137
  6
CONTINUOUS
100
AcDbLine
 10
0.63749597
 20
-260.06597832
 30
2500.0
 11
2.13749597
 21
-260.06597832
 31
2500.0
  0
LWPOLYLINE
  5
1CD
100
AcDbEntity
  8
MST_1_1
 62
   137
  6
CONTINUOUS
100
AcDbPolyline
 90
        4
 70
     0
 43
0.0
 38
2500.0
 10
0.85296219
 20
-262.84312118
 10
1.25213789
 20
-263.70454975
 10
1.45156219
 20
-262.84312118
 10
1.1524401
 20
-262.19761015
  0
LINE
  5
1CE
100
AcDbEntity
  8
MST_1_1
 62
   137
  6
CONTINUOUS
100
AcDbLine
 10
0.91989164
 20
-262.69885779
 30
2500.0
 11
1.25213789
 21
-263.70454975
 31
2500.0
  0
LINE
  5
1CF
100
AcDbEntity
  8
MST_1_1
 62
   137
  6
CONTINUOUS
100
AcDbLine
 10
0.85296219
 20
-262.84312118
 30
2500.0
 11
1.1524401
 21
-262.19761015
 31
2500.0
  0
LINE
  5
1D0
100
AcDbEntity
  8
MST_1_1
 62
   137
  6
CONTINUOUS
100
AcDbLine
 10
3.42439076
 20
-262.84312118
 30
2500.0
 11
1.45156219
 21
-262.84312118
 31
2500.0
  0
LINE
  5
1D1
100
AcDbEntity
  8
MST_1_1
 62
   137
  6
CONTINUOUS
100
AcDbLine
 10
0.85296219
 20
-262.84312118
 30
2500.0
 11
0.63749597
 21
-262.84312118
 31
2500.0
  0
LINE
  5
1D2
100
AcDbEntity
  8
MST_1_1
 62
   137
  6
CONTINUOUS
100
AcDbLine
 10
-1.96250406
 20
-256.95454975
 30
0.0
 11
0.63749597
 21
-260.06597832
 31
0.0
  0
LINE
  5
1D3
100
AcDbEntity
  8
MST_1_1
 62
   137
  6
CONTINUOUS
100
AcDbLine
 10
0.63749597
 20
-262.84312118
 30
0.0
 11
-1.96250406
 21
-265.95454975
 31
0.0
  0
LINE
  5
1D4
100
AcDbEntity
  8
MST_1_1
 62
   137
  6
CONTINUOUS
100
AcDbLine
 10
-1.96250406
 20
-265.95454975
 30
0.0
 11
-2.06250403
 21
-265.95454975
 31
0.0
  0
LINE
  5
1D5
100
AcDbEntity
  8
MST_1_1
 62
   137
  6
CONTINUOUS
100
AcDbLine
 10
-2.06250403
 20
-265.95454975
 30
0.0
 11
-2.06250403
 21
-261.45454975
 31
0.0
  0
LWPOLYLINE
  5
1D6
100
AcDbEntity
  8
MST_1_1
 62
   137
  6
CONTINUOUS
100
AcDbPolyline
 90
        6
 70
     0
 43
0.0
 38
2500.0
 10
4.90834877
 20
-259.20454959
 10
4.70892454
 20
-260.06597832
 10
6.39499503
 20
-263.70454975
 10
6.59441933
 20
-262.84312118
 10
4.90834877
 20
-259.20454959
 10
6.39499503
 20
-263.70454975
  0
LWPOLYLINE
  5
1D7
100
AcDbEntity
  8
MST_1_1
 62
   137
  6
CONTINUOUS
100
AcDbPolyline
 90
        6
 70
     0
 43
0.0
 38
2500.0
 10
7.47977734
 20
-259.20454959
 10
7.28035311
 20
-260.06597832
 10
8.96642361
 20
-263.70454975
 10
9.1658479
 20
-262.84312118
 10
7.47977734
 20
-259.20454959
 10
8.96642361
 20
-263.70454975
  0
LWPOLYLINE
  5
1D8
100
AcDbEntity
  8
MST_1_1
 62
   137
  6
CONTINUOUS
100
AcDbPolyline
 90
        6
 70
     0
 43
0.0
 38
2500.0
 10
48.62263448
 20
-259.20454959
 10
48.42321025
 20
-260.06597832
 10
50.10928075
 20
-263.70454975
 10
50.27832031
 20
-262.77755034
 10
48.62263448
 20
-259.20454959
 10
50.10928075
 20
-263.70454975
  0
LWPOLYLINE
  5
1D9
100
AcDbEntity
  8
MST_1_1
 62
   137
  6
CONTINUOUS
100
AcDbPolyline
 90
        6
 70
     0
 43
0.0
 38
2500.0
 10
51.15617245
 20
-259.49729301
 10
50.99463883
 20
-260.19505028
 10
52.38702553
 20
-263.19984664
 10
52.54855916
 20
-262.50208937
 10
51.15617245
 20
-259.49729301
 10
52.36035593
 20
-263.14229314
  0
LINE
  5
1DA
100
AcDbEntity
  8
MST_1_1
 62
   251
  6
CONTINUOUS
100
AcDbLine
 10
4.02299076
 20
-262.84312118
 30
2500.0
 11
5.99581933
 21
-262.84312118
 31
2500.0
  0
LINE
  5
1DB
100
AcDbEntity
  8
MST_1_1
 62
   251
  6
CONTINUOUS
100
AcDbLine
 10
6.59441933
 20
-262.84312118
 30
2500.0
 11
8.56724791
 21
-262.84312118
 31
2500.0
  0
LINE
  5
1DC
100
AcDbEntity
  8
MST_1_1
 62
   251
  6
CONTINUOUS
100
AcDbLine
 10
47.73727648
 20
-262.84312118
 30
2500.0
 11
49.02444527
 21
-262.83743476
 31
2500.0
  0
LINE
  5
1DD
100
AcDbEntity
  8
MST_1_1
 62
   251
  6
CONTINUOUS
100
AcDbLine
 10
4.70892454
 20
-260.06597832
 30
2500.0
 11
2.73609597
 21
-260.06597832
 31
2500.0
  0
LINE
  5
1DE
100
AcDbEntity
  8
MST_1_1
 62
   251
  6
CONTINUOUS
100
AcDbLine
 10
7.28035311
 20
-260.06597832
 30
2500.0
 11
5.30752454
 21
-260.06597832
 31
2500.0
  0
LINE
  5
1DF
100
AcDbEntity
  8
MST_1_1
 62
   251
  6
CONTINUOUS
100
AcDbLine
 10
48.42321025
 20
-260.06597832
 30
2500.0
 11
46.45038168
 21
-260.06597832
 31
2500.0
  0
ARC
  5
1E0
100
AcDbEntity
  8
MST_1_1
 62
   251
  6
CONTINUOUS
100
AcDbCircle
 10
48.49439771
 20
-284.32685365
 30
2500.0
 40
24.26097977
100
AcDbArc
 50
84.08482032
 51
88.74811714
  0
LWPOLYLINE
  5
1E1
100
AcDbEntity
  8
MST_1_1
 62
   251
  6
CONTINUOUS
100
AcDbPolyline
 90
        3
 70
     0
 43
0.0
 38
2500.0
 10
57.93749597
 20
-261.45454975
 10
53.15808505
 20
-260.51834341
 42
0.01723995
 10
51.50663588
 20
-260.2535996
  0
ARC
  5
1E2
100
AcDbEntity
  8
MST_1_1
 62
   251
  6
CONTINUOUS
100
AcDbCircle
 10
48.49439771
 20
-238.58224585
 30
2500.0
 40
24.26097977
100
AcDbArc
 50
271.25189287
 51
272.83975061
  0
LWPOLYLINE
  5
1E3
100
AcDbEntity
  8
MST_1_1
 62
   251
  6
CONTINUOUS
100
AcDbPolyline
 90
        3
 70
     0
 43
0.0
 38
2500.0
 10
57.93749597
 20
-261.45454975
 10
53.15808505
 20
-262.39075609
 42
-0.0063851
 10
52.54855916
 20
-262.50208937
  0
ARC
  5
1E4
100
AcDbEntity
  8
MST_1_1
 62
   251
  6
CONTINUOUS
100
AcDbCircle
 10
48.49439771
 20
-238.58224585
 30
2500.0
 40
24.26097977
100
AcDbArc
 50
274.21680449
 51
278.53995004
  0
LWPOLYLINE
  5
1E5
100
AcDbEntity
  8
MST_1_1
 62
   137
  6
CONTINUOUS
100
AcDbPolyline
 90
        6
 70
     0
 43
0.0
 38
2500.0
 10
53.67267959
 20
-260.1377405
 10
53.5660674
 20
-260.5982603
 10
54.48504262
 20
-262.5814259
 10
54.58699776
 20
-262.11085608
 10
53.67267959
 20
-260.1377405
 10
54.46744068
 20
-262.54344059
  0
LWPOLYLINE
  5
1E6
100
AcDbEntity
  8
MST_1_1
 62
   137
  6
CONTINUOUS
100
AcDbPolyline
 90
        6
 70
     0
 43
0.0
 38
2500.0
 10
12.62263448
 20
-259.20454959
 10
12.42321025
 20
-260.06597832
 10
14.10928075
 20
-263.70454975
 10
14.30870505
 20
-262.84312118
 10
12.62263448
 20
-259.20454959
 10
14.10928075
 20
-263.70454975
  0
LWPOLYLINE
  5
1E7
100
AcDbEntity
  8
MST_1_1
 62
   137
  6
CONTINUOUS
100
AcDbPolyline
 90
        6
 70
     0
 43
0.0
 38
2500.0
 10
46.05120591
 20
-259.20454959
 10
45.85178168
 20
-260.06597832
 10
47.53785218
 20
-263.70454975
 10
47.73727648
 20
-262.84312118
 10
46.05120591
 20
-259.20454959
 10
47.53785218
 20
-263.70454975
  0
LINE
  5
1E8
100
AcDbEntity
  8
MST_1_1
 62
   251
  6
CONTINUOUS
100
AcDbLine
 10
11.73727648
 20
-262.84312118
 30
2500.0
 11
13.71010505
 21
-262.84312118
 31
2500.0
  0
LINE
  5
1E9
100
AcDbEntity
  8
MST_1_1
 62
   251
  6
CONTINUOUS
100
AcDbLine
 10
45.1658479
 20
-262.84312118
 30
2500.0
 11
47.13867648
 21
-262.84312118
 31
2500.0
  0
LINE
  5
1EA
100
AcDbEntity
  8
MST_1_1
 62
   251
  6
CONTINUOUS
100
AcDbLine
 10
12.42321025
 20
-260.06597832
 30
2500.0
 11
10.45038168
 21
-260.06597832
 31
2500.0
  0
LINE
  5
1EB
100
AcDbEntity
  8
MST_1_1
 62
   251
  6
CONTINUOUS
100
AcDbLine
 10
45.85178168
 20
-260.06597832
 30
2500.0
 11
43.87895311
 21
-260.06597832
 31
2500.0
  0
LWPOLYLINE
  5
1EC
100
AcDbEntity
  8
MST_1_1
 62
   137
  6
CONTINUOUS
100
AcDbPolyline
 90
        6
 70
     0
 43
0.0
 38
2500.0
 10
10.05120591
 20
-259.20454959
 10
9.85178168
 20
-260.06597832
 10
11.53785218
 20
-263.70454975
 10
11.73727648
 20
-262.84312118
 10
10.05120591
 20
-259.20454959
 10
11.53785218
 20
-263.70454975
  0
LINE
  5
1ED
100
AcDbEntity
  8
MST_1_1
 62
   251
  6
CONTINUOUS
100
AcDbLine
 10
9.1658479
 20
-262.84312118
 30
2500.0
 11
11.13867648
 21
-262.84312118
 31
2500.0
  0
LINE
  5
1EE
100
AcDbEntity
  8
MST_1_1
 62
   251
  6
CONTINUOUS
100
AcDbLine
 10
9.85178168
 20
-260.06597832
 30
2500.0
 11
7.87895311
 21
-260.06597832
 31
2500.0
  0
LWPOLYLINE
  5
1EF
100
AcDbEntity
  8
MST_1_1
 62
   137
  6
CONTINUOUS
100
AcDbPolyline
 90
        6
 70
     0
 43
0.0
 38
2500.0
 10
2.05120591
 20
10.79545041
 10
1.85178168
 20
9.93402168
 10
3.53785218
 20
6.29545025
 10
3.73727648
 20
7.15687882
 10
2.05120591
 20
10.79545041
 10
3.53785218
 20
6.29545025
  0
LINE
  5
1F0
100
AcDbEntity
  8
MST_1_1
 62
   137
  6
CONTINUOUS
100
AcDbLine
 10
2.45038168
 20
9.93402168
 30
2500.0
 11
4.42321025
 21
9.93402168
 31
2500.0
  0
LWPOLYLINE
  5
1F1
100
AcDbEntity
  8
MST_1_1
 62
   137
  6
CONTINUOUS
100
AcDbPolyline
 90
        6
 70
     0
 43
0.0
 38
2500.0
 10
6.05120591
 20
-19.20454959
 10
5.85178168
 20
-20.06597832
 10
7.53785218
 20
-23.70454975
 10
7.73727648
 20
-22.84312118
 10
6.05120591
 20
-19.20454959
 10
7.53785218
 20
-23.70454975
  0
LINE
  5
1F2
100
AcDbEntity
  8
MST_1_1
 62
   251
  6
CONTINUOUS
100
AcDbLine
 10
5.1658479
 20
-22.84312118
 30
2500.0
 11
7.13867648
 21
-22.84312118
 31
2500.0
  0
LINE
  5
1F3
100
AcDbEntity
  8
MST_1_1
 62
   251
  6
CONTINUOUS
100
AcDbLine
 10
5.85178168
 20
-20.06597832
 30
2500.0
 11
3.87895311
 21
-20.06597832
 31
2500.0
  0
LWPOLYLINE
  5
1F4
100
AcDbEntity
  8
MST_1_1
 62
   137
  6
CONTINUOUS
100
AcDbPolyline
 90
        6
 70
     0
 43
0.0
 38
2500.0
 10
18.47977734
 20
-109.20454959
 10
18.28035311
 20
-110.06597832
 10
19.96642361
 20
-113.70454975
 10
20.1658479
 20
-112.84312118
 10
18.47977734
 20
-109.20454959
 10
19.96642361
 20
-113.70454975
  0
LINE
  5
1F5
100
AcDbEntity
  8
MST_1_1
 62
   251
  6
CONTINUOUS
100
AcDbLine
 10
17.59441933
 20
-112.84312118
 30
2500.0
 11
19.56724791
 21
-112.84312118
 31
2500.0
  0
LINE
  5
1F6
100
AcDbEntity
  8
MST_1_1
 62
   251
  6
CONTINUOUS
100
AcDbLine
 10
18.28035311
 20
-110.06597832
 30
2500.0
 11
16.30752454
 21
-110.06597832
 31
2500.0
  0
LWPOLYLINE
  5
1F7
100
AcDbEntity
  8
MST_1_1
 62
   137
  6
CONTINUOUS
100
AcDbPolyline
 90
        6
 70
     0
 43
0.0
 38
2500.0
 10
15.90834877
 20
-109.20454959
 10
15.70892454
 20
-110.06597832
 10
17.39499503
 20
-113.70454975
 10
17.59441933
 20
-112.84312118
 10
15.90834877
 20
-109.20454959
 10
17.39499503
 20
-113.70454975
  0
LINE
  5
1F8
100
AcDbEntity
  8
MST_1_1
 62
   251
  6
CONTINUOUS
100
AcDbLine
 10
15.02299076
 20
-112.84312118
 30
2500.0
 11
16.99581933
 21
-112.84312118
 31
2500.0
  0
LINE
  5
1F9
100
AcDbEntity
  8
MST_1_1
 62
   251
  6
CONTINUOUS
100
AcDbLine
 10
15.70892454
 20
-110.06597832
 30
2500.0
 11
13.73609597
 21
-110.06597832
 31
2500.0
  0
LWPOLYLINE
  5
1FA
100
AcDbEntity
  8
MST_1_1
 62
   137
  6
CONTINUOUS
100
AcDbPolyline
 90
        6
 70
     0
 43
0.0
 38
2500.0
 10
18.3369202
 20
-139.20454959
 10
18.13749597
 20
-140.06597832
 10
19.82356646
 20
-143.70454975
 10
20.02299076
 20
-142.84312118
 10
18.3369202
 20
-139.20454959
 10
19.82356646
 20
-143.70454975
  0
LINE
  5
1FB
100
AcDbEntity
  8
MST_1_1
 62
   251
  6
CONTINUOUS
100
AcDbLine
 10
17.45156219
 20
-142.84312118
 30
2500.0
 11
19.42439076
 21
-142.84312118
 31
2500.0
  0
LINE
  5
1FC
100
AcDbEntity
  8
MST_1_1
 62
   251
  6
CONTINUOUS
100
AcDbLine
 10
18.13749597
 20
-140.06597832
 30
2500.0
 11
16.1646674
 21
-140.06597832
 31
2500.0
  0
LWPOLYLINE
  5
1FD
100
AcDbEntity
  8
MST_1_1
 62
   137
  6
CONTINUOUS
100
AcDbPolyline
 90
        6
 70
     0
 43
0.0
 38
2500.0
 10
23.47977734
 20
-139.20454959
 10
23.28035311
 20
-140.06597832
 10
24.96642361
 20
-143.70454975
 10
25.1658479
 20
-142.84312118
 10
23.47977734
 20
-139.20454959
 10
24.96642361
 20
-143.70454975
  0
LINE
  5
1FE
100
AcDbEntity
  8
MST_1_1
 62
   251
  6
CONTINUOUS
100
AcDbLine
 10
22.59441933
 20
-142.84312118
 30
2500.0
 11
24.56724791
 21
-142.84312118
 31
2500.0
  0
LINE
  5
1FF
100
AcDbEntity
  8
MST_1_1
 62
   251
  6
CONTINUOUS
100
AcDbLine
 10
23.28035311
 20
-140.06597832
 30
2500.0
 11
21.30752454
 21
-140.06597832
 31
2500.0
  0
LWPOLYLINE
  5
200
100
AcDbEntity
  8
MST_1_1
 62
   137
  6
CONTINUOUS
100
AcDbPolyline
 90
        6
 70
     0
 43
0.0
 38
2500.0
 10
20.90834877
 20
-139.20454959
 10
20.70892454
 20
-140.06597832
 10
22.39499503
 20
-143.70454975
 10
22.59441933
 20
-142.84312118
 10
20.90834877
 20
-139.20454959
 10
22.39499503
 20
-143.70454975
  0
LINE
  5
201
100
AcDbEntity
  8
MST_1_1
 62
   251
  6
CONTINUOUS
100
AcDbLine
 10
20.02299076
 20
-142.84312118
 30
2500.0
 11
21.99581933
 21
-142.84312118
 31
2500.0
  0
LINE
  5
202
100
AcDbEntity
  8
MST_1_1
 62
   251
  6
CONTINUOUS
100
AcDbLine
 10
20.70892454
 20
-140.06597832
 30
2500.0
 11
18.73609597
 21
-140.06597832
 31
2500.0
  0
LWPOLYLINE
  5
203
100
AcDbEntity
  8
MST_1_1
 62
   137
  6
CONTINUOUS
100
AcDbPolyline
 90
        6
 70
     0
 43
0.0
 38
2500.0
 10
15.76549162
 20
-139.20454959
 10
15.5660674
 20
-140.06597832
 10
17.25213789
 20
-143.70454975
 10
17.45156219
 20
-142.84312118
 10
15.76549162
 20
-139.20454959
 10
17.25213789
 20
-143.70454975
  0
LINE
  5
204
100
AcDbEntity
  8
MST_1_1
 62
   251
  6
CONTINUOUS
100
AcDbLine
 10
14.88013362
 20
-142.84312118
 30
2500.0
 11
16.85296219
 21
-142.84312118
 31
2500.0
  0
LINE
  5
205
100
AcDbEntity
  8
MST_1_1
 62
   251
  6
CONTINUOUS
100
AcDbLine
 10
15.5660674
 20
-140.06597832
 30
2500.0
 11
13.59323882
 21
-140.06597832
 31
2500.0
  0
LWPOLYLINE
  5
206
100
AcDbEntity
  8
MST_1_1
 62
   137
  6
CONTINUOUS
100
AcDbPolyline
 90
        6
 70
     0
 43
0.0
 38
2500.0
 10
20.76549162
 20
-169.20454959
 10
20.5660674
 20
-170.06597832
 10
22.25213789
 20
-173.70454975
 10
22.45156219
 20
-172.84312118
 10
20.76549162
 20
-169.20454959
 10
22.25213789
 20
-173.70454975
  0
LWPOLYLINE
  5
207
100
AcDbEntity
  8
MST_1_1
 62
   137
  6
CONTINUOUS
100
AcDbPolyline
 90
        6
 70
     0
 43
0.0
 38
2500.0
 10
23.3369202
 20
-169.20454959
 10
23.13749597
 20
-170.06597832
 10
24.82356646
 20
-173.70454975
 10
25.02299076
 20
-172.84312118
 10
23.3369202
 20
-169.20454959
 10
24.82356646
 20
-173.70454975
  0
LINE
  5
208
100
AcDbEntity
  8
MST_1_1
 62
   251
  6
CONTINUOUS
100
AcDbLine
 10
19.88013362
 20
-172.84312118
 30
2500.0
 11
21.85296219
 21
-172.84312118
 31
2500.0
  0
LINE
  5
209
100
AcDbEntity
  8
MST_1_1
 62
   251
  6
CONTINUOUS
100
AcDbLine
 10
22.45156219
 20
-172.84312118
 30
2500.0
 11
24.42439076
 21
-172.84312118
 31
2500.0
  0
LINE
  5
20A
100
AcDbEntity
  8
MST_1_1
 62
   251
  6
CONTINUOUS
100
AcDbLine
 10
20.5660674
 20
-170.06597832
 30
2500.0
 11
18.59323882
 21
-170.06597832
 31
2500.0
  0
LINE
  5
20B
100
AcDbEntity
  8
MST_1_1
 62
   251
  6
CONTINUOUS
100
AcDbLine
 10
23.13749597
 20
-170.06597832
 30
2500.0
 11
21.1646674
 21
-170.06597832
 31
2500.0
  0
LWPOLYLINE
  5
20C
100
AcDbEntity
  8
MST_1_1
 62
   137
  6
CONTINUOUS
100
AcDbPolyline
 90
        6
 70
     0
 43
0.0
 38
2500.0
 10
28.47977734
 20
-169.20454959
 10
28.28035311
 20
-170.06597832
 10
29.96642361
 20
-173.70454975
 10
30.1658479
 20
-172.84312118
 10
28.47977734
 20
-169.20454959
 10
29.96642361
 20
-173.70454975
  0
LINE
  5
20D
100
AcDbEntity
  8
MST_1_1
 62
   251
  6
CONTINUOUS
100
AcDbLine
 10
27.59441933
 20
-172.84312118
 30
2500.0
 11
29.56724791
 21
-172.84312118
 31
2500.0
  0
LINE
  5
20E
100
AcDbEntity
  8
MST_1_1
 62
   251
  6
CONTINUOUS
100
AcDbLine
 10
28.28035311
 20
-170.06597832
 30
2500.0
 11
26.30752454
 21
-170.06597832
 31
2500.0
  0
LWPOLYLINE
  5
20F
100
AcDbEntity
  8
MST_1_1
 62
   137
  6
CONTINUOUS
100
AcDbPolyline
 90
        6
 70
     0
 43
0.0
 38
2500.0
 10
25.90834877
 20
-169.20454959
 10
25.70892454
 20
-170.06597832
 10
27.39499503
 20
-173.70454975
 10
27.59441933
 20
-172.84312118
 10
25.90834877
 20
-169.20454959
 10
27.39499503
 20
-173.70454975
  0
LINE
  5
210
100
AcDbEntity
  8
MST_1_1
 62
   251
  6
CONTINUOUS
100
AcDbLine
 10
25.02299076
 20
-172.84312118
 30
2500.0
 11
26.99581933
 21
-172.84312118
 31
2500.0
  0
LINE
  5
211
100
AcDbEntity
  8
MST_1_1
 62
   251
  6
CONTINUOUS
100
AcDbLine
 10
25.70892454
 20
-170.06597832
 30
2500.0
 11
23.73609597
 21
-170.06597832
 31
2500.0
  0
LWPOLYLINE
  5
212
100
AcDbEntity
  8
MST_1_1
 62
   137
  6
CONTINUOUS
100
AcDbPolyline
 90
        6
 70
     0
 43
0.0
 38
2500.0
 10
15.62263448
 20
-169.20454959
 10
15.42321025
 20
-170.06597832
 10
17.10928075
 20
-173.70454975
 10
17.30870505
 20
-172.84312118
 10
15.62263448
 20
-169.20454959
 10
17.10928075
 20
-173.70454975
  0
LWPOLYLINE
  5
213
100
AcDbEntity
  8
MST_1_1
 62
   137
  6
CONTINUOUS
100
AcDbPolyline
 90
        6
 70
     0
 43
0.0
 38
2500.0
 10
18.19406305
 20
-169.20454959
 10
17.99463883
 20
-170.06597832
 10
19.68070932
 20
-173.70454975
 10
19.88013362
 20
-172.84312118
 10
18.19406305
 20
-169.20454959
 10
19.68070932
 20
-173.70454975
  0
LINE
  5
214
100
AcDbEntity
  8
MST_1_1
 62
   251
  6
CONTINUOUS
100
AcDbLine
 10
14.73727648
 20
-172.84312118
 30
2500.0
 11
16.71010505
 21
-172.84312118
 31
2500.0
  0
LINE
  5
215
100
AcDbEntity
  8
MST_1_1
 62
   251
  6
CONTINUOUS
100
AcDbLine
 10
17.30870505
 20
-172.84312118
 30
2500.0
 11
19.28153362
 21
-172.84312118
 31
2500.0
  0
LINE
  5
216
100
AcDbEntity
  8
MST_1_1
 62
   251
  6
CONTINUOUS
100
AcDbLine
 10
15.42321025
 20
-170.06597832
 30
2500.0
 11
13.45038168
 21
-170.06597832
 31
2500.0
  0
LINE
  5
217
100
AcDbEntity
  8
MST_1_1
 62
   251
  6
CONTINUOUS
100
AcDbLine
 10
17.99463883
 20
-170.06597832
 30
2500.0
 11
16.02181025
 21
-170.06597832
 31
2500.0
  0
LWPOLYLINE
  5
218
100
AcDbEntity
  8
MST_1_1
 62
   137
  6
CONTINUOUS
100
AcDbPolyline
 90
        6
 70
     0
 43
0.0
 38
2500.0
 10
25.76549162
 20
-199.20454959
 10
25.5660674
 20
-200.06597832
 10
27.25213789
 20
-203.70454975
 10
27.45156219
 20
-202.84312118
 10
25.76549162
 20
-199.20454959
 10
27.25213789
 20
-203.70454975
  0
LWPOLYLINE
  5
219
100
AcDbEntity
  8
MST_1_1
 62
   137
  6
CONTINUOUS
100
AcDbPolyline
 90
        6
 70
     0
 43
0.0
 38
2500.0
 10
28.3369202
 20
-199.20454959
 10
28.13749597
 20
-200.06597832
 10
29.82356646
 20
-203.70454975
 10
30.02299076
 20
-202.84312118
 10
28.3369202
 20
-199.20454959
 10
29.82356646
 20
-203.70454975
  0
LINE
  5
21A
100
AcDbEntity
  8
MST_1_1
 62
   251
  6
CONTINUOUS
100
AcDbLine
 10
24.88013362
 20
-202.84312118
 30
2500.0
 11
26.85296219
 21
-202.84312118
 31
2500.0
  0
LINE
  5
21B
100
AcDbEntity
  8
MST_1_1
 62
   251
  6
CONTINUOUS
100
AcDbLine
 10
27.45156219
 20
-202.84312118
 30
2500.0
 11
29.42439076
 21
-202.84312118
 31
2500.0
  0
LINE
  5
21C
100
AcDbEntity
  8
MST_1_1
 62
   251
  6
CONTINUOUS
100
AcDbLine
 10
25.5660674
 20
-200.06597832
 30
2500.0
 11
23.59323882
 21
-200.06597832
 31
2500.0
  0
LINE
  5
21D
100
AcDbEntity
  8
MST_1_1
 62
   251
  6
CONTINUOUS
100
AcDbLine
 10
28.13749597
 20
-200.06597832
 30
2500.0
 11
26.1646674
 21
-200.06597832
 31
2500.0
  0
LWPOLYLINE
  5
21E
100
AcDbEntity
  8
MST_1_1
 62
   137
  6
CONTINUOUS
100
AcDbPolyline
 90
        6
 70
     0
 43
0.0
 38
2500.0
 10
33.47977734
 20
-199.20454959
 10
33.28035311
 20
-200.06597832
 10
34.96642361
 20
-203.70454975
 10
35.1658479
 20
-202.84312118
 10
33.47977734
 20
-199.20454959
 10
34.96642361
 20
-203.70454975
  0
LINE
  5
21F
100
AcDbEntity
  8
MST_1_1
 62
   251
  6
CONTINUOUS
100
AcDbLine
 10
32.59441933
 20
-202.84312118
 30
2500.0
 11
34.56724791
 21
-202.84312118
 31
2500.0
  0
LINE
  5
220
100
AcDbEntity
  8
MST_1_1
 62
   251
  6
CONTINUOUS
100
AcDbLine
 10
33.28035311
 20
-200.06597832
 30
2500.0
 11
31.30752454
 21
-200.06597832
 31
2500.0
  0
LWPOLYLINE
  5
221
100
AcDbEntity
  8
MST_1_1
 62
   137
  6
CONTINUOUS
100
AcDbPolyline
 90
        6
 70
     0
 43
0.0
 38
2500.0
 10
30.90834877
 20
-199.20454959
 10
30.70892454
 20
-200.06597832
 10
32.39499503
 20
-203.70454975
 10
32.59441933
 20
-202.84312118
 10
30.90834877
 20
-199.20454959
 10
32.39499503
 20
-203.70454975
  0
LINE
  5
222
100
AcDbEntity
  8
MST_1_1
 62
   251
  6
CONTINUOUS
100
AcDbLine
 10
30.02299076
 20
-202.84312118
 30
2500.0
 11
31.99581933
 21
-202.84312118
 31
2500.0
  0
LINE
  5
223
100
AcDbEntity
  8
MST_1_1
 62
   251
  6
CONTINUOUS
100
AcDbLine
 10
30.70892454
 20
-200.06597832
 30
2500.0
 11
28.73609597
 21
-200.06597832
 31
2500.0
  0
LWPOLYLINE
  5
224
100
AcDbEntity
  8
MST_1_1
 62
   137
  6
CONTINUOUS
100
AcDbPolyline
 90
        6
 70
     0
 43
0.0
 38
2500.0
 10
18.05120591
 20
-199.20454959
 10
17.85178168
 20
-200.06597832
 10
19.53785218
 20
-203.70454975
 10
19.73727648
 20
-202.84312118
 10
18.05120591
 20
-199.20454959
 10
19.53785218
 20
-203.70454975
  0
LWPOLYLINE
  5
225
100
AcDbEntity
  8
MST_1_1
 62
   137
  6
CONTINUOUS
100
AcDbPolyline
 90
        6
 70
     0
 43
0.0
 38
2500.0
 10
20.62263448
 20
-199.20454959
 10
20.42321025
 20
-200.06597832
 10
22.10928075
 20
-203.70454975
 10
22.30870505
 20
-202.84312118
 10
20.62263448
 20
-199.20454959
 10
22.10928075
 20
-203.70454975
  0
LINE
  5
226
100
AcDbEntity
  8
MST_1_1
 62
   251
  6
CONTINUOUS
100
AcDbLine
 10
17.1658479
 20
-202.84312118
 30
2500.0
 11
19.13867648
 21
-202.84312118
 31
2500.0
  0
LINE
  5
227
100
AcDbEntity
  8
MST_1_1
 62
   251
  6
CONTINUOUS
100
AcDbLine
 10
19.73727648
 20
-202.84312118
 30
2500.0
 11
21.71010505
 21
-202.84312118
 31
2500.0
  0
LINE
  5
228
100
AcDbEntity
  8
MST_1_1
 62
   251
  6
CONTINUOUS
100
AcDbLine
 10
17.85178168
 20
-200.06597832
 30
2500.0
 11
15.87895311
 21
-200.06597832
 31
2500.0
  0
LINE
  5
229
100
AcDbEntity
  8
MST_1_1
 62
   251
  6
CONTINUOUS
100
AcDbLine
 10
20.42321025
 20
-200.06597832
 30
2500.0
 11
18.45038168
 21
-200.06597832
 31
2500.0
  0
LWPOLYLINE
  5
22A
100
AcDbEntity
  8
MST_1_1
 62
   137
  6
CONTINUOUS
100
AcDbPolyline
 90
        6
 70
     0
 43
0.0
 38
2500.0
 10
23.19406305
 20
-199.20454959
 10
22.99463883
 20
-200.06597832
 10
24.68070932
 20
-203.70454975
 10
24.88013362
 20
-202.84312118
 10
23.19406305
 20
-199.20454959
 10
24.68070932
 20
-203.70454975
  0
LINE
  5
22B
100
AcDbEntity
  8
MST_1_1
 62
   251
  6
CONTINUOUS
100
AcDbLine
 10
22.30870505
 20
-202.84312118
 30
2500.0
 11
24.28153362
 21
-202.84312118
 31
2500.0
  0
LINE
  5
22C
100
AcDbEntity
  8
MST_1_1
 62
   251
  6
CONTINUOUS
100
AcDbLine
 10
22.99463883
 20
-200.06597832
 30
2500.0
 11
21.02181025
 21
-200.06597832
 31
2500.0
  0
LWPOLYLINE
  5
22D
100
AcDbEntity
  8
MST_1_1
 62
     1
  6
BORDER
100
AcDbPolyline
 90
        3
 70
     0
 43
0.0
 10
52.93749597
 20
-231.45454975
 10
-2.06250403
 20
-231.45454975
 10
-7.06250403
 20
-231.45454975
  0
LWPOLYLINE
  5
22E
100
AcDbEntity
  8
MST_1_1
 62
     1
  6
BORDER
100
AcDbPolyline
 90
        3
 70
     0
 43
0.0
 10
57.93749597
 20
-261.45454975
 10
-2.06250403
 20
-261.45454975
 10
-7.06250403
 20
-261.45454975
  0
LWPOLYLINE
  5
22F
100
AcDbEntity
  8
MST_1_1
 62
   137
  6
CONTINUOUS
100
AcDbPolyline
 90
        6
 70
     0
 43
0.0
 38
2500.0
 10
30.76549162
 20
-229.20454959
 10
30.5660674
 20
-230.06597832
 10
32.25213789
 20
-233.70454975
 10
32.45156219
 20
-232.84312118
 10
30.76549162
 20
-229.20454959
 10
32.25213789
 20
-233.70454975
  0
LWPOLYLINE
  5
230
100
AcDbEntity
  8
MST_1_1
 62
   137
  6
CONTINUOUS
100
AcDbPolyline
 90
        6
 70
     0
 43
0.0
 38
2500.0
 10
33.3369202
 20
-229.20454959
 10
33.13749597
 20
-230.06597832
 10
34.82356646
 20
-233.70454975
 10
35.02299076
 20
-232.84312118
 10
33.3369202
 20
-229.20454959
 10
34.82356646
 20
-233.70454975
  0
LINE
  5
231
100
AcDbEntity
  8
MST_1_1
 62
   251
  6
CONTINUOUS
100
AcDbLine
 10
29.88013362
 20
-232.84312118
 30
2500.0
 11
31.85296219
 21
-232.84312118
 31
2500.0
  0
LINE
  5
232
100
AcDbEntity
  8
MST_1_1
 62
   251
  6
CONTINUOUS
100
AcDbLine
 10
32.45156219
 20
-232.84312118
 30
2500.0
 11
34.42439076
 21
-232.84312118
 31
2500.0
  0
LINE
  5
233
100
AcDbEntity
  8
MST_1_1
 62
   251
  6
CONTINUOUS
100
AcDbLine
 10
30.5660674
 20
-230.06597832
 30
2500.0
 11
28.59323882
 21
-230.06597832
 31
2500.0
  0
LINE
  5
234
100
AcDbEntity
  8
MST_1_1
 62
   251
  6
CONTINUOUS
100
AcDbLine
 10
33.13749597
 20
-230.06597832
 30
2500.0
 11
31.1646674
 21
-230.06597832
 31
2500.0
  0
LWPOLYLINE
  5
235
100
AcDbEntity
  8
MST_1_1
 62
   137
  6
CONTINUOUS
100
AcDbPolyline
 90
        6
 70
     0
 43
0.0
 38
2500.0
 10
38.47977734
 20
-229.20454959
 10
38.28035311
 20
-230.06597832
 10
39.96642361
 20
-233.70454975
 10
40.1658479
 20
-232.84312118
 10
38.47977734
 20
-229.20454959
 10
39.96642361
 20
-233.70454975
  0
LINE
  5
236
100
AcDbEntity
  8
MST_1_1
 62
   251
  6
CONTINUOUS
100
AcDbLine
 10
37.59441933
 20
-232.84312118
 30
2500.0
 11
39.56724791
 21
-232.84312118
 31
2500.0
  0
LINE
  5
237
100
AcDbEntity
  8
MST_1_1
 62
   251
  6
CONTINUOUS
100
AcDbLine
 10
38.28035311
 20
-230.06597832
 30
2500.0
 11
36.30752454
 21
-230.06597832
 31
2500.0
  0
LWPOLYLINE
  5
238
100
AcDbEntity
  8
MST_1_1
 62
   137
  6
CONTINUOUS
100
AcDbPolyline
 90
        6
 70
     0
 43
0.0
 38
2500.0
 10
35.90834877
 20
-229.20454959
 10
35.70892454
 20
-230.06597832
 10
37.39499503
 20
-233.70454975
 10
37.59441933
 20
-232.84312118
 10
35.90834877
 20
-229.20454959
 10
37.39499503
 20
-233.70454975
  0
LINE
  5
239
100
AcDbEntity
  8
MST_1_1
 62
   251
  6
CONTINUOUS
100
AcDbLine
 10
35.02299076
 20
-232.84312118
 30
2500.0
 11
36.99581933
 21
-232.84312118
 31
2500.0
  0
LINE
  5
23A
100
AcDbEntity
  8
MST_1_1
 62
   251
  6
CONTINUOUS
100
AcDbLine
 10
35.70892454
 20
-230.06597832
 30
2500.0
 11
33.73609597
 21
-230.06597832
 31
2500.0
  0
LWPOLYLINE
  5
23B
100
AcDbEntity
  8
MST_1_1
 62
   137
  6
CONTINUOUS
100
AcDbPolyline
 90
        6
 70
     0
 43
0.0
 38
2500.0
 10
20.47977734
 20
-229.20454959
 10
20.28035311
 20
-230.06597832
 10
21.96642361
 20
-233.70454975
 10
22.1658479
 20
-232.84312118
 10
20.47977734
 20
-229.20454959
 10
21.96642361
 20
-233.70454975
  0
LWPOLYLINE
  5
23C
100
AcDbEntity
  8
MST_1_1
 62
   137
  6
CONTINUOUS
100
AcDbPolyline
 90
        6
 70
     0
 43
0.0
 38
2500.0
 10
23.05120591
 20
-229.20454959
 10
22.85178168
 20
-230.06597832
 10
24.53785218
 20
-233.70454975
 10
24.73727648
 20
-232.84312118
 10
23.05120591
 20
-229.20454959
 10
24.53785218
 20
-233.70454975
  0
LINE
  5
23D
100
AcDbEntity
  8
MST_1_1
 62
   251
  6
CONTINUOUS
100
AcDbLine
 10
19.59441933
 20
-232.84312118
 30
2500.0
 11
21.56724791
 21
-232.84312118
 31
2500.0
  0
LINE
  5
23E
100
AcDbEntity
  8
MST_1_1
 62
   251
  6
CONTINUOUS
100
AcDbLine
 10
22.1658479
 20
-232.84312118
 30
2500.0
 11
24.13867648
 21
-232.84312118
 31
2500.0
  0
LINE
  5
23F
100
AcDbEntity
  8
MST_1_1
 62
   251
  6
CONTINUOUS
100
AcDbLine
 10
20.28035311
 20
-230.06597832
 30
2500.0
 11
18.30752454
 21
-230.06597832
 31
2500.0
  0
LINE
  5
240
100
AcDbEntity
  8
MST_1_1
 62
   251
  6
CONTINUOUS
100
AcDbLine
 10
22.85178168
 20
-230.06597832
 30
2500.0
 11
20.87895311
 21
-230.06597832
 31
2500.0
  0
LWPOLYLINE
  5
241
100
AcDbEntity
  8
MST_1_1
 62
   137
  6
CONTINUOUS
100
AcDbPolyline
 90
        6
 70
     0
 43
0.0
 38
2500.0
 10
28.19406305
 20
-229.20454959
 10
27.99463883
 20
-230.06597832
 10
29.68070932
 20
-233.70454975
 10
29.88013362
 20
-232.84312118
 10
28.19406305
 20
-229.20454959
 10
29.68070932
 20
-233.70454975
  0
LINE
  5
242
100
AcDbEntity
  8
MST_1_1
 62
   251
  6
CONTINUOUS
100
AcDbLine
 10
27.30870505
 20
-232.84312118
 30
2500.0
 11
29.28153362
 21
-232.84312118
 31
2500.0
  0
LINE
  5
243
100
AcDbEntity
  8
MST_1_1
 62
   251
  6
CONTINUOUS
100
AcDbLine
 10
27.99463883
 20
-230.06597832
 30
2500.0
 11
26.02181025
 21
-230.06597832
 31
2500.0
  0
LWPOLYLINE
  5
244
100
AcDbEntity
  8
MST_1_1
 62
   137
  6
CONTINUOUS
100
AcDbPolyline
 90
        6
 70
     0
 43
0.0
 38
2500.0
 10
25.62263448
 20
-229.20454959
 10
25.42321025
 20
-230.06597832
 10
27.10928075
 20
-233.70454975
 10
27.30870505
 20
-232.84312118
 10
25.62263448
 20
-229.20454959
 10
27.10928075
 20
-233.70454975
  0
LINE
  5
245
100
AcDbEntity
  8
MST_1_1
 62
   251
  6
CONTINUOUS
100
AcDbLine
 10
24.73727648
 20
-232.84312118
 30
2500.0
 11
26.71010505
 21
-232.84312118
 31
2500.0
  0
LINE
  5
246
100
AcDbEntity
  8
MST_1_1
 62
   251
  6
CONTINUOUS
100
AcDbLine
 10
25.42321025
 20
-230.06597832
 30
2500.0
 11
23.45038168
 21
-230.06597832
 31
2500.0
  0
LWPOLYLINE
  5
247
100
AcDbEntity
  8
MST_1_1
 62
   137
  6
CONTINUOUS
100
AcDbPolyline
 90
        6
 70
     0
 43
0.0
 38
2500.0
 10
17.90834877
 20
-229.20454959
 10
17.70892454
 20
-230.06597832
 10
19.39499503
 20
-233.70454975
 10
19.59441933
 20
-232.84312118
 10
17.90834877
 20
-229.20454959
 10
19.39499503
 20
-233.70454975
  0
LINE
  5
248
100
AcDbEntity
  8
MST_1_1
 62
   251
  6
CONTINUOUS
100
AcDbLine
 10
17.02299076
 20
-232.84312118
 30
2500.0
 11
18.99581933
 21
-232.84312118
 31
2500.0
  0
LINE
  5
249
100
AcDbEntity
  8
MST_1_1
 62
   251
  6
CONTINUOUS
100
AcDbLine
 10
17.70892454
 20
-230.06597832
 30
2500.0
 11
15.73609597
 21
-230.06597832
 31
2500.0
  0
LWPOLYLINE
  5
24A
100
AcDbEntity
  8
MST_1_1
 62
   137
  6
CONTINUOUS
100
AcDbPolyline
 90
        6
 70
     0
 43
0.0
 38
2500.0
 10
35.76549162
 20
-259.20454959
 10
35.5660674
 20
-260.06597832
 10
37.25213789
 20
-263.70454975
 10
37.45156219
 20
-262.84312118
 10
35.76549162
 20
-259.20454959
 10
37.25213789
 20
-263.70454975
  0
LWPOLYLINE
  5
24B
100
AcDbEntity
  8
MST_1_1
 62
   137
  6
CONTINUOUS
100
AcDbPolyline
 90
        6
 70
     0
 43
0.0
 38
2500.0
 10
38.3369202
 20
-259.20454959
 10
38.13749597
 20
-260.06597832
 10
39.82356646
 20
-263.70454975
 10
40.02299076
 20
-262.84312118
 10
38.3369202
 20
-259.20454959
 10
39.82356646
 20
-263.70454975
  0
LINE
  5
24C
100
AcDbEntity
  8
MST_1_1
 62
   251
  6
CONTINUOUS
100
AcDbLine
 10
34.88013362
 20
-262.84312118
 30
2500.0
 11
36.85296219
 21
-262.84312118
 31
2500.0
  0
LINE
  5
24D
100
AcDbEntity
  8
MST_1_1
 62
   251
  6
CONTINUOUS
100
AcDbLine
 10
37.45156219
 20
-262.84312118
 30
2500.0
 11
39.42439076
 21
-262.84312118
 31
2500.0
  0
LINE
  5
24E
100
AcDbEntity
  8
MST_1_1
 62
   251
  6
CONTINUOUS
100
AcDbLine
 10
35.5660674
 20
-260.06597832
 30
2500.0
 11
33.59323882
 21
-260.06597832
 31
2500.0
  0
LINE
  5
24F
100
AcDbEntity
  8
MST_1_1
 62
   251
  6
CONTINUOUS
100
AcDbLine
 10
38.13749597
 20
-260.06597832
 30
2500.0
 11
36.1646674
 21
-260.06597832
 31
2500.0
  0
LWPOLYLINE
  5
250
100
AcDbEntity
  8
MST_1_1
 62
   137
  6
CONTINUOUS
100
AcDbPolyline
 90
        6
 70
     0
 43
0.0
 38
2500.0
 10
43.47977734
 20
-259.20454959
 10
43.28035311
 20
-260.06597832
 10
44.96642361
 20
-263.70454975
 10
45.1658479
 20
-262.84312118
 10
43.47977734
 20
-259.20454959
 10
44.96642361
 20
-263.70454975
  0
LINE
  5
251
100
AcDbEntity
  8
MST_1_1
 62
   251
  6
CONTINUOUS
100
AcDbLine
 10
42.59441933
 20
-262.84312118
 30
2500.0
 11
44.56724791
 21
-262.84312118
 31
2500.0
  0
LINE
  5
252
100
AcDbEntity
  8
MST_1_1
 62
   251
  6
CONTINUOUS
100
AcDbLine
 10
43.28035311
 20
-260.06597832
 30
2500.0
 11
41.30752454
 21
-260.06597832
 31
2500.0
  0
LWPOLYLINE
  5
253
100
AcDbEntity
  8
MST_1_1
 62
   137
  6
CONTINUOUS
100
AcDbPolyline
 90
        6
 70
     0
 43
0.0
 38
2500.0
 10
40.90834877
 20
-259.20454959
 10
40.70892454
 20
-260.06597832
 10
42.39499503
 20
-263.70454975
 10
42.59441933
 20
-262.84312118
 10
40.90834877
 20
-259.20454959
 10
42.39499503
 20
-263.70454975
  0
LINE
  5
254
100
AcDbEntity
  8
MST_1_1
 62
   251
  6
CONTINUOUS
100
AcDbLine
 10
40.02299076
 20
-262.84312118
 30
2500.0
 11
41.99581933
 21
-262.84312118
 31
2500.0
  0
LINE
  5
255
100
AcDbEntity
  8
MST_1_1
 62
   251
  6
CONTINUOUS
100
AcDbLine
 10
40.70892454
 20
-260.06597832
 30
2500.0
 11
38.73609597
 21
-260.06597832
 31
2500.0
  0
LWPOLYLINE
  5
256
100
AcDbEntity
  8
MST_1_1
 62
   137
  6
CONTINUOUS
100
AcDbPolyline
 90
        6
 70
     0
 43
0.0
 38
2500.0
 10
25.47977734
 20
-259.20454959
 10
25.28035311
 20
-260.06597832
 10
26.96642361
 20
-263.70454975
 10
27.1658479
 20
-262.84312118
 10
25.47977734
 20
-259.20454959
 10
26.96642361
 20
-263.70454975
  0
LWPOLYLINE
  5
257
100
AcDbEntity
  8
MST_1_1
 62
   137
  6
CONTINUOUS
100
AcDbPolyline
 90
        6
 70
     0
 43
0.0
 38
2500.0
 10
28.05120591
 20
-259.20454959
 10
27.85178168
 20
-260.06597832
 10
29.53785218
 20
-263.70454975
 10
29.73727648
 20
-262.84312118
 10
28.05120591
 20
-259.20454959
 10
29.53785218
 20
-263.70454975
  0
LINE
  5
258
100
AcDbEntity
  8
MST_1_1
 62
   251
  6
CONTINUOUS
100
AcDbLine
 10
24.59441933
 20
-262.84312118
 30
2500.0
 11
26.56724791
 21
-262.84312118
 31
2500.0
  0
LINE
  5
259
100
AcDbEntity
  8
MST_1_1
 62
   251
  6
CONTINUOUS
100
AcDbLine
 10
27.1658479
 20
-262.84312118
 30
2500.0
 11
29.13867648
 21
-262.84312118
 31
2500.0
  0
LINE
  5
25A
100
AcDbEntity
  8
MST_1_1
 62
   251
  6
CONTINUOUS
100
AcDbLine
 10
25.28035311
 20
-260.06597832
 30
2500.0
 11
23.30752454
 21
-260.06597832
 31
2500.0
  0
LINE
  5
25B
100
AcDbEntity
  8
MST_1_1
 62
   251
  6
CONTINUOUS
100
AcDbLine
 10
27.85178168
 20
-260.06597832
 30
2500.0
 11
25.87895311
 21
-260.06597832
 31
2500.0
  0
LWPOLYLINE
  5
25C
100
AcDbEntity
  8
MST_1_1
 62
   137
  6
CONTINUOUS
100
AcDbPolyline
 90
        6
 70
     0
 43
0.0
 38
2500.0
 10
33.19406305
 20
-259.20454959
 10
32.99463883
 20
-260.06597832
 10
34.68070932
 20
-263.70454975
 10
34.88013362
 20
-262.84312118
 10
33.19406305
 20
-259.20454959
 10
34.68070932
 20
-263.70454975
  0
LINE
  5
25D
100
AcDbEntity
  8
MST_1_1
 62
   251
  6
CONTINUOUS
100
AcDbLine
 10
32.30870505
 20
-262.84312118
 30
2500.0
 11
34.28153362
 21
-262.84312118
 31
2500.0
  0
LINE
  5
25E
100
AcDbEntity
  8
MST_1_1
 62
   251
  6
CONTINUOUS
100
AcDbLine
 10
32.99463883
 20
-260.06597832
 30
2500.0
 11
31.02181025
 21
-260.06597832
 31
2500.0
  0
LWPOLYLINE
  5
25F
100
AcDbEntity
  8
MST_1_1
 62
   137
  6
CONTINUOUS
100
AcDbPolyline
 90
        6
 70
     0
 43
0.0
 38
2500.0
 10
30.62263448
 20
-259.20454959
 10
30.42321025
 20
-260.06597832
 10
32.10928075
 20
-263.70454975
 10
32.30870505
 20
-262.84312118
 10
30.62263448
 20
-259.20454959
 10
32.10928075
 20
-263.70454975
  0
LINE
  5
260
100
AcDbEntity
  8
MST_1_1
 62
   251
  6
CONTINUOUS
100
AcDbLine
 10
29.73727648
 20
-262.84312118
 30
2500.0
 11
31.71010505
 21
-262.84312118
 31
2500.0
  0
LINE
  5
261
100
AcDbEntity
  8
MST_1_1
 62
   251
  6
CONTINUOUS
100
AcDbLine
 10
30.42321025
 20
-260.06597832
 30
2500.0
 11
28.45038168
 21
-260.06597832
 31
2500.0
  0
LWPOLYLINE
  5
262
100
AcDbEntity
  8
MST_1_1
 62
   137
  6
CONTINUOUS
100
AcDbPolyline
 90
        6
 70
     0
 43
0.0
 38
2500.0
 10
15.19406305
 20
-259.20454959
 10
14.99463883
 20
-260.06597832
 10
16.68070932
 20
-263.70454975
 10
16.88013362
 20
-262.84312118
 10
15.19406305
 20
-259.20454959
 10
16.68070932
 20
-263.70454975
  0
LWPOLYLINE
  5
263
100
AcDbEntity
  8
MST_1_1
 62
   137
  6
CONTINUOUS
100
AcDbPolyline
 90
        6
 70
     0
 43
0.0
 38
2500.0
 10
17.76549162
 20
-259.20454959
 10
17.5660674
 20
-260.06597832
 10
19.25213789
 20
-263.70454975
 10
19.45156219
 20
-262.84312118
 10
17.76549162
 20
-259.20454959
 10
19.25213789
 20
-263.70454975
  0
LINE
  5
264
100
AcDbEntity
  8
MST_1_1
 62
   251
  6
CONTINUOUS
100
AcDbLine
 10
14.30870505
 20
-262.84312118
 30
2500.0
 11
16.28153362
 21
-262.84312118
 31
2500.0
  0
LINE
  5
265
100
AcDbEntity
  8
MST_1_1
 62
   251
  6
CONTINUOUS
100
AcDbLine
 10
16.88013362
 20
-262.84312118
 30
2500.0
 11
18.85296219
 21
-262.84312118
 31
2500.0
  0
LINE
  5
266
100
AcDbEntity
  8
MST_1_1
 62
   251
  6
CONTINUOUS
100
AcDbLine
 10
14.99463883
 20
-260.06597832
 30
2500.0
 11
13.02181025
 21
-260.06597832
 31
2500.0
  0
LINE
  5
267
100
AcDbEntity
  8
MST_1_1
 62
   251
  6
CONTINUOUS
100
AcDbLine
 10
17.5660674
 20
-260.06597832
 30
2500.0
 11
15.59323882
 21
-260.06597832
 31
2500.0
  0
LWPOLYLINE
  5
268
100
AcDbEntity
  8
MST_1_1
 62
   137
  6
CONTINUOUS
100
AcDbPolyline
 90
        6
 70
     0
 43
0.0
 38
2500.0
 10
22.90834877
 20
-259.20454959
 10
22.70892454
 20
-260.06597832
 10
24.39499503
 20
-263.70454975
 10
24.59441933
 20
-262.84312118
 10
22.90834877
 20
-259.20454959
 10
24.39499503
 20
-263.70454975
  0
LINE
  5
269
100
AcDbEntity
  8
MST_1_1
 62
   251
  6
CONTINUOUS
100
AcDbLine
 10
22.02299076
 20
-262.84312118
 30
2500.0
 11
23.99581933
 21
-262.84312118
 31
2500.0
  0
LINE
  5
26A
100
AcDbEntity
  8
MST_1_1
 62
   251
  6
CONTINUOUS
100
AcDbLine
 10
22.70892454
 20
-260.06597832
 30
2500.0
 11
20.73609597
 21
-260.06597832
 31
2500.0
  0
LWPOLYLINE
  5
26B
100
AcDbEntity
  8
MST_1_1
 62
   137
  6
CONTINUOUS
100
AcDbPolyline
 90
        6
 70
     0
 43
0.0
 38
2500.0
 10
20.3369202
 20
-259.20454959
 10
20.13749597
 20
-260.06597832
 10
21.82356646
 20
-263.70454975
 10
22.02299076
 20
-262.84312118
 10
20.3369202
 20
-259.20454959
 10
21.82356646
 20
-263.70454975
  0
LINE
  5
26C
100
AcDbEntity
  8
MST_1_1
 62
   251
  6
CONTINUOUS
100
AcDbLine
 10
19.45156219
 20
-262.84312118
 30
2500.0
 11
21.42439076
 21
-262.84312118
 31
2500.0
  0
LINE
  5
26D
100
AcDbEntity
  8
MST_1_1
 62
   251
  6
CONTINUOUS
100
AcDbLine
 10
20.13749597
 20
-260.06597832
 30
2500.0
 11
18.1646674
 21
-260.06597832
 31
2500.0
  0
CIRCLE
  5
26E
100
AcDbEntity
  8
MST_1_1
 62
   137
  6
CONTINUOUS
100
AcDbCircle
 10
-90.04749524
 20
8.54545025
 30
0.0
 40
2.32981333
  0
CIRCLE
  5
26F
100
AcDbEntity
  8
MST_1_1
 62
   137
  6
CONTINUOUS
100
AcDbCircle
 10
-90.04749524
 20
8.54545025
 30
0.0
 40
1.32203389
  0
CIRCLE
  5
270
100
AcDbEntity
  8
MST_1_1
 62
   137
  6
CONTINUOUS
100
AcDbCircle
 10
-90.04749524
 20
8.54545025
 30
0.0
 40
2.32981333
  0
CIRCLE
  5
271
100
AcDbEntity
  8
MST_1_1
 62
   137
  6
CONTINUOUS
100
AcDbCircle
 10
-90.04749524
 20
8.54545025
 30
0.0
 40
2.32981333
  0
CIRCLE
  5
272
100
AcDbEntity
  8
MST_1_1
 62
   137
  6
CONTINUOUS
100
AcDbCircle
 10
-90.04749524
 20
8.54545025
 30
0.0
 40
4.5
  0
ARC
  5
273
100
AcDbEntity
  8
MST_1_1
 62
   137
  6
CONTINUOUS
100
AcDbCircle
 10
-91.92149519
 20
8.54545025
 30
0.0
 40
0.37600003
100
AcDbArc
 50
106.48878485
 51
253.51122516
  0
ARC
  5
274
100
AcDbEntity
  8
MST_1_1
 62
   137
  6
CONTINUOUS
100
AcDbCircle
 10
-92.30776598
 20
7.2404823
 30
0.0
 40
0.98493585
100
AcDbArc
 50
346.4887751
 51
73.5112424
  0
ARC
  5
275
100
AcDbEntity
  8
MST_1_1
 62
   137
  6
CONTINUOUS
100
AcDbCircle
 10
-90.98449517
 20
6.9225187
 30
0.0
 40
0.37600004
100
AcDbArc
 50
166.48877314
 51
313.51122983
  0
ARC
  5
276
100
AcDbEntity
  8
MST_1_1
 62
   137
  6
CONTINUOUS
100
AcDbCircle
 10
-90.04749524
 20
5.93551458
 30
0.0
 40
0.98493568
100
AcDbArc
 50
46.48875513
 51
133.51124487
  0
ARC
  5
277
100
AcDbEntity
  8
MST_1_1
 62
   137
  6
CONTINUOUS
100
AcDbCircle
 10
-89.11049528
 20
6.92251866
 30
0.0
 40
0.37600002
100
AcDbArc
 50
226.48878273
 51
13.51123435
  0
ARC
  5
278
100
AcDbEntity
  8
MST_1_1
 62
   137
  6
CONTINUOUS
100
AcDbCircle
 10
-87.78722446
 20
7.24048228
 30
0.0
 40
0.98493588
100
AcDbArc
 50
106.48875933
 51
193.51124321
  0
ARC
  5
279
100
AcDbEntity
  8
MST_1_1
 62
   137
  6
CONTINUOUS
100
AcDbCircle
 10
-88.17349529
 20
8.54545025
 30
0.0
 40
0.37600003
100
AcDbArc
 50
286.48879487
 51
73.51121515
  0
ARC
  5
27A
100
AcDbEntity
  8
MST_1_1
 62
   137
  6
CONTINUOUS
100
AcDbCircle
 10
-87.95033682
 20
9.75624526
 30
0.0
 40
0.91385801
100
AcDbArc
 50
166.48876508
 51
253.51125242
  0
ARC
  5
27B
100
AcDbEntity
  8
MST_1_1
 62
   137
  6
CONTINUOUS
100
AcDbCircle
 10
-89.1104953
 20
10.1683818
 30
0.0
 40
0.37600004
100
AcDbArc
 50
346.48878316
 51
133.51121981
  0
ARC
  5
27C
100
AcDbEntity
  8
MST_1_1
 62
   137
  6
CONTINUOUS
100
AcDbCircle
 10
-90.04749524
 20
11.15538593
 30
0.0
 40
0.98493568
100
AcDbArc
 50
226.48876515
 51
313.51125489
  0
ARC
  5
27D
100
AcDbEntity
  8
MST_1_1
 62
   137
  6
CONTINUOUS
100
AcDbCircle
 10
-90.9844952
 20
10.16838185
 30
0.0
 40
0.37600002
100
AcDbArc
 50
46.48877271
 51
193.51124436
  0
ARC
  5
27E
100
AcDbEntity
  8
MST_1_1
 62
   137
  6
CONTINUOUS
100
AcDbCircle
 10
-92.30776602
 20
9.85041822
 30
0.0
 40
0.98493588
100
AcDbArc
 50
286.48876935
 51
13.51123319
  0
LWPOLYLINE
  5
27F
100
AcDbEntity
  8
MST_1_1
 62
   137
  6
CONTINUOUS
100
AcDbPolyline
 90
        9
 70
     0
 43
0.0
 10
-91.74455147
 20
5.57560179
 10
-91.73246628
 20
5.5876871
 10
-91.72037166
 20
5.59978172
 10
-91.70826784
 20
5.61188542
 10
-91.69615482
 20
5.62399844
 10
-91.68403273
 20
5.63612053
 10
-91.67190155
 20
5.64825171
 10
-91.6597613
 20
5.66039196
 10
-91.64761196
 20
5.6725413
  0
ARC
  5
280
100
AcDbEntity
  8
MST_1_1
 62
   137
  6
CONTINUOUS
100
AcDbCircle
 10
-91.44473825
 20
5.84147391
 30
0.0
 40
0.26399994
100
AcDbArc
 50
50.21590624
 51
219.78410378
  0
LWPOLYLINE
  5
281
100
AcDbEntity
  8
MST_1_1
 62
   137
  6
CONTINUOUS
100
AcDbPolyline
 90
        9
 70
     0
 43
0.0
 10
-91.27580564
 20
6.04434762
 10
-91.26371253
 20
6.05644085
 10
-91.25161232
 20
6.06854105
 10
-91.23950513
 20
6.08064802
 10
-91.22739107
 20
6.09276219
 10
-91.21527002
 20
6.10488312
 10
-91.20314222
 20
6.11701104
 10
-91.19100756
 20
6.12914571
 10
-91.17886614
 20
6.14128713
  0
LWPOLYLINE
  5
282
100
AcDbEntity
  8
MST_1_1
 62
   137
  6
CONTINUOUS
100
AcDbPolyline
 90
        9
 70
     0
 43
0.0
 10
-91.17886614
 20
6.14128713
 10
-91.25131488
 20
6.21373611
 10
-91.32383988
 20
6.28626099
 10
-91.39643135
 20
6.35885246
 10
-91.46907929
 20
6.43150051
 10
-91.54177402
 20
6.50419513
 10
-91.61450577
 20
6.57692676
 10
-91.68726465
 20
6.64968576
 10
-91.76004076
 20
6.72246187
  0
LWPOLYLINE
  5
283
100
AcDbEntity
  8
MST_1_1
 62
   137
  6
CONTINUOUS
100
AcDbPolyline
 90
        9
 70
     0
 43
0.0
 10
-91.76004076
 20
6.72246187
 10
-91.76433695
 20
6.71816567
 10
-91.76863221
 20
6.7138703
 10
-91.77292677
 20
6.70957574
 10
-91.77722052
 20
6.70528211
 10
-91.78151333
 20
6.70098918
 10
-91.78580533
 20
6.69669718
 10
-91.79009652
 20
6.69240611
 10
-91.79438677
 20
6.68811574
  0
LWPOLYLINE
  5
284
100
AcDbEntity
  8
MST_1_1
 62
   137
  6
CONTINUOUS
100
AcDbPolyline
 90
       25
 70
     0
 43
0.0
 10
-91.79438677
 20
6.68811576
 10
-91.79797627
 20
6.69364466
 10
-91.80166115
 20
6.69910031
 10
-91.8054404
 20
6.70448171
 10
-91.80931303
 20
6.70978784
 10
-91.81327802
 20
6.71501772
 10
-91.81733437
 20
6.72017032
 10
-91.82148109
 20
6.72524465
 10
-91.82571717
 20
6.7302397
 10
-91.83004161
 20
6.73515447
 10
-91.83445341
 20
6.73998796
 10
-91.83895156
 20
6.74473915
 10
-91.84353506
 20
6.74940704
 10
-91.84820291
 20
6.75399062
 10
-91.85295411
 20
6.75848891
 10
-91.85778766
 20
6.76290087
 10
-91.86270254
 20
6.76722552
 10
-91.86769777
 20
6.77146185
 10
-91.87277234
 20
6.77560886
 10
-91.87792524
 20
6.77966552
 10
-91.88315548
 20
6.78363086
 10
-91.88846205
 20
6.78750385
 10
-91.89384395
 20
6.79128349
 10
-91.89930018
 20
6.79496879
 10
-91.90482973
 20
6.79855872
  0
LWPOLYLINE
  5
285
100
AcDbEntity
  8
MST_1_1
 62
   137
  6
CONTINUOUS
100
AcDbPolyline
 90
        9
 70
     0
 43
0.0
 10
-91.90482975
 20
6.79855872
 10
-91.90053938
 20
6.80284897
 10
-91.89624832
 20
6.80714016
 10
-91.89195632
 20
6.81143216
 10
-91.88766338
 20
6.81572497
 10
-91.88336975
 20
6.82001872
 10
-91.87907519
 20
6.82431328
 10
-91.87477982
 20
6.82860854
 10
-91.87048363
 20
6.83290473
  0
LWPOLYLINE
  5
286
100
AcDbEntity
  8
MST_1_1
 62
   137
  6
CONTINUOUS
100
AcDbPolyline
 90
        9
 70
     0
 43
0.0
 10
-91.87048363
 20
6.83290473
 10
-91.94325973
 20
6.90568084
 10
-92.01601873
 20
6.97843972
 10
-92.08875036
 20
7.05117147
 10
-92.16144498
 20
7.1238662
 10
-92.23409303
 20
7.19651414
 10
-92.3066845
 20
7.26910561
 10
-92.37920938
 20
7.34163061
 10
-92.45165837
 20
7.41407936
  0
LWPOLYLINE
  5
287
100
AcDbEntity
  8
MST_1_1
 62
   137
  6
CONTINUOUS
100
AcDbPolyline
 90
        9
 70
     0
 43
0.0
 10
-92.45165837
 20
7.41407936
 10
-92.46379978
 20
7.40193794
 10
-92.47593445
 20
7.38980327
 10
-92.48806237
 20
7.37767547
 10
-92.5001833
 20
7.36555442
 10
-92.51229748
 20
7.35344036
 10
-92.52440444
 20
7.34133317
 10
-92.53650465
 20
7.32923296
 10
-92.54859787
 20
7.31713985
  0
ARC
  5
288
100
AcDbEntity
  8
MST_1_1
 62
   137
  6
CONTINUOUS
100
AcDbCircle
 10
-92.75147146
 20
7.14820712
 30
0.0
 40
0.26399993
100
AcDbArc
 50
230.21587884
 51
39.78413117
  0
LWPOLYLINE
  5
289
100
AcDbEntity
  8
MST_1_1
 62
   137
  6
CONTINUOUS
100
AcDbPolyline
 90
        9
 70
     0
 43
0.0
 10
-92.92040419
 20
6.94533353
 10
-92.93255353
 20
6.93318419
 10
-92.94469378
 20
6.92104394
 10
-92.95682496
 20
6.90891276
 10
-92.96894705
 20
6.89679067
 10
-92.98106007
 20
6.88467765
 10
-92.99316377
 20
6.87257384
 10
-93.00525839
 20
6.86047921
 10
-93.0173437
 20
6.84839402
  0
LWPOLYLINE
  5
28A
100
AcDbEntity
  8
MST_1_1
 62
   137
  6
CONTINUOUS
100
AcDbPolyline
 90
        9
 70
     0
 43
0.0
 10
-93.0173437
 20
6.84839402
 10
-92.94490752
 20
6.77595762
 10
-92.87239009
 20
6.7034403
 10
-92.79980211
 20
6.63085244
 10
-92.72715406
 20
6.55820439
 10
-92.65445642
 20
6.48550651
 10
-92.58171919
 20
6.41276952
 10
-92.50895333
 20
6.34000366
 10
-92.43616907
 20
6.2672194
  0
LWPOLYLINE
  5
28B
100
AcDbEntity
  8
MST_1_1
 62
   137
  6
CONTINUOUS
100
AcDbPolyline
 90
        9
 70
     0
 43
0.0
 10
-92.43616907
 20
6.2672194
 10
-92.43187987
 20
6.27150861
 10
-92.4275895
 20
6.27579898
 10
-92.42329796
 20
6.28009051
 10
-92.41900526
 20
6.28438321
 10
-92.4147114
 20
6.28867707
 10
-92.41041637
 20
6.29297187
 10
-92.40612042
 20
6.29726806
 10
-92.40182306
 20
6.30156541
  0
LWPOLYLINE
  5
28C
100
AcDbEntity
  8
MST_1_1
 62
   137
  6
CONTINUOUS
100
AcDbPolyline
 90
       25
 70
     0
 43
0.0
 10
-92.40182304
 20
6.30156541
 10
-92.39823385
 20
6.29603703
 10
-92.39454919
 20
6.29058178
 10
-92.39077006
 20
6.28520067
 10
-92.38689749
 20
6.27989473
 10
-92.38293248
 20
6.27466497
 10
-92.37887605
 20
6.2695124
 10
-92.3747292
 20
6.26443803
 10
-92.37049296
 20
6.25944289
 10
-92.36616832
 20
6.25452798
 10
-92.3617563
 20
6.24969432
 10
-92.35725792
 20
6.24494292
 10
-92.35267419
 20
6.24027481
 10
-92.34800611
 20
6.23569098
 10
-92.3432547
 20
6.23119247
 10
-92.33842098
 20
6.22678027
 10
-92.33350595
 20
6.22245542
 10
-92.32851062
 20
6.21821891
 10
-92.32343601
 20
6.21407178
 10
-92.31828313
 20
6.21001502
 10
-92.31305299
 20
6.20604966
 10
-92.3077466
 20
6.2021767
 10
-92.30236498
 20
6.19839718
 10
-92.29690914
 20
6.19471209
 10
-92.29138008
 20
6.19112245
  0
LWPOLYLINE
  5
28D
100
AcDbEntity
  8
MST_1_1
 62
   137
  6
CONTINUOUS
100
AcDbPolyline
 90
        9
 70
     0
 43
0.0
 10
-92.29138008
 20
6.19112243
 10
-92.29567743
 20
6.18682507
 10
-92.29997362
 20
6.18252912
 10
-92.30426842
 20
6.17823409
 10
-92.30856228
 20
6.17394023
 10
-92.31285498
 20
6.16964753
 10
-92.31714651
 20
6.16535599
 10
-92.32143688
 20
6.16106562
 10
-92.32572609
 20
6.15677642
  0
LWPOLYLINE
  5
28E
100
AcDbEntity
  8
MST_1_1
 62
   137
  6
CONTINUOUS
100
AcDbPolyline
 90
        9
 70
     0
 43
0.0
 10
-92.32572609
 20
6.15677642
 10
-92.25294183
 20
6.08399216
 10
-92.18017597
 20
6.0112263
 10
-92.10743898
 20
5.93848907
 10
-92.0347411
 20
5.86579143
 10
-91.96209305
 20
5.79314338
 10
-91.88950519
 20
5.7205554
 10
-91.81698787
 20
5.64803797
 10
-91.74455147
 20
5.57560179
  0
CIRCLE
  5
28F
100
AcDbEntity
  8
MST_1_1
 62
   137
  6
CONTINUOUS
100
AcDbCircle
 10
-90.04749524
 20
8.54545025
 30
0.0
 40
3.94143771
  0
LWPOLYLINE
  5
290
100
AcDbEntity
  8
MST_1_1
 62
   137
  6
CONTINUOUS
100
AcDbPolyline
 90
        9
 70
     0
 43
0.0
 10
-92.01949698
 20
6.84615349
 10
-92.06713669
 20
6.89379321
 10
-92.11476546
 20
6.94142209
 10
-92.16238096
 20
6.98903759
 10
-92.20998016
 20
7.03663678
 10
-92.25756026
 20
7.08421689
 10
-92.30511848
 20
7.13177523
 10
-92.35265226
 20
7.17930888
 10
-92.40015855
 20
7.22681518
  0
ARC
  5
291
100
AcDbEntity
  8
MST_1_1
 62
   137
  6
CONTINUOUS
100
AcDbCircle
 10
-92.09810516
 20
6.49484095
 30
0.0
 40
0.35999965
100
AcDbArc
 50
77.38749365
 51
127.33775307
  0
LWPOLYLINE
  5
292
100
AcDbEntity
  8
MST_1_1
 62
   137
  6
CONTINUOUS
100
AcDbPolyline
 90
        9
 70
     0
 43
0.0
 10
-91.81187817
 20
6.27649607
 10
-91.87492662
 20
6.33954451
 10
-91.93799473
 20
6.40261275
 10
-92.00107589
 20
6.46569402
 10
-92.06416368
 20
6.52878181
 10
-92.12725147
 20
6.5918696
 10
-92.19033274
 20
6.65495076
 10
-92.25340098
 20
6.71801888
 10
-92.31644942
 20
6.78106732
  0
ARC
  5
293
100
AcDbEntity
  8
MST_1_1
 62
   137
  6
CONTINUOUS
100
AcDbCircle
 10
-92.09810527
 20
6.49484049
 30
0.0
 40
0.36000032
100
AcDbArc
 50
322.66230677
 51
12.61245653
  0
LWPOLYLINE
  5
294
100
AcDbEntity
  8
MST_1_1
 62
   137
  6
CONTINUOUS
100
AcDbPolyline
 90
        9
 70
     0
 43
0.0
 10
-91.36613031
 20
6.19278694
 10
-91.41363661
 20
6.24029324
 10
-91.46117026
 20
6.28782701
 10
-91.5087286
 20
6.33538523
 10
-91.55630871
 20
6.38296533
 10
-91.60390791
 20
6.43056453
 10
-91.6515234
 20
6.47818003
 10
-91.69915229
 20
6.5258088
 10
-91.746792
 20
6.57344851
  0
ARC
  5
295
100
AcDbEntity
  8
MST_1_1
 62
   137
  6
CONTINUOUS
100
AcDbCircle
 10
-91.44473807
 20
5.84147381
 30
0.0
 40
0.36000013
100
AcDbArc
 50
77.38757789
 51
192.61246315
  0
LWPOLYLINE
  5
296
100
AcDbEntity
  8
MST_1_1
 62
   137
  6
CONTINUOUS
100
AcDbPolyline
 90
        9
 70
     0
 43
0.0
 10
-92.17671285
 20
6.14352766
 10
-92.12907058
 20
6.09588515
 10
-92.08143925
 20
6.04825405
 10
-92.03382235
 20
6.00063716
 10
-91.98622246
 20
5.95303726
 10
-91.93864247
 20
5.90545716
 10
-91.8910853
 20
5.8579001
 10
-91.84355385
 20
5.81036866
 10
-91.79605116
 20
5.76286585
  0
ARC
  5
297
100
AcDbEntity
  8
MST_1_1
 62
   137
  6
CONTINUOUS
100
AcDbCircle
 10
-92.09810506
 20
6.4948416
 30
0.0
 40
0.36000093
100
AcDbArc
 50
257.38761324
 51
307.3376629
  0
LWPOLYLINE
  5
298
100
AcDbEntity
  8
MST_1_1
 62
   137
  6
CONTINUOUS
100
AcDbPolyline
 90
        9
 70
     0
 43
0.0
 10
-92.38433166
 20
6.71318496
 10
-92.32128322
 20
6.65013675
 10
-92.25821522
 20
6.58706863
 10
-92.19513394
 20
6.52398736
 10
-92.13204592
 20
6.46089957
 10
-92.06895813
 20
6.39781155
 10
-92.00587686
 20
6.33473028
 10
-91.94280874
 20
6.27166228
 10
-91.87976053
 20
6.20861383
  0
ARC
  5
299
100
AcDbEntity
  8
MST_1_1
 62
   137
  6
CONTINUOUS
100
AcDbCircle
 10
-92.0981049
 20
6.49484065
 30
0.0
 40
0.36
100
AcDbArc
 50
142.66227791
 51
192.61247599
  0
LWPOLYLINE
  5
29A
100
AcDbEntity
  8
MST_1_1
 62
   137
  6
CONTINUOUS
100
AcDbPolyline
 90
        9
 70
     0
 43
0.0
 10
-92.83007964
 20
6.79689433
 10
-92.78257683
 20
6.74939164
 10
-92.73504539
 20
6.7018602
 10
-92.68748833
 20
6.65430302
 10
-92.63990823
 20
6.60672303
 10
-92.59230833
 20
6.55912314
 10
-92.54469144
 20
6.51150624
 10
-92.49706034
 20
6.46387491
 10
-92.44941784
 20
6.41623264
  0
ARC
  5
29B
100
AcDbEntity
  8
MST_1_1
 62
   137
  6
CONTINUOUS
100
AcDbCircle
 10
-92.75147158
 20
7.14820731
 30
0.0
 40
0.36000006
100
AcDbArc
 50
257.38753734
 51
12.61244165
  0
LWPOLYLINE
  5
29C
100
AcDbEntity
  8
MST_1_1
 62
   137
  6
CONTINUOUS
100
AcDbPolyline
 90
        9
 70
     0
 43
0.0
 10
-92.20411911
 20
6.73661937
 10
-92.16065242
 20
6.69315268
 10
-92.11717945
 20
6.64967971
 10
-92.07370205
 20
6.60620231
 10
-92.03022256
 20
6.56272293
 10
-91.98674318
 20
6.51924344
 10
-91.94326579
 20
6.47576604
 10
-91.89979281
 20
6.43229307
 10
-91.85632613
 20
6.38882638
  0
ARC
  5
29D
100
AcDbEntity
  8
MST_1_1
 62
   137
  6
CONTINUOUS
100
AcDbCircle
 10
-92.09810486
 20
6.49484063
 30
0.0
 40
0.26399996
100
AcDbArc
 50
336.32369791
 51
113.67631211
  0
LWPOLYLINE
  5
29E
100
AcDbEntity
  8
MST_1_1
 62
   137
  6
CONTINUOUS
100
AcDbPolyline
 90
        9
 70
     0
 43
0.0
 10
-91.9920906
 20
6.2530619
 10
-92.03555718
 20
6.29652835
 10
-92.07903015
 20
6.34000133
 10
-92.12250755
 20
6.38347873
 10
-92.16598704
 20
6.42695845
 10
-92.20946677
 20
6.47043794
 10
-92.25294416
 20
6.51391534
 10
-92.29641714
 20
6.55738832
 10
-92.33988359
 20
6.60085489
  0
ARC
  5
29F
100
AcDbEntity
  8
MST_1_1
 62
   137
  6
CONTINUOUS
100
AcDbCircle
 10
-92.09810494
 20
6.49484055
 30
0.0
 40
0.26399992
100
AcDbArc
 50
156.32366302
 51
293.676347
  0
CIRCLE
  5
2A0
100
AcDbEntity
  8
MST_1_1
 62
   137
  6
CONTINUOUS
100
AcDbCircle
 10
-90.04749524
 20
-21.45454975
 30
0.0
 40
2.32981333
  0
CIRCLE
  5
2A1
100
AcDbEntity
  8
MST_1_1
 62
   137
  6
CONTINUOUS
100
AcDbCircle
 10
-90.04749524
 20
-21.45454975
 30
0.0
 40
1.32203389
  0
CIRCLE
  5
2A2
100
AcDbEntity
  8
MST_1_1
 62
   137
  6
CONTINUOUS
100
AcDbCircle
 10
-90.04749524
 20
-21.45454975
 30
0.0
 40
2.32981333
  0
CIRCLE
  5
2A3
100
AcDbEntity
  8
MST_1_1
 62
   137
  6
CONTINUOUS
100
AcDbCircle
 10
-90.04749524
 20
-21.45454975
 30
0.0
 40
2.32981333
  0
CIRCLE
  5
2A4
100
AcDbEntity
  8
MST_1_1
 62
   137
  6
CONTINUOUS
100
AcDbCircle
 10
-90.04749524
 20
-21.45454975
 30
0.0
 40
4.5
  0
ARC
  5
2A5
100
AcDbEntity
  8
MST_1_1
 62
   137
  6
CONTINUOUS
100
AcDbCircle
 10
-91.92149519
 20
-21.45454975
 30
0.0
 40
0.37600003
100
AcDbArc
 50
106.48878485
 51
253.51122516
  0
ARC
  5
2A6
100
AcDbEntity
  8
MST_1_1
 62
   137
  6
CONTINUOUS
100
AcDbCircle
 10
-92.30776598
 20
-22.7595177
 30
0.0
 40
0.98493585
100
AcDbArc
 50
346.4887751
 51
73.5112424
  0
ARC
  5
2A7
100
AcDbEntity
  8
MST_1_1
 62
   137
  6
CONTINUOUS
100
AcDbCircle
 10
-90.98449517
 20
-23.0774813
 30
0.0
 40
0.37600004
100
AcDbArc
 50
166.48877314
 51
313.51122983
  0
ARC
  5
2A8
100
AcDbEntity
  8
MST_1_1
 62
   137
  6
CONTINUOUS
100
AcDbCircle
 10
-90.04749524
 20
-24.06448542
 30
0.0
 40
0.98493568
100
AcDbArc
 50
46.48875513
 51
133.51124487
  0
ARC
  5
2A9
100
AcDbEntity
  8
MST_1_1
 62
   137
  6
CONTINUOUS
100
AcDbCircle
 10
-89.11049528
 20
-23.07748134
 30
0.0
 40
0.37600002
100
AcDbArc
 50
226.48878273
 51
13.51123435
  0
ARC
  5
2AA
100
AcDbEntity
  8
MST_1_1
 62
   137
  6
CONTINUOUS
100
AcDbCircle
 10
-87.78722446
 20
-22.75951772
 30
0.0
 40
0.98493588
100
AcDbArc
 50
106.48875933
 51
193.51124321
  0
ARC
  5
2AB
100
AcDbEntity
  8
MST_1_1
 62
   137
  6
CONTINUOUS
100
AcDbCircle
 10
-88.17349529
 20
-21.45454975
 30
0.0
 40
0.37600003
100
AcDbArc
 50
286.48879487
 51
73.51121515
  0
ARC
  5
2AC
100
AcDbEntity
  8
MST_1_1
 62
   137
  6
CONTINUOUS
100
AcDbCircle
 10
-87.95033682
 20
-20.24375474
 30
0.0
 40
0.91385801
100
AcDbArc
 50
166.48876508
 51
253.51125242
  0
ARC
  5
2AD
100
AcDbEntity
  8
MST_1_1
 62
   137
  6
CONTINUOUS
100
AcDbCircle
 10
-89.1104953
 20
-19.8316182
 30
0.0
 40
0.37600004
100
AcDbArc
 50
346.48878316
 51
133.51121981
  0
ARC
  5
2AE
100
AcDbEntity
  8
MST_1_1
 62
   137
  6
CONTINUOUS
100
AcDbCircle
 10
-90.04749524
 20
-18.84461407
 30
0.0
 40
0.98493568
100
AcDbArc
 50
226.48876515
 51
313.51125489
  0
ARC
  5
2AF
100
AcDbEntity
  8
MST_1_1
 62
   137
  6
CONTINUOUS
100
AcDbCircle
 10
-90.9844952
 20
-19.83161815
 30
0.0
 40
0.37600002
100
AcDbArc
 50
46.48877271
 51
193.51124436
  0
ARC
  5
2B0
100
AcDbEntity
  8
MST_1_1
 62
   137
  6
CONTINUOUS
100
AcDbCircle
 10
-92.30776602
 20
-20.14958178
 30
0.0
 40
0.98493588
100
AcDbArc
 50
286.48876935
 51
13.51123319
  0
LWPOLYLINE
  5
2B1
100
AcDbEntity
  8
MST_1_1
 62
   137
  6
CONTINUOUS
100
AcDbPolyline
 90
        9
 70
     0
 43
0.0
 10
-91.74455147
 20
-24.42439821
 10
-91.73246628
 20
-24.4123129
 10
-91.72037166
 20
-24.40021828
 10
-91.70826784
 20
-24.38811458
 10
-91.69615482
 20
-24.37600156
 10
-91.68403273
 20
-24.36387947
 10
-91.67190155
 20
-24.35174829
 10
-91.6597613
 20
-24.33960804
 10
-91.64761196
 20
-24.3274587
  0
ARC
  5
2B2
100
AcDbEntity
  8
MST_1_1
 62
   137
  6
CONTINUOUS
100
AcDbCircle
 10
-91.44473825
 20
-24.15852609
 30
0.0
 40
0.26399994
100
AcDbArc
 50
50.21590624
 51
219.78410378
  0
LWPOLYLINE
  5
2B3
100
AcDbEntity
  8
MST_1_1
 62
   137
  6
CONTINUOUS
100
AcDbPolyline
 90
        9
 70
     0
 43
0.0
 10
-91.27580564
 20
-23.95565238
 10
-91.26371253
 20
-23.94355915
 10
-91.25161232
 20
-23.93145895
 10
-91.23950513
 20
-23.91935198
 10
-91.22739107
 20
-23.90723781
 10
-91.21527002
 20
-23.89511688
 10
-91.20314222
 20
-23.88298896
 10
-91.19100756
 20
-23.87085429
 10
-91.17886614
 20
-23.85871287
  0
LWPOLYLINE
  5
2B4
100
AcDbEntity
  8
MST_1_1
 62
   137
  6
CONTINUOUS
100
AcDbPolyline
 90
        9
 70
     0
 43
0.0
 10
-91.17886614
 20
-23.85871287
 10
-91.25131488
 20
-23.78626389
 10
-91.32383988
 20
-23.71373901
 10
-91.39643135
 20
-23.64114754
 10
-91.46907929
 20
-23.56849949
 10
-91.54177402
 20
-23.49580487
 10
-91.61450577
 20
-23.42307324
 10
-91.68726465
 20
-23.35031424
 10
-91.76004076
 20
-23.27753813
  0
LWPOLYLINE
  5
2B5
100
AcDbEntity
  8
MST_1_1
 62
   137
  6
CONTINUOUS
100
AcDbPolyline
 90
        9
 70
     0
 43
0.0
 10
-91.76004076
 20
-23.27753813
 10
-91.76433695
 20
-23.28183433
 10
-91.76863221
 20
-23.2861297
 10
-91.77292677
 20
-23.29042426
 10
-91.77722052
 20
-23.29471789
 10
-91.78151333
 20
-23.29901082
 10
-91.78580533
 20
-23.30330282
 10
-91.79009652
 20
-23.30759389
 10
-91.79438677
 20
-23.31188426
  0
LWPOLYLINE
  5
2B6
100
AcDbEntity
  8
MST_1_1
 62
   137
  6
CONTINUOUS
100
AcDbPolyline
 90
       25
 70
     0
 43
0.0
 10
-91.79438677
 20
-23.31188424
 10
-91.79797627
 20
-23.30635534
 10
-91.80166115
 20
-23.30089969
 10
-91.8054404
 20
-23.29551829
 10
-91.80931303
 20
-23.29021216
 10
-91.81327802
 20
-23.28498228
 10
-91.81733437
 20
-23.27982968
 10
-91.82148109
 20
-23.27475535
 10
-91.82571717
 20
-23.2697603
 10
-91.83004161
 20
-23.26484553
 10
-91.83445341
 20
-23.26001204
 10
-91.83895156
 20
-23.25526085
 10
-91.84353506
 20
-23.25059296
 10
-91.84820291
 20
-23.24600938
 10
-91.85295411
 20
-23.24151109
 10
-91.85778766
 20
-23.23709913
 10
-91.86270254
 20
-23.23277448
 10
-91.86769777
 20
-23.22853815
 10
-91.87277234
 20
-23.22439114
 10
-91.87792524
 20
-23.22033448
 10
-91.88315548
 20
-23.21636914
 10
-91.88846205
 20
-23.21249615
 10
-91.89384395
 20
-23.20871651
 10
-91.89930018
 20
-23.20503121
 10
-91.90482973
 20
-23.20144128
  0
LWPOLYLINE
  5
2B7
100
AcDbEntity
  8
MST_1_1
 62
   137
  6
CONTINUOUS
100
AcDbPolyline
 90
        9
 70
     0
 43
0.0
 10
-91.90482975
 20
-23.20144128
 10
-91.90053938
 20
-23.19715103
 10
-91.89624832
 20
-23.19285984
 10
-91.89195632
 20
-23.18856784
 10
-91.88766338
 20
-23.18427503
 10
-91.88336975
 20
-23.17998128
 10
-91.87907519
 20
-23.17568672
 10
-91.87477982
 20
-23.17139146
 10
-91.87048363
 20
-23.16709527
  0
LWPOLYLINE
  5
2B8
100
AcDbEntity
  8
MST_1_1
 62
   137
  6
CONTINUOUS
100
AcDbPolyline
 90
        9
 70
     0
 43
0.0
 10
-91.87048363
 20
-23.16709527
 10
-91.94325973
 20
-23.09431916
 10
-92.01601873
 20
-23.02156028
 10
-92.08875036
 20
-22.94882853
 10
-92.16144498
 20
-22.8761338
 10
-92.23409303
 20
-22.80348586
 10
-92.3066845
 20
-22.73089439
 10
-92.37920938
 20
-22.65836939
 10
-92.45165837
 20
-22.58592064
  0
LWPOLYLINE
  5
2B9
100
AcDbEntity
  8
MST_1_1
 62
   137
  6
CONTINUOUS
100
AcDbPolyline
 90
        9
 70
     0
 43
0.0
 10
-92.45165837
 20
-22.58592064
 10
-92.46379978
 20
-22.59806206
 10
-92.47593445
 20
-22.61019673
 10
-92.48806237
 20
-22.62232453
 10
-92.5001833
 20
-22.63444558
 10
-92.51229748
 20
-22.64655964
 10
-92.52440444
 20
-22.65866683
 10
-92.53650465
 20
-22.67076704
 10
-92.54859787
 20
-22.68286015
  0
ARC
  5
2BA
100
AcDbEntity
  8
MST_1_1
 62
   137
  6
CONTINUOUS
100
AcDbCircle
 10
-92.75147146
 20
-22.85179288
 30
0.0
 40
0.26399993
100
AcDbArc
 50
230.21587884
 51
39.78413117
  0
LWPOLYLINE
  5
2BB
100
AcDbEntity
  8
MST_1_1
 62
   137
  6
CONTINUOUS
100
AcDbPolyline
 90
        9
 70
     0
 43
0.0
 10
-92.92040419
 20
-23.05466647
 10
-92.93255353
 20
-23.06681581
 10
-92.94469378
 20
-23.07895606
 10
-92.95682496
 20
-23.09108724
 10
-92.96894705
 20
-23.10320933
 10
-92.98106007
 20
-23.11532235
 10
-92.99316377
 20
-23.12742616
 10
-93.00525839
 20
-23.13952079
 10
-93.0173437
 20
-23.15160598
  0
LWPOLYLINE
  5
2BC
100
AcDbEntity
  8
MST_1_1
 62
   137
  6
CONTINUOUS
100
AcDbPolyline
 90
        9
 70
     0
 43
0.0
 10
-93.0173437
 20
-23.15160598
 10
-92.94490752
 20
-23.22404238
 10
-92.87239009
 20
-23.2965597
 10
-92.79980211
 20
-23.36914756
 10
-92.72715406
 20
-23.44179561
 10
-92.65445642
 20
-23.51449349
 10
-92.58171919
 20
-23.58723048
 10
-92.50895333
 20
-23.65999634
 10
-92.43616907
 20
-23.7327806
  0
LWPOLYLINE
  5
2BD
100
AcDbEntity
  8
MST_1_1
 62
   137
  6
CONTINUOUS
100
AcDbPolyline
 90
        9
 70
     0
 43
0.0
 10
-92.43616907
 20
-23.7327806
 10
-92.43187987
 20
-23.72849139
 10
-92.4275895
 20
-23.72420102
 10
-92.42329796
 20
-23.71990949
 10
-92.41900526
 20
-23.71561679
 10
-92.4147114
 20
-23.71132293
 10
-92.41041637
 20
-23.70702813
 10
-92.40612042
 20
-23.70273194
 10
-92.40182306
 20
-23.69843459
  0
LWPOLYLINE
  5
2BE
100
AcDbEntity
  8
MST_1_1
 62
   137
  6
CONTINUOUS
100
AcDbPolyline
 90
       25
 70
     0
 43
0.0
 10
-92.40182304
 20
-23.69843459
 10
-92.39823385
 20
-23.70396297
 10
-92.39454919
 20
-23.70941822
 10
-92.39077006
 20
-23.71479933
 10
-92.38689749
 20
-23.72010527
 10
-92.38293248
 20
-23.72533503
 10
-92.37887605
 20
-23.7304876
 10
-92.3747292
 20
-23.73556197
 10
-92.37049296
 20
-23.74055711
 10
-92.36616832
 20
-23.74547202
 10
-92.3617563
 20
-23.75030568
 10
-92.35725792
 20
-23.75505708
 10
-92.35267419
 20
-23.75972519
 10
-92.34800611
 20
-23.76430902
 10
-92.3432547
 20
-23.76880753
 10
-92.33842098
 20
-23.77321973
 10
-92.33350595
 20
-23.77754458
 10
-92.32851062
 20
-23.78178109
 10
-92.32343601
 20
-23.78592822
 10
-92.31828313
 20
-23.78998498
 10
-92.31305299
 20
-23.79395034
 10
-92.3077466
 20
-23.7978233
 10
-92.30236498
 20
-23.80160282
 10
-92.29690914
 20
-23.80528791
 10
-92.29138008
 20
-23.80887755
  0
LWPOLYLINE
  5
2BF
100
AcDbEntity
  8
MST_1_1
 62
   137
  6
CONTINUOUS
100
AcDbPolyline
 90
        9
 70
     0
 43
0.0
 10
-92.29138008
 20
-23.80887757
 10
-92.29567743
 20
-23.81317493
 10
-92.29997362
 20
-23.81747088
 10
-92.30426842
 20
-23.82176591
 10
-92.30856228
 20
-23.82605977
 10
-92.31285498
 20
-23.83035247
 10
-92.31714651
 20
-23.83464401
 10
-92.32143688
 20
-23.83893438
 10
-92.32572609
 20
-23.84322358
  0
LWPOLYLINE
  5
2C0
100
AcDbEntity
  8
MST_1_1
 62
   137
  6
CONTINUOUS
100
AcDbPolyline
 90
        9
 70
     0
 43
0.0
 10
-92.32572609
 20
-23.84322358
 10
-92.25294183
 20
-23.91600784
 10
-92.18017597
 20
-23.9887737
 10
-92.10743898
 20
-24.06151093
 10
-92.0347411
 20
-24.13420857
 10
-91.96209305
 20
-24.20685662
 10
-91.88950519
 20
-24.2794446
 10
-91.81698787
 20
-24.35196203
 10
-91.74455147
 20
-24.42439821
  0
CIRCLE
  5
2C1
100
AcDbEntity
  8
MST_1_1
 62
   137
  6
CONTINUOUS
100
AcDbCircle
 10
-90.04749524
 20
-21.45454975
 30
0.0
 40
3.94143771
  0
LWPOLYLINE
  5
2C2
100
AcDbEntity
  8
MST_1_1
 62
   137
  6
CONTINUOUS
100
AcDbPolyline
 90
        9
 70
     0
 43
0.0
 10
-92.01949698
 20
-23.15384651
 10
-92.06713669
 20
-23.10620679
 10
-92.11476546
 20
-23.05857791
 10
-92.16238096
 20
-23.01096241
 10
-92.20998016
 20
-22.96336322
 10
-92.25756026
 20
-22.91578311
 10
-92.30511848
 20
-22.86822477
 10
-92.35265226
 20
-22.82069112
 10
-92.40015855
 20
-22.77318482
  0
ARC
  5
2C3
100
AcDbEntity
  8
MST_1_1
 62
   137
  6
CONTINUOUS
100
AcDbCircle
 10
-92.09810516
 20
-23.50515905
 30
0.0
 40
0.35999965
100
AcDbArc
 50
77.38749365
 51
127.33775307
  0
LWPOLYLINE
  5
2C4
100
AcDbEntity
  8
MST_1_1
 62
   137
  6
CONTINUOUS
100
AcDbPolyline
 90
        9
 70
     0
 43
0.0
 10
-91.81187817
 20
-23.72350393
 10
-91.87492662
 20
-23.66045549
 10
-91.93799473
 20
-23.59738725
 10
-92.00107589
 20
-23.53430598
 10
-92.06416368
 20
-23.47121819
 10
-92.12725147
 20
-23.4081304
 10
-92.19033274
 20
-23.34504924
 10
-92.25340098
 20
-23.28198112
 10
-92.31644942
 20
-23.21893268
  0
ARC
  5
2C5
100
AcDbEntity
  8
MST_1_1
 62
   137
  6
CONTINUOUS
100
AcDbCircle
 10
-92.09810527
 20
-23.50515951
 30
0.0
 40
0.36000032
100
AcDbArc
 50
322.66230677
 51
12.61245653
  0
LWPOLYLINE
  5
2C6
100
AcDbEntity
  8
MST_1_1
 62
   137
  6
CONTINUOUS
100
AcDbPolyline
 90
        9
 70
     0
 43
0.0
 10
-91.36613031
 20
-23.80721306
 10
-91.41363661
 20
-23.75970676
 10
-91.46117026
 20
-23.71217299
 10
-91.5087286
 20
-23.66461477
 10
-91.55630871
 20
-23.61703467
 10
-91.60390791
 20
-23.56943547
 10
-91.6515234
 20
-23.52181997
 10
-91.69915229
 20
-23.4741912
 10
-91.746792
 20
-23.42655149
  0
ARC
  5
2C7
100
AcDbEntity
  8
MST_1_1
 62
   137
  6
CONTINUOUS
100
AcDbCircle
 10
-91.44473807
 20
-24.15852619
 30
0.0
 40
0.36000013
100
AcDbArc
 50
77.38757789
 51
192.61246315
  0
LWPOLYLINE
  5
2C8
100
AcDbEntity
  8
MST_1_1
 62
   137
  6
CONTINUOUS
100
AcDbPolyline
 90
        9
 70
     0
 43
0.0
 10
-92.17671285
 20
-23.85647234
 10
-92.12907058
 20
-23.90411485
 10
-92.08143925
 20
-23.95174595
 10
-92.03382235
 20
-23.99936284
 10
-91.98622246
 20
-24.04696274
 10
-91.93864247
 20
-24.09454284
 10
-91.8910853
 20
-24.1420999
 10
-91.84355385
 20
-24.18963134
 10
-91.79605116
 20
-24.23713415
  0
ARC
  5
2C9
100
AcDbEntity
  8
MST_1_1
 62
   137
  6
CONTINUOUS
100
AcDbCircle
 10
-92.09810506
 20
-23.5051584
 30
0.0
 40
0.36000093
100
AcDbArc
 50
257.38761324
 51
307.3376629
  0
LWPOLYLINE
  5
2CA
100
AcDbEntity
  8
MST_1_1
 62
   137
  6
CONTINUOUS
100
AcDbPolyline
 90
        9
 70
     0
 43
0.0
 10
-92.38433166
 20
-23.28681504
 10
-92.32128322
 20
-23.34986325
 10
-92.25821522
 20
-23.41293137
 10
-92.19513394
 20
-23.47601264
 10
-92.13204592
 20
-23.53910043
 10
-92.06895813
 20
-23.60218845
 10
-92.00587686
 20
-23.66526972
 10
-91.94280874
 20
-23.72833772
 10
-91.87976053
 20
-23.79138617
  0
ARC
  5
2CB
100
AcDbEntity
  8
MST_1_1
 62
   137
  6
CONTINUOUS
100
AcDbCircle
 10
-92.0981049
 20
-23.50515935
 30
0.0
 40
0.36
100
AcDbArc
 50
142.66227791
 51
192.61247599
  0
LWPOLYLINE
  5
2CC
100
AcDbEntity
  8
MST_1_1
 62
   137
  6
CONTINUOUS
100
AcDbPolyline
 90
        9
 70
     0
 43
0.0
 10
-92.83007964
 20
-23.20310567
 10
-92.78257683
 20
-23.25060836
 10
-92.73504539
 20
-23.2981398
 10
-92.68748833
 20
-23.34569698
 10
-92.63990823
 20
-23.39327697
 10
-92.59230833
 20
-23.44087686
 10
-92.54469144
 20
-23.48849376
 10
-92.49706034
 20
-23.53612509
 10
-92.44941784
 20
-23.58376736
  0
ARC
  5
2CD
100
AcDbEntity
  8
MST_1_1
 62
   137
  6
CONTINUOUS
100
AcDbCircle
 10
-92.75147158
 20
-22.85179269
 30
0.0
 40
0.36000006
100
AcDbArc
 50
257.38753734
 51
12.61244165
  0
LWPOLYLINE
  5
2CE
100
AcDbEntity
  8
MST_1_1
 62
   137
  6
CONTINUOUS
100
AcDbPolyline
 90
        9
 70
     0
 43
0.0
 10
-92.20411911
 20
-23.26338063
 10
-92.16065242
 20
-23.30684732
 10
-92.11717945
 20
-23.35032029
 10
-92.07370205
 20
-23.39379769
 10
-92.03022256
 20
-23.43727707
 10
-91.98674318
 20
-23.48075656
 10
-91.94326579
 20
-23.52423396
 10
-91.89979281
 20
-23.56770693
 10
-91.85632613
 20
-23.61117362
  0
ARC
  5
2CF
100
AcDbEntity
  8
MST_1_1
 62
   137
  6
CONTINUOUS
100
AcDbCircle
 10
-92.09810486
 20
-23.50515937
 30
0.0
 40
0.26399996
100
AcDbArc
 50
336.32369791
 51
113.67631211
  0
LWPOLYLINE
  5
2D0
100
AcDbEntity
  8
MST_1_1
 62
   137
  6
CONTINUOUS
100
AcDbPolyline
 90
        9
 70
     0
 43
0.0
 10
-91.9920906
 20
-23.7469381
 10
-92.03555718
 20
-23.70347165
 10
-92.07903015
 20
-23.65999867
 10
-92.12250755
 20
-23.61652127
 10
-92.16598704
 20
-23.57304155
 10
-92.20946677
 20
-23.52956206
 10
-92.25294416
 20
-23.48608466
 10
-92.29641714
 20
-23.44261168
 10
-92.33988359
 20
-23.39914511
  0
ARC
  5
2D1
100
AcDbEntity
  8
MST_1_1
 62
   137
  6
CONTINUOUS
100
AcDbCircle
 10
-92.09810494
 20
-23.50515945
 30
0.0
 40
0.26399992
100
AcDbArc
 50
156.32366302
 51
293.676347
  0
CIRCLE
  5
2D2
100
AcDbEntity
  8
MST_1_1
 62
   137
  6
CONTINUOUS
100
AcDbCircle
 10
-90.04749524
 20
-51.45454975
 30
0.0
 40
2.32981333
  0
CIRCLE
  5
2D3
100
AcDbEntity
  8
MST_1_1
 62
   137
  6
CONTINUOUS
100
AcDbCircle
 10
-90.04749524
 20
-51.45454975
 30
0.0
 40
1.32203389
  0
CIRCLE
  5
2D4
100
AcDbEntity
  8
MST_1_1
 62
   137
  6
CONTINUOUS
100
AcDbCircle
 10
-90.04749524
 20
-51.45454975
 30
0.0
 40
2.32981333
  0
CIRCLE
  5
2D5
100
AcDbEntity
  8
MST_1_1
 62
   137
  6
CONTINUOUS
100
AcDbCircle
 10
-90.04749524
 20
-51.45454975
 30
0.0
 40
2.32981333
  0
CIRCLE
  5
2D6
100
AcDbEntity
  8
MST_1_1
 62
   137
  6
CONTINUOUS
100
AcDbCircle
 10
-90.04749524
 20
-51.45454975
 30
0.0
 40
4.5
  0
ARC
  5
2D7
100
AcDbEntity
  8
MST_1_1
 62
   137
  6
CONTINUOUS
100
AcDbCircle
 10
-91.92149519
 20
-51.45454975
 30
0.0
 40
0.37600003
100
AcDbArc
 50
106.48878485
 51
253.51122516
  0
ARC
  5
2D8
100
AcDbEntity
  8
MST_1_1
 62
   137
  6
CONTINUOUS
100
AcDbCircle
 10
-92.30776598
 20
-52.7595177
 30
0.0
 40
0.98493585
100
AcDbArc
 50
346.4887751
 51
73.5112424
  0
ARC
  5
2D9
100
AcDbEntity
  8
MST_1_1
 62
   137
  6
CONTINUOUS
100
AcDbCircle
 10
-90.98449517
 20
-53.0774813
 30
0.0
 40
0.37600004
100
AcDbArc
 50
166.48877314
 51
313.51122983
  0
ARC
  5
2DA
100
AcDbEntity
  8
MST_1_1
 62
   137
  6
CONTINUOUS
100
AcDbCircle
 10
-90.04749524
 20
-54.06448542
 30
0.0
 40
0.98493568
100
AcDbArc
 50
46.48875513
 51
133.51124487
  0
ARC
  5
2DB
100
AcDbEntity
  8
MST_1_1
 62
   137
  6
CONTINUOUS
100
AcDbCircle
 10
-89.11049528
 20
-53.07748134
 30
0.0
 40
0.37600002
100
AcDbArc
 50
226.48878273
 51
13.51123435
  0
ARC
  5
2DC
100
AcDbEntity
  8
MST_1_1
 62
   137
  6
CONTINUOUS
100
AcDbCircle
 10
-87.78722446
 20
-52.75951772
 30
0.0
 40
0.98493588
100
AcDbArc
 50
106.48875933
 51
193.51124321
  0
ARC
  5
2DD
100
AcDbEntity
  8
MST_1_1
 62
   137
  6
CONTINUOUS
100
AcDbCircle
 10
-88.17349529
 20
-51.45454975
 30
0.0
 40
0.37600003
100
AcDbArc
 50
286.48879487
 51
73.51121515
  0
ARC
  5
2DE
100
AcDbEntity
  8
MST_1_1
 62
   137
  6
CONTINUOUS
100
AcDbCircle
 10
-87.95033682
 20
-50.24375474
 30
0.0
 40
0.91385801
100
AcDbArc
 50
166.48876508
 51
253.51125242
  0
ARC
  5
2DF
100
AcDbEntity
  8
MST_1_1
 62
   137
  6
CONTINUOUS
100
AcDbCircle
 10
-89.1104953
 20
-49.8316182
 30
0.0
 40
0.37600004
100
AcDbArc
 50
346.48878316
 51
133.51121981
  0
ARC
  5
2E0
100
AcDbEntity
  8
MST_1_1
 62
   137
  6
CONTINUOUS
100
AcDbCircle
 10
-90.04749524
 20
-48.84461407
 30
0.0
 40
0.98493568
100
AcDbArc
 50
226.48876515
 51
313.51125489
  0
ARC
  5
2E1
100
AcDbEntity
  8
MST_1_1
 62
   137
  6
CONTINUOUS
100
AcDbCircle
 10
-90.9844952
 20
-49.83161815
 30
0.0
 40
0.37600002
100
AcDbArc
 50
46.48877271
 51
193.51124436
  0
ARC
  5
2E2
100
AcDbEntity
  8
MST_1_1
 62
   137
  6
CONTINUOUS
100
AcDbCircle
 10
-92.30776602
 20
-50.14958178
 30
0.0
 40
0.98493588
100
AcDbArc
 50
286.48876935
 51
13.51123319
  0
LWPOLYLINE
  5
2E3
100
AcDbEntity
  8
MST_1_1
 62
   137
  6
CONTINUOUS
100
AcDbPolyline
 90
        9
 70
     0
 43
0.0
 10
-91.74455147
 20
-54.42439821
 10
-91.73246628
 20
-54.4123129
 10
-91.72037166
 20
-54.40021828
 10
-91.70826784
 20
-54.38811458
 10
-91.69615482
 20
-54.37600156
 10
-91.68403273
 20
-54.36387947
 10
-91.67190155
 20
-54.35174829
 10
-91.6597613
 20
-54.33960804
 10
-91.64761196
 20
-54.3274587
  0
ARC
  5
2E4
100
AcDbEntity
  8
MST_1_1
 62
   137
  6
CONTINUOUS
100
AcDbCircle
 10
-91.44473825
 20
-54.15852609
 30
0.0
 40
0.26399994
100
AcDbArc
 50
50.21590624
 51
219.78410378
  0
LWPOLYLINE
  5
2E5
100
AcDbEntity
  8
MST_1_1
 62
   137
  6
CONTINUOUS
100
AcDbPolyline
 90
        9
 70
     0
 43
0.0
 10
-91.27580564
 20
-53.95565238
 10
-91.26371253
 20
-53.94355915
 10
-91.25161232
 20
-53.93145895
 10
-91.23950513
 20
-53.91935198
 10
-91.22739107
 20
-53.90723781
 10
-91.21527002
 20
-53.89511688
 10
-91.20314222
 20
-53.88298896
 10
-91.19100756
 20
-53.87085429
 10
-91.17886614
 20
-53.85871287
  0
LWPOLYLINE
  5
2E6
100
AcDbEntity
  8
MST_1_1
 62
   137
  6
CONTINUOUS
100
AcDbPolyline
 90
        9
 70
     0
 43
0.0
 10
-91.17886614
 20
-53.85871287
 10
-91.25131488
 20
-53.78626389
 10
-91.32383988
 20
-53.71373901
 10
-91.39643135
 20
-53.64114754
 10
-91.46907929
 20
-53.56849949
 10
-91.54177402
 20
-53.49580487
 10
-91.61450577
 20
-53.42307324
 10
-91.68726465
 20
-53.35031424
 10
-91.76004076
 20
-53.27753813
  0
LWPOLYLINE
  5
2E7
100
AcDbEntity
  8
MST_1_1
 62
   137
  6
CONTINUOUS
100
AcDbPolyline
 90
        9
 70
     0
 43
0.0
 10
-91.76004076
 20
-53.27753813
 10
-91.76433695
 20
-53.28183433
 10
-91.76863221
 20
-53.2861297
 10
-91.77292677
 20
-53.29042426
 10
-91.77722052
 20
-53.29471789
 10
-91.78151333
 20
-53.29901082
 10
-91.78580533
 20
-53.30330282
 10
-91.79009652
 20
-53.30759389
 10
-91.79438677
 20
-53.31188426
  0
LWPOLYLINE
  5
2E8
100
AcDbEntity
  8
MST_1_1
 62
   137
  6
CONTINUOUS
100
AcDbPolyline
 90
       25
 70
     0
 43
0.0
 10
-91.79438677
 20
-53.31188424
 10
-91.79797627
 20
-53.30635534
 10
-91.80166115
 20
-53.30089969
 10
-91.8054404
 20
-53.29551829
 10
-91.80931303
 20
-53.29021216
 10
-91.81327802
 20
-53.28498228
 10
-91.81733437
 20
-53.27982968
 10
-91.82148109
 20
-53.27475535
 10
-91.82571717
 20
-53.2697603
 10
-91.83004161
 20
-53.26484553
 10
-91.83445341
 20
-53.26001204
 10
-91.83895156
 20
-53.25526085
 10
-91.84353506
 20
-53.25059296
 10
-91.84820291
 20
-53.24600938
 10
-91.85295411
 20
-53.24151109
 10
-91.85778766
 20
-53.23709913
 10
-91.86270254
 20
-53.23277448
 10
-91.86769777
 20
-53.22853815
 10
-91.87277234
 20
-53.22439114
 10
-91.87792524
 20
-53.22033448
 10
-91.88315548
 20
-53.21636914
 10
-91.88846205
 20
-53.21249615
 10
-91.89384395
 20
-53.20871651
 10
-91.89930018
 20
-53.20503121
 10
-91.90482973
 20
-53.20144128
  0
LWPOLYLINE
  5
2E9
100
AcDbEntity
  8
MST_1_1
 62
   137
  6
CONTINUOUS
100
AcDbPolyline
 90
        9
 70
     0
 43
0.0
 10
-91.90482975
 20
-53.20144128
 10
-91.90053938
 20
-53.19715103
 10
-91.89624832
 20
-53.19285984
 10
-91.89195632
 20
-53.18856784
 10
-91.88766338
 20
-53.18427503
 10
-91.88336975
 20
-53.17998128
 10
-91.87907519
 20
-53.17568672
 10
-91.87477982
 20
-53.17139146
 10
-91.87048363
 20
-53.16709527
  0
LWPOLYLINE
  5
2EA
100
AcDbEntity
  8
MST_1_1
 62
   137
  6
CONTINUOUS
100
AcDbPolyline
 90
        9
 70
     0
 43
0.0
 10
-91.87048363
 20
-53.16709527
 10
-91.94325973
 20
-53.09431916
 10
-92.01601873
 20
-53.02156028
 10
-92.08875036
 20
-52.94882853
 10
-92.16144498
 20
-52.8761338
 10
-92.23409303
 20
-52.80348586
 10
-92.3066845
 20
-52.73089439
 10
-92.37920938
 20
-52.65836939
 10
-92.45165837
 20
-52.58592064
  0
LWPOLYLINE
  5
2EB
100
AcDbEntity
  8
MST_1_1
 62
   137
  6
CONTINUOUS
100
AcDbPolyline
 90
        9
 70
     0
 43
0.0
 10
-92.45165837
 20
-52.58592064
 10
-92.46379978
 20
-52.59806206
 10
-92.47593445
 20
-52.61019673
 10
-92.48806237
 20
-52.62232453
 10
-92.5001833
 20
-52.63444558
 10
-92.51229748
 20
-52.64655964
 10
-92.52440444
 20
-52.65866683
 10
-92.53650465
 20
-52.67076704
 10
-92.54859787
 20
-52.68286015
  0
ARC
  5
2EC
100
AcDbEntity
  8
MST_1_1
 62
   137
  6
CONTINUOUS
100
AcDbCircle
 10
-92.75147146
 20
-52.85179288
 30
0.0
 40
0.26399993
100
AcDbArc
 50
230.21587884
 51
39.78413117
  0
LWPOLYLINE
  5
2ED
100
AcDbEntity
  8
MST_1_1
 62
   137
  6
CONTINUOUS
100
AcDbPolyline
 90
        9
 70
     0
 43
0.0
 10
-92.92040419
 20
-53.05466647
 10
-92.93255353
 20
-53.06681581
 10
-92.94469378
 20
-53.07895606
 10
-92.95682496
 20
-53.09108724
 10
-92.96894705
 20
-53.10320933
 10
-92.98106007
 20
-53.11532235
 10
-92.99316377
 20
-53.12742616
 10
-93.00525839
 20
-53.13952079
 10
-93.0173437
 20
-53.15160598
  0
LWPOLYLINE
  5
2EE
100
AcDbEntity
  8
MST_1_1
 62
   137
  6
CONTINUOUS
100
AcDbPolyline
 90
        9
 70
     0
 43
0.0
 10
-93.0173437
 20
-53.15160598
 10
-92.94490752
 20
-53.22404238
 10
-92.87239009
 20
-53.2965597
 10
-92.79980211
 20
-53.36914756
 10
-92.72715406
 20
-53.44179561
 10
-92.65445642
 20
-53.51449349
 10
-92.58171919
 20
-53.58723048
 10
-92.50895333
 20
-53.65999634
 10
-92.43616907
 20
-53.7327806
  0
LWPOLYLINE
  5
2EF
100
AcDbEntity
  8
MST_1_1
 62
   137
  6
CONTINUOUS
100
AcDbPolyline
 90
        9
 70
     0
 43
0.0
 10
-92.43616907
 20
-53.7327806
 10
-92.43187987
 20
-53.72849139
 10
-92.4275895
 20
-53.72420102
 10
-92.42329796
 20
-53.71990949
 10
-92.41900526
 20
-53.71561679
 10
-92.4147114
 20
-53.71132293
 10
-92.41041637
 20
-53.70702813
 10
-92.40612042
 20
-53.70273194
 10
-92.40182306
 20
-53.69843459
  0
LWPOLYLINE
  5
2F0
100
AcDbEntity
  8
MST_1_1
 62
   137
  6
CONTINUOUS
100
AcDbPolyline
 90
       25
 70
     0
 43
0.0
 10
-92.40182304
 20
-53.69843459
 10
-92.39823385
 20
-53.70396297
 10
-92.39454919
 20
-53.70941822
 10
-92.39077006
 20
-53.71479933
 10
-92.38689749
 20
-53.72010527
 10
-92.38293248
 20
-53.72533503
 10
-92.37887605
 20
-53.7304876
 10
-92.3747292
 20
-53.73556197
 10
-92.37049296
 20
-53.74055711
 10
-92.36616832
 20
-53.74547202
 10
-92.3617563
 20
-53.75030568
 10
-92.35725792
 20
-53.75505708
 10
-92.35267419
 20
-53.75972519
 10
-92.34800611
 20
-53.76430902
 10
-92.3432547
 20
-53.76880753
 10
-92.33842098
 20
-53.77321973
 10
-92.33350595
 20
-53.77754458
 10
-92.32851062
 20
-53.78178109
 10
-92.32343601
 20
-53.78592822
 10
-92.31828313
 20
-53.78998498
 10
-92.31305299
 20
-53.79395034
 10
-92.3077466
 20
-53.7978233
 10
-92.30236498
 20
-53.80160282
 10
-92.29690914
 20
-53.80528791
 10
-92.29138008
 20
-53.80887755
  0
LWPOLYLINE
  5
2F1
100
AcDbEntity
  8
MST_1_1
 62
   137
  6
CONTINUOUS
100
AcDbPolyline
 90
        9
 70
     0
 43
0.0
 10
-92.29138008
 20
-53.80887757
 10
-92.29567743
 20
-53.81317493
 10
-92.29997362
 20
-53.81747088
 10
-92.30426842
 20
-53.82176591
 10
-92.30856228
 20
-53.82605977
 10
-92.31285498
 20
-53.83035247
 10
-92.31714651
 20
-53.83464401
 10
-92.32143688
 20
-53.83893438
 10
-92.32572609
 20
-53.84322358
  0
LWPOLYLINE
  5
2F2
100
AcDbEntity
  8
MST_1_1
 62
   137
  6
CONTINUOUS
100
AcDbPolyline
 90
        9
 70
     0
 43
0.0
 10
-92.32572609
 20
-53.84322358
 10
-92.25294183
 20
-53.91600784
 10
-92.18017597
 20
-53.9887737
 10
-92.10743898
 20
-54.06151093
 10
-92.0347411
 20
-54.13420857
 10
-91.96209305
 20
-54.20685662
 10
-91.88950519
 20
-54.2794446
 10
-91.81698787
 20
-54.35196203
 10
-91.74455147
 20
-54.42439821
  0
CIRCLE
  5
2F3
100
AcDbEntity
  8
MST_1_1
 62
   137
  6
CONTINUOUS
100
AcDbCircle
 10
-90.04749524
 20
-51.45454975
 30
0.0
 40
3.94143771
  0
LWPOLYLINE
  5
2F4
100
AcDbEntity
  8
MST_1_1
 62
   137
  6
CONTINUOUS
100
AcDbPolyline
 90
        9
 70
     0
 43
0.0
 10
-92.01949698
 20
-53.15384651
 10
-92.06713669
 20
-53.10620679
 10
-92.11476546
 20
-53.05857791
 10
-92.16238096
 20
-53.01096241
 10
-92.20998016
 20
-52.96336322
 10
-92.25756026
 20
-52.91578311
 10
-92.30511848
 20
-52.86822477
 10
-92.35265226
 20
-52.82069112
 10
-92.40015855
 20
-52.77318482
  0
ARC
  5
2F5
100
AcDbEntity
  8
MST_1_1
 62
   137
  6
CONTINUOUS
100
AcDbCircle
 10
-92.09810516
 20
-53.50515905
 30
0.0
 40
0.35999965
100
AcDbArc
 50
77.38749365
 51
127.33775307
  0
LWPOLYLINE
  5
2F6
100
AcDbEntity
  8
MST_1_1
 62
   137
  6
CONTINUOUS
100
AcDbPolyline
 90
        9
 70
     0
 43
0.0
 10
-91.81187817
 20
-53.72350393
 10
-91.87492662
 20
-53.66045549
 10
-91.93799473
 20
-53.59738725
 10
-92.00107589
 20
-53.53430598
 10
-92.06416368
 20
-53.47121819
 10
-92.12725147
 20
-53.4081304
 10
-92.19033274
 20
-53.34504924
 10
-92.25340098
 20
-53.28198112
 10
-92.31644942
 20
-53.21893268
  0
ARC
  5
2F7
100
AcDbEntity
  8
MST_1_1
 62
   137
  6
CONTINUOUS
100
AcDbCircle
 10
-92.09810527
 20
-53.50515951
 30
0.0
 40
0.36000032
100
AcDbArc
 50
322.66230677
 51
12.61245653
  0
LWPOLYLINE
  5
2F8
100
AcDbEntity
  8
MST_1_1
 62
   137
  6
CONTINUOUS
100
AcDbPolyline
 90
        9
 70
     0
 43
0.0
 10
-91.36613031
 20
-53.80721306
 10
-91.41363661
 20
-53.75970676
 10
-91.46117026
 20
-53.71217299
 10
-91.5087286
 20
-53.66461477
 10
-91.55630871
 20
-53.61703467
 10
-91.60390791
 20
-53.56943547
 10
-91.6515234
 20
-53.52181997
 10
-91.69915229
 20
-53.4741912
 10
-91.746792
 20
-53.42655149
  0
ARC
  5
2F9
100
AcDbEntity
  8
MST_1_1
 62
   137
  6
CONTINUOUS
100
AcDbCircle
 10
-91.44473807
 20
-54.15852619
 30
0.0
 40
0.36000013
100
AcDbArc
 50
77.38757789
 51
192.61246315
  0
LWPOLYLINE
  5
2FA
100
AcDbEntity
  8
MST_1_1
 62
   137
  6
CONTINUOUS
100
AcDbPolyline
 90
        9
 70
     0
 43
0.0
 10
-92.17671285
 20
-53.85647234
 10
-92.12907058
 20
-53.90411485
 10
-92.08143925
 20
-53.95174595
 10
-92.03382235
 20
-53.99936284
 10
-91.98622246
 20
-54.04696274
 10
-91.93864247
 20
-54.09454284
 10
-91.8910853
 20
-54.1420999
 10
-91.84355385
 20
-54.18963134
 10
-91.79605116
 20
-54.23713415
  0
ARC
  5
2FB
100
AcDbEntity
  8
MST_1_1
 62
   137
  6
CONTINUOUS
100
AcDbCircle
 10
-92.09810506
 20
-53.5051584
 30
0.0
 40
0.36000093
100
AcDbArc
 50
257.38761324
 51
307.3376629
  0
LWPOLYLINE
  5
2FC
100
AcDbEntity
  8
MST_1_1
 62
   137
  6
CONTINUOUS
100
AcDbPolyline
 90
        9
 70
     0
 43
0.0
 10
-92.38433166
 20
-53.28681504
 10
-92.32128322
 20
-53.34986325
 10
-92.25821522
 20
-53.41293137
 10
-92.19513394
 20
-53.47601264
 10
-92.13204592
 20
-53.53910043
 10
-92.06895813
 20
-53.60218845
 10
-92.00587686
 20
-53.66526972
 10
-91.94280874
 20
-53.72833772
 10
-91.87976053
 20
-53.79138617
  0
ARC
  5
2FD
100
AcDbEntity
  8
MST_1_1
 62
   137
  6
CONTINUOUS
100
AcDbCircle
 10
-92.0981049
 20
-53.50515935
 30
0.0
 40
0.36
100
AcDbArc
 50
142.66227791
 51
192.61247599
  0
LWPOLYLINE
  5
2FE
100
AcDbEntity
  8
MST_1_1
 62
   137
  6
CONTINUOUS
100
AcDbPolyline
 90
        9
 70
     0
 43
0.0
 10
-92.83007964
 20
-53.20310567
 10
-92.78257683
 20
-53.25060836
 10
-92.73504539
 20
-53.2981398
 10
-92.68748833
 20
-53.34569698
 10
-92.63990823
 20
-53.39327697
 10
-92.59230833
 20
-53.44087686
 10
-92.54469144
 20
-53.48849376
 10
-92.49706034
 20
-53.53612509
 10
-92.44941784
 20
-53.58376736
  0
ARC
  5
2FF
100
AcDbEntity
  8
MST_1_1
 62
   137
  6
CONTINUOUS
100
AcDbCircle
 10
-92.75147158
 20
-52.85179269
 30
0.0
 40
0.36000006
100
AcDbArc
 50
257.38753734
 51
12.61244165
  0
LWPOLYLINE
  5
300
100
AcDbEntity
  8
MST_1_1
 62
   137
  6
CONTINUOUS
100
AcDbPolyline
 90
        9
 70
     0
 43
0.0
 10
-92.20411911
 20
-53.26338063
 10
-92.16065242
 20
-53.30684732
 10
-92.11717945
 20
-53.35032029
 10
-92.07370205
 20
-53.39379769
 10
-92.03022256
 20
-53.43727707
 10
-91.98674318
 20
-53.48075656
 10
-91.94326579
 20
-53.52423396
 10
-91.89979281
 20
-53.56770693
 10
-91.85632613
 20
-53.61117362
  0
ARC
  5
301
100
AcDbEntity
  8
MST_1_1
 62
   137
  6
CONTINUOUS
100
AcDbCircle
 10
-92.09810486
 20
-53.50515937
 30
0.0
 40
0.26399996
100
AcDbArc
 50
336.32369791
 51
113.67631211
  0
LWPOLYLINE
  5
302
100
AcDbEntity
  8
MST_1_1
 62
   137
  6
CONTINUOUS
100
AcDbPolyline
 90
        9
 70
     0
 43
0.0
 10
-91.9920906
 20
-53.7469381
 10
-92.03555718
 20
-53.70347165
 10
-92.07903015
 20
-53.65999867
 10
-92.12250755
 20
-53.61652127
 10
-92.16598704
 20
-53.57304155
 10
-92.20946677
 20
-53.52956206
 10
-92.25294416
 20
-53.48608466
 10
-92.29641714
 20
-53.44261168
 10
-92.33988359
 20
-53.39914511
  0
ARC
  5
303
100
AcDbEntity
  8
MST_1_1
 62
   137
  6
CONTINUOUS
100
AcDbCircle
 10
-92.09810494
 20
-53.50515945
 30
0.0
 40
0.26399992
100
AcDbArc
 50
156.32366302
 51
293.676347
  0
CIRCLE
  5
304
100
AcDbEntity
  8
MST_1_1
 62
   137
  6
CONTINUOUS
100
AcDbCircle
 10
-90.04749524
 20
-81.45454975
 30
0.0
 40
2.32981333
  0
CIRCLE
  5
305
100
AcDbEntity
  8
MST_1_1
 62
   137
  6
CONTINUOUS
100
AcDbCircle
 10
-90.04749524
 20
-81.45454975
 30
0.0
 40
1.32203389
  0
CIRCLE
  5
306
100
AcDbEntity
  8
MST_1_1
 62
   137
  6
CONTINUOUS
100
AcDbCircle
 10
-90.04749524
 20
-81.45454975
 30
0.0
 40
2.32981333
  0
CIRCLE
  5
307
100
AcDbEntity
  8
MST_1_1
 62
   137
  6
CONTINUOUS
100
AcDbCircle
 10
-90.04749524
 20
-81.45454975
 30
0.0
 40
2.32981333
  0
CIRCLE
  5
308
100
AcDbEntity
  8
MST_1_1
 62
   137
  6
CONTINUOUS
100
AcDbCircle
 10
-90.04749524
 20
-81.45454975
 30
0.0
 40
4.5
  0
ARC
  5
309
100
AcDbEntity
  8
MST_1_1
 62
   137
  6
CONTINUOUS
100
AcDbCircle
 10
-91.92149519
 20
-81.45454975
 30
0.0
 40
0.37600003
100
AcDbArc
 50
106.48878485
 51
253.51122516
  0
ARC
  5
30A
100
AcDbEntity
  8
MST_1_1
 62
   137
  6
CONTINUOUS
100
AcDbCircle
 10
-92.30776598
 20
-82.7595177
 30
0.0
 40
0.98493585
100
AcDbArc
 50
346.4887751
 51
73.5112424
  0
ARC
  5
30B
100
AcDbEntity
  8
MST_1_1
 62
   137
  6
CONTINUOUS
100
AcDbCircle
 10
-90.98449517
 20
-83.0774813
 30
0.0
 40
0.37600004
100
AcDbArc
 50
166.48877314
 51
313.51122983
  0
ARC
  5
30C
100
AcDbEntity
  8
MST_1_1
 62
   137
  6
CONTINUOUS
100
AcDbCircle
 10
-90.04749524
 20
-84.06448542
 30
0.0
 40
0.98493568
100
AcDbArc
 50
46.48875513
 51
133.51124487
  0
ARC
  5
30D
100
AcDbEntity
  8
MST_1_1
 62
   137
  6
CONTINUOUS
100
AcDbCircle
 10
-89.11049528
 20
-83.07748134
 30
0.0
 40
0.37600002
100
AcDbArc
 50
226.48878273
 51
13.51123435
  0
ARC
  5
30E
100
AcDbEntity
  8
MST_1_1
 62
   137
  6
CONTINUOUS
100
AcDbCircle
 10
-87.78722446
 20
-82.75951772
 30
0.0
 40
0.98493588
100
AcDbArc
 50
106.48875933
 51
193.51124321
  0
ARC
  5
30F
100
AcDbEntity
  8
MST_1_1
 62
   137
  6
CONTINUOUS
100
AcDbCircle
 10
-88.17349529
 20
-81.45454975
 30
0.0
 40
0.37600003
100
AcDbArc
 50
286.48879487
 51
73.51121515
  0
ARC
  5
310
100
AcDbEntity
  8
MST_1_1
 62
   137
  6
CONTINUOUS
100
AcDbCircle
 10
-87.95033682
 20
-80.24375474
 30
0.0
 40
0.91385801
100
AcDbArc
 50
166.48876508
 51
253.51125242
  0
ARC
  5
311
100
AcDbEntity
  8
MST_1_1
 62
   137
  6
CONTINUOUS
100
AcDbCircle
 10
-89.1104953
 20
-79.8316182
 30
0.0
 40
0.37600004
100
AcDbArc
 50
346.48878316
 51
133.51121981
  0
ARC
  5
312
100
AcDbEntity
  8
MST_1_1
 62
   137
  6
CONTINUOUS
100
AcDbCircle
 10
-90.04749524
 20
-78.84461407
 30
0.0
 40
0.98493568
100
AcDbArc
 50
226.48876515
 51
313.51125489
  0
ARC
  5
313
100
AcDbEntity
  8
MST_1_1
 62
   137
  6
CONTINUOUS
100
AcDbCircle
 10
-90.9844952
 20
-79.83161815
 30
0.0
 40
0.37600002
100
AcDbArc
 50
46.48877271
 51
193.51124436
  0
ARC
  5
314
100
AcDbEntity
  8
MST_1_1
 62
   137
  6
CONTINUOUS
100
AcDbCircle
 10
-92.30776602
 20
-80.14958178
 30
0.0
 40
0.98493588
100
AcDbArc
 50
286.48876935
 51
13.51123319
  0
LWPOLYLINE
  5
315
100
AcDbEntity
  8
MST_1_1
 62
   137
  6
CONTINUOUS
100
AcDbPolyline
 90
        9
 70
     0
 43
0.0
 10
-91.74455147
 20
-84.42439821
 10
-91.73246628
 20
-84.4123129
 10
-91.72037166
 20
-84.40021828
 10
-91.70826784
 20
-84.38811458
 10
-91.69615482
 20
-84.37600156
 10
-91.68403273
 20
-84.36387947
 10
-91.67190155
 20
-84.35174829
 10
-91.6597613
 20
-84.33960804
 10
-91.64761196
 20
-84.3274587
  0
ARC
  5
316
100
AcDbEntity
  8
MST_1_1
 62
   137
  6
CONTINUOUS
100
AcDbCircle
 10
-91.44473825
 20
-84.15852609
 30
0.0
 40
0.26399994
100
AcDbArc
 50
50.21590624
 51
219.78410378
  0
LWPOLYLINE
  5
317
100
AcDbEntity
  8
MST_1_1
 62
   137
  6
CONTINUOUS
100
AcDbPolyline
 90
        9
 70
     0
 43
0.0
 10
-91.27580564
 20
-83.95565238
 10
-91.26371253
 20
-83.94355915
 10
-91.25161232
 20
-83.93145895
 10
-91.23950513
 20
-83.91935198
 10
-91.22739107
 20
-83.90723781
 10
-91.21527002
 20
-83.89511688
 10
-91.20314222
 20
-83.88298896
 10
-91.19100756
 20
-83.87085429
 10
-91.17886614
 20
-83.85871287
  0
LWPOLYLINE
  5
318
100
AcDbEntity
  8
MST_1_1
 62
   137
  6
CONTINUOUS
100
AcDbPolyline
 90
        9
 70
     0
 43
0.0
 10
-91.17886614
 20
-83.85871287
 10
-91.25131488
 20
-83.78626389
 10
-91.32383988
 20
-83.71373901
 10
-91.39643135
 20
-83.64114754
 10
-91.46907929
 20
-83.56849949
 10
-91.54177402
 20
-83.49580487
 10
-91.61450577
 20
-83.42307324
 10
-91.68726465
 20
-83.35031424
 10
-91.76004076
 20
-83.27753813
  0
LWPOLYLINE
  5
319
100
AcDbEntity
  8
MST_1_1
 62
   137
  6
CONTINUOUS
100
AcDbPolyline
 90
        9
 70
     0
 43
0.0
 10
-91.76004076
 20
-83.27753813
 10
-91.76433695
 20
-83.28183433
 10
-91.76863221
 20
-83.2861297
 10
-91.77292677
 20
-83.29042426
 10
-91.77722052
 20
-83.29471789
 10
-91.78151333
 20
-83.29901082
 10
-91.78580533
 20
-83.30330282
 10
-91.79009652
 20
-83.30759389
 10
-91.79438677
 20
-83.31188426
  0
LWPOLYLINE
  5
31A
100
AcDbEntity
  8
MST_1_1
 62
   137
  6
CONTINUOUS
100
AcDbPolyline
 90
       25
 70
     0
 43
0.0
 10
-91.79438677
 20
-83.31188424
 10
-91.79797627
 20
-83.30635534
 10
-91.80166115
 20
-83.30089969
 10
-91.8054404
 20
-83.29551829
 10
-91.80931303
 20
-83.29021216
 10
-91.81327802
 20
-83.28498228
 10
-91.81733437
 20
-83.27982968
 10
-91.82148109
 20
-83.27475535
 10
-91.82571717
 20
-83.2697603
 10
-91.83004161
 20
-83.26484553
 10
-91.83445341
 20
-83.26001204
 10
-91.83895156
 20
-83.25526085
 10
-91.84353506
 20
-83.25059296
 10
-91.84820291
 20
-83.24600938
 10
-91.85295411
 20
-83.24151109
 10
-91.85778766
 20
-83.23709913
 10
-91.86270254
 20
-83.23277448
 10
-91.86769777
 20
-83.22853815
 10
-91.87277234
 20
-83.22439114
 10
-91.87792524
 20
-83.22033448
 10
-91.88315548
 20
-83.21636914
 10
-91.88846205
 20
-83.21249615
 10
-91.89384395
 20
-83.20871651
 10
-91.89930018
 20
-83.20503121
 10
-91.90482973
 20
-83.20144128
  0
LWPOLYLINE
  5
31B
100
AcDbEntity
  8
MST_1_1
 62
   137
  6
CONTINUOUS
100
AcDbPolyline
 90
        9
 70
     0
 43
0.0
 10
-91.90482975
 20
-83.20144128
 10
-91.90053938
 20
-83.19715103
 10
-91.89624832
 20
-83.19285984
 10
-91.89195632
 20
-83.18856784
 10
-91.88766338
 20
-83.18427503
 10
-91.88336975
 20
-83.17998128
 10
-91.87907519
 20
-83.17568672
 10
-91.87477982
 20
-83.17139146
 10
-91.87048363
 20
-83.16709527
  0
LWPOLYLINE
  5
31C
100
AcDbEntity
  8
MST_1_1
 62
   137
  6
CONTINUOUS
100
AcDbPolyline
 90
        9
 70
     0
 43
0.0
 10
-91.87048363
 20
-83.16709527
 10
-91.94325973
 20
-83.09431916
 10
-92.01601873
 20
-83.02156028
 10
-92.08875036
 20
-82.94882853
 10
-92.16144498
 20
-82.8761338
 10
-92.23409303
 20
-82.80348586
 10
-92.3066845
 20
-82.73089439
 10
-92.37920938
 20
-82.65836939
 10
-92.45165837
 20
-82.58592064
  0
LWPOLYLINE
  5
31D
100
AcDbEntity
  8
MST_1_1
 62
   137
  6
CONTINUOUS
100
AcDbPolyline
 90
        9
 70
     0
 43
0.0
 10
-92.45165837
 20
-82.58592064
 10
-92.46379978
 20
-82.59806206
 10
-92.47593445
 20
-82.61019673
 10
-92.48806237
 20
-82.62232453
 10
-92.5001833
 20
-82.63444558
 10
-92.51229748
 20
-82.64655964
 10
-92.52440444
 20
-82.65866683
 10
-92.53650465
 20
-82.67076704
 10
-92.54859787
 20
-82.68286015
  0
ARC
  5
31E
100
AcDbEntity
  8
MST_1_1
 62
   137
  6
CONTINUOUS
100
AcDbCircle
 10
-92.75147146
 20
-82.85179288
 30
0.0
 40
0.26399993
100
AcDbArc
 50
230.21587884
 51
39.78413117
  0
LWPOLYLINE
  5
31F
100
AcDbEntity
  8
MST_1_1
 62
   137
  6
CONTINUOUS
100
AcDbPolyline
 90
        9
 70
     0
 43
0.0
 10
-92.92040419
 20
-83.05466647
 10
-92.93255353
 20
-83.06681581
 10
-92.94469378
 20
-83.07895606
 10
-92.95682496
 20
-83.09108724
 10
-92.96894705
 20
-83.10320933
 10
-92.98106007
 20
-83.11532235
 10
-92.99316377
 20
-83.12742616
 10
-93.00525839
 20
-83.13952079
 10
-93.0173437
 20
-83.15160598
  0
LWPOLYLINE
  5
320
100
AcDbEntity
  8
MST_1_1
 62
   137
  6
CONTINUOUS
100
AcDbPolyline
 90
        9
 70
     0
 43
0.0
 10
-93.0173437
 20
-83.15160598
 10
-92.94490752
 20
-83.22404238
 10
-92.87239009
 20
-83.2965597
 10
-92.79980211
 20
-83.36914756
 10
-92.72715406
 20
-83.44179561
 10
-92.65445642
 20
-83.51449349
 10
-92.58171919
 20
-83.58723048
 10
-92.50895333
 20
-83.65999634
 10
-92.43616907
 20
-83.7327806
  0
LWPOLYLINE
  5
321
100
AcDbEntity
  8
MST_1_1
 62
   137
  6
CONTINUOUS
100
AcDbPolyline
 90
        9
 70
     0
 43
0.0
 10
-92.43616907
 20
-83.7327806
 10
-92.43187987
 20
-83.72849139
 10
-92.4275895
 20
-83.72420102
 10
-92.42329796
 20
-83.71990949
 10
-92.41900526
 20
-83.71561679
 10
-92.4147114
 20
-83.71132293
 10
-92.41041637
 20
-83.70702813
 10
-92.40612042
 20
-83.70273194
 10
-92.40182306
 20
-83.69843459
  0
LWPOLYLINE
  5
322
100
AcDbEntity
  8
MST_1_1
 62
   137
  6
CONTINUOUS
100
AcDbPolyline
 90
       25
 70
     0
 43
0.0
 10
-92.40182304
 20
-83.69843459
 10
-92.39823385
 20
-83.70396297
 10
-92.39454919
 20
-83.70941822
 10
-92.39077006
 20
-83.71479933
 10
-92.38689749
 20
-83.72010527
 10
-92.38293248
 20
-83.72533503
 10
-92.37887605
 20
-83.7304876
 10
-92.3747292
 20
-83.73556197
 10
-92.37049296
 20
-83.74055711
 10
-92.36616832
 20
-83.74547202
 10
-92.3617563
 20
-83.75030568
 10
-92.35725792
 20
-83.75505708
 10
-92.35267419
 20
-83.75972519
 10
-92.34800611
 20
-83.76430902
 10
-92.3432547
 20
-83.76880753
 10
-92.33842098
 20
-83.77321973
 10
-92.33350595
 20
-83.77754458
 10
-92.32851062
 20
-83.78178109
 10
-92.32343601
 20
-83.78592822
 10
-92.31828313
 20
-83.78998498
 10
-92.31305299
 20
-83.79395034
 10
-92.3077466
 20
-83.7978233
 10
-92.30236498
 20
-83.80160282
 10
-92.29690914
 20
-83.80528791
 10
-92.29138008
 20
-83.80887755
  0
LWPOLYLINE
  5
323
100
AcDbEntity
  8
MST_1_1
 62
   137
  6
CONTINUOUS
100
AcDbPolyline
 90
        9
 70
     0
 43
0.0
 10
-92.29138008
 20
-83.80887757
 10
-92.29567743
 20
-83.81317493
 10
-92.29997362
 20
-83.81747088
 10
-92.30426842
 20
-83.82176591
 10
-92.30856228
 20
-83.82605977
 10
-92.31285498
 20
-83.83035247
 10
-92.31714651
 20
-83.83464401
 10
-92.32143688
 20
-83.83893438
 10
-92.32572609
 20
-83.84322358
  0
LWPOLYLINE
  5
324
100
AcDbEntity
  8
MST_1_1
 62
   137
  6
CONTINUOUS
100
AcDbPolyline
 90
        9
 70
     0
 43
0.0
 10
-92.32572609
 20
-83.84322358
 10
-92.25294183
 20
-83.91600784
 10
-92.18017597
 20
-83.9887737
 10
-92.10743898
 20
-84.06151093
 10
-92.0347411
 20
-84.13420857
 10
-91.96209305
 20
-84.20685662
 10
-91.88950519
 20
-84.2794446
 10
-91.81698787
 20
-84.35196203
 10
-91.74455147
 20
-84.42439821
  0
CIRCLE
  5
325
100
AcDbEntity
  8
MST_1_1
 62
   137
  6
CONTINUOUS
100
AcDbCircle
 10
-90.04749524
 20
-81.45454975
 30
0.0
 40
3.94143771
  0
LWPOLYLINE
  5
326
100
AcDbEntity
  8
MST_1_1
 62
   137
  6
CONTINUOUS
100
AcDbPolyline
 90
        9
 70
     0
 43
0.0
 10
-92.01949698
 20
-83.15384651
 10
-92.06713669
 20
-83.10620679
 10
-92.11476546
 20
-83.05857791
 10
-92.16238096
 20
-83.01096241
 10
-92.20998016
 20
-82.96336322
 10
-92.25756026
 20
-82.91578311
 10
-92.30511848
 20
-82.86822477
 10
-92.35265226
 20
-82.82069112
 10
-92.40015855
 20
-82.77318482
  0
ARC
  5
327
100
AcDbEntity
  8
MST_1_1
 62
   137
  6
CONTINUOUS
100
AcDbCircle
 10
-92.09810516
 20
-83.50515905
 30
0.0
 40
0.35999965
100
AcDbArc
 50
77.38749365
 51
127.33775307
  0
LWPOLYLINE
  5
328
100
AcDbEntity
  8
MST_1_1
 62
   137
  6
CONTINUOUS
100
AcDbPolyline
 90
        9
 70
     0
 43
0.0
 10
-91.81187817
 20
-83.72350393
 10
-91.87492662
 20
-83.66045549
 10
-91.93799473
 20
-83.59738725
 10
-92.00107589
 20
-83.53430598
 10
-92.06416368
 20
-83.47121819
 10
-92.12725147
 20
-83.4081304
 10
-92.19033274
 20
-83.34504924
 10
-92.25340098
 20
-83.28198112
 10
-92.31644942
 20
-83.21893268
  0
ARC
  5
329
100
AcDbEntity
  8
MST_1_1
 62
   137
  6
CONTINUOUS
100
AcDbCircle
 10
-92.09810527
 20
-83.50515951
 30
0.0
 40
0.36000032
100
AcDbArc
 50
322.66230677
 51
12.61245653
  0
LWPOLYLINE
  5
32A
100
AcDbEntity
  8
MST_1_1
 62
   137
  6
CONTINUOUS
100
AcDbPolyline
 90
        9
 70
     0
 43
0.0
 10
-91.36613031
 20
-83.80721306
 10
-91.41363661
 20
-83.75970676
 10
-91.46117026
 20
-83.71217299
 10
-91.5087286
 20
-83.66461477
 10
-91.55630871
 20
-83.61703467
 10
-91.60390791
 20
-83.56943547
 10
-91.6515234
 20
-83.52181997
 10
-91.69915229
 20
-83.4741912
 10
-91.746792
 20
-83.42655149
  0
ARC
  5
32B
100
AcDbEntity
  8
MST_1_1
 62
   137
  6
CONTINUOUS
100
AcDbCircle
 10
-91.44473807
 20
-84.15852619
 30
0.0
 40
0.36000013
100
AcDbArc
 50
77.38757789
 51
192.61246315
  0
LWPOLYLINE
  5
32C
100
AcDbEntity
  8
MST_1_1
 62
   137
  6
CONTINUOUS
100
AcDbPolyline
 90
        9
 70
     0
 43
0.0
 10
-92.17671285
 20
-83.85647234
 10
-92.12907058
 20
-83.90411485
 10
-92.08143925
 20
-83.95174595
 10
-92.03382235
 20
-83.99936284
 10
-91.98622246
 20
-84.04696274
 10
-91.93864247
 20
-84.09454284
 10
-91.8910853
 20
-84.1420999
 10
-91.84355385
 20
-84.18963134
 10
-91.79605116
 20
-84.23713415
  0
ARC
  5
32D
100
AcDbEntity
  8
MST_1_1
 62
   137
  6
CONTINUOUS
100
AcDbCircle
 10
-92.09810506
 20
-83.5051584
 30
0.0
 40
0.36000093
100
AcDbArc
 50
257.38761324
 51
307.3376629
  0
LWPOLYLINE
  5
32E
100
AcDbEntity
  8
MST_1_1
 62
   137
  6
CONTINUOUS
100
AcDbPolyline
 90
        9
 70
     0
 43
0.0
 10
-92.38433166
 20
-83.28681504
 10
-92.32128322
 20
-83.34986325
 10
-92.25821522
 20
-83.41293137
 10
-92.19513394
 20
-83.47601264
 10
-92.13204592
 20
-83.53910043
 10
-92.06895813
 20
-83.60218845
 10
-92.00587686
 20
-83.66526972
 10
-91.94280874
 20
-83.72833772
 10
-91.87976053
 20
-83.79138617
  0
ARC
  5
32F
100
AcDbEntity
  8
MST_1_1
 62
   137
  6
CONTINUOUS
100
AcDbCircle
 10
-92.0981049
 20
-83.50515935
 30
0.0
 40
0.36
100
AcDbArc
 50
142.66227791
 51
192.61247599
  0
LWPOLYLINE
  5
330
100
AcDbEntity
  8
MST_1_1
 62
   137
  6
CONTINUOUS
100
AcDbPolyline
 90
        9
 70
     0
 43
0.0
 10
-92.83007964
 20
-83.20310567
 10
-92.78257683
 20
-83.25060836
 10
-92.73504539
 20
-83.2981398
 10
-92.68748833
 20
-83.34569698
 10
-92.63990823
 20
-83.39327697
 10
-92.59230833
 20
-83.44087686
 10
-92.54469144
 20
-83.48849376
 10
-92.49706034
 20
-83.53612509
 10
-92.44941784
 20
-83.58376736
  0
ARC
  5
331
100
AcDbEntity
  8
MST_1_1
 62
   137
  6
CONTINUOUS
100
AcDbCircle
 10
-92.75147158
 20
-82.85179269
 30
0.0
 40
0.36000006
100
AcDbArc
 50
257.38753734
 51
12.61244165
  0
LWPOLYLINE
  5
332
100
AcDbEntity
  8
MST_1_1
 62
   137
  6
CONTINUOUS
100
AcDbPolyline
 90
        9
 70
     0
 43
0.0
 10
-92.20411911
 20
-83.26338063
 10
-92.16065242
 20
-83.30684732
 10
-92.11717945
 20
-83.35032029
 10
-92.07370205
 20
-83.39379769
 10
-92.03022256
 20
-83.43727707
 10
-91.98674318
 20
-83.48075656
 10
-91.94326579
 20
-83.52423396
 10
-91.89979281
 20
-83.56770693
 10
-91.85632613
 20
-83.61117362
  0
ARC
  5
333
100
AcDbEntity
  8
MST_1_1
 62
   137
  6
CONTINUOUS
100
AcDbCircle
 10
-92.09810486
 20
-83.50515937
 30
0.0
 40
0.26399996
100
AcDbArc
 50
336.32369791
 51
113.67631211
  0
LWPOLYLINE
  5
334
100
AcDbEntity
  8
MST_1_1
 62
   137
  6
CONTINUOUS
100
AcDbPolyline
 90
        9
 70
     0
 43
0.0
 10
-91.9920906
 20
-83.7469381
 10
-92.03555718
 20
-83.70347165
 10
-92.07903015
 20
-83.65999867
 10
-92.12250755
 20
-83.61652127
 10
-92.16598704
 20
-83.57304155
 10
-92.20946677
 20
-83.52956206
 10
-92.25294416
 20
-83.48608466
 10
-92.29641714
 20
-83.44261168
 10
-92.33988359
 20
-83.39914511
  0
ARC
  5
335
100
AcDbEntity
  8
MST_1_1
 62
   137
  6
CONTINUOUS
100
AcDbCircle
 10
-92.09810494
 20
-83.50515945
 30
0.0
 40
0.26399992
100
AcDbArc
 50
156.32366302
 51
293.676347
  0
CIRCLE
  5
336
100
AcDbEntity
  8
MST_1_1
 62
   137
  6
CONTINUOUS
100
AcDbCircle
 10
-90.04749524
 20
-111.45454975
 30
0.0
 40
2.32981333
  0
CIRCLE
  5
337
100
AcDbEntity
  8
MST_1_1
 62
   137
  6
CONTINUOUS
100
AcDbCircle
 10
-90.04749524
 20
-111.45454975
 30
0.0
 40
1.32203389
  0
CIRCLE
  5
338
100
AcDbEntity
  8
MST_1_1
 62
   137
  6
CONTINUOUS
100
AcDbCircle
 10
-90.04749524
 20
-111.45454975
 30
0.0
 40
2.32981333
  0
CIRCLE
  5
339
100
AcDbEntity
  8
MST_1_1
 62
   137
  6
CONTINUOUS
100
AcDbCircle
 10
-90.04749524
 20
-111.45454975
 30
0.0
 40
2.32981333
  0
CIRCLE
  5
33A
100
AcDbEntity
  8
MST_1_1
 62
   137
  6
CONTINUOUS
100
AcDbCircle
 10
-90.04749524
 20
-111.45454975
 30
0.0
 40
4.5
  0
ARC
  5
33B
100
AcDbEntity
  8
MST_1_1
 62
   137
  6
CONTINUOUS
100
AcDbCircle
 10
-91.92149519
 20
-111.45454975
 30
0.0
 40
0.37600003
100
AcDbArc
 50
106.48878485
 51
253.51122516
  0
ARC
  5
33C
100
AcDbEntity
  8
MST_1_1
 62
   137
  6
CONTINUOUS
100
AcDbCircle
 10
-92.30776598
 20
-112.7595177
 30
0.0
 40
0.98493585
100
AcDbArc
 50
346.4887751
 51
73.5112424
  0
ARC
  5
33D
100
AcDbEntity
  8
MST_1_1
 62
   137
  6
CONTINUOUS
100
AcDbCircle
 10
-90.98449517
 20
-113.0774813
 30
0.0
 40
0.37600004
100
AcDbArc
 50
166.48877314
 51
313.51122983
  0
ARC
  5
33E
100
AcDbEntity
  8
MST_1_1
 62
   137
  6
CONTINUOUS
100
AcDbCircle
 10
-90.04749524
 20
-114.06448542
 30
0.0
 40
0.98493568
100
AcDbArc
 50
46.48875513
 51
133.51124487
  0
ARC
  5
33F
100
AcDbEntity
  8
MST_1_1
 62
   137
  6
CONTINUOUS
100
AcDbCircle
 10
-89.11049528
 20
-113.07748134
 30
0.0
 40
0.37600002
100
AcDbArc
 50
226.48878273
 51
13.51123435
  0
ARC
  5
340
100
AcDbEntity
  8
MST_1_1
 62
   137
  6
CONTINUOUS
100
AcDbCircle
 10
-87.78722446
 20
-112.75951772
 30
0.0
 40
0.98493588
100
AcDbArc
 50
106.48875933
 51
193.51124321
  0
ARC
  5
341
100
AcDbEntity
  8
MST_1_1
 62
   137
  6
CONTINUOUS
100
AcDbCircle
 10
-88.17349529
 20
-111.45454975
 30
0.0
 40
0.37600003
100
AcDbArc
 50
286.48879487
 51
73.51121515
  0
ARC
  5
342
100
AcDbEntity
  8
MST_1_1
 62
   137
  6
CONTINUOUS
100
AcDbCircle
 10
-87.95033682
 20
-110.24375474
 30
0.0
 40
0.91385801
100
AcDbArc
 50
166.48876508
 51
253.51125242
  0
ARC
  5
343
100
AcDbEntity
  8
MST_1_1
 62
   137
  6
CONTINUOUS
100
AcDbCircle
 10
-89.1104953
 20
-109.8316182
 30
0.0
 40
0.37600004
100
AcDbArc
 50
346.48878316
 51
133.51121981
  0
ARC
  5
344
100
AcDbEntity
  8
MST_1_1
 62
   137
  6
CONTINUOUS
100
AcDbCircle
 10
-90.04749524
 20
-108.84461407
 30
0.0
 40
0.98493568
100
AcDbArc
 50
226.48876515
 51
313.51125489
  0
ARC
  5
345
100
AcDbEntity
  8
MST_1_1
 62
   137
  6
CONTINUOUS
100
AcDbCircle
 10
-90.9844952
 20
-109.83161815
 30
0.0
 40
0.37600002
100
AcDbArc
 50
46.48877271
 51
193.51124436
  0
ARC
  5
346
100
AcDbEntity
  8
MST_1_1
 62
   137
  6
CONTINUOUS
100
AcDbCircle
 10
-92.30776602
 20
-110.14958178
 30
0.0
 40
0.98493588
100
AcDbArc
 50
286.48876935
 51
13.51123319
  0
LWPOLYLINE
  5
347
100
AcDbEntity
  8
MST_1_1
 62
   137
  6
CONTINUOUS
100
AcDbPolyline
 90
        9
 70
     0
 43
0.0
 10
-91.74455147
 20
-114.42439821
 10
-91.73246628
 20
-114.4123129
 10
-91.72037166
 20
-114.40021828
 10
-91.70826784
 20
-114.38811458
 10
-91.69615482
 20
-114.37600156
 10
-91.68403273
 20
-114.36387947
 10
-91.67190155
 20
-114.35174829
 10
-91.6597613
 20
-114.33960804
 10
-91.64761196
 20
-114.3274587
  0
ARC
  5
348
100
AcDbEntity
  8
MST_1_1
 62
   137
  6
CONTINUOUS
100
AcDbCircle
 10
-91.44473825
 20
-114.15852609
 30
0.0
 40
0.26399994
100
AcDbArc
 50
50.21590624
 51
219.78410378
  0
LWPOLYLINE
  5
349
100
AcDbEntity
  8
MST_1_1
 62
   137
  6
CONTINUOUS
100
AcDbPolyline
 90
        9
 70
     0
 43
0.0
 10
-91.27580564
 20
-113.95565238
 10
-91.26371253
 20
-113.94355915
 10
-91.25161232
 20
-113.93145895
 10
-91.23950513
 20
-113.91935198
 10
-91.22739107
 20
-113.90723781
 10
-91.21527002
 20
-113.89511688
 10
-91.20314222
 20
-113.88298896
 10
-91.19100756
 20
-113.87085429
 10
-91.17886614
 20
-113.85871287
  0
LWPOLYLINE
  5
34A
100
AcDbEntity
  8
MST_1_1
 62
   137
  6
CONTINUOUS
100
AcDbPolyline
 90
        9
 70
     0
 43
0.0
 10
-91.17886614
 20
-113.85871287
 10
-91.25131488
 20
-113.78626389
 10
-91.32383988
 20
-113.71373901
 10
-91.39643135
 20
-113.64114754
 10
-91.46907929
 20
-113.56849949
 10
-91.54177402
 20
-113.49580487
 10
-91.61450577
 20
-113.42307324
 10
-91.68726465
 20
-113.35031424
 10
-91.76004076
 20
-113.27753813
  0
LWPOLYLINE
  5
34B
100
AcDbEntity
  8
MST_1_1
 62
   137
  6
CONTINUOUS
100
AcDbPolyline
 90
        9
 70
     0
 43
0.0
 10
-91.76004076
 20
-113.27753813
 10
-91.76433695
 20
-113.28183433
 10
-91.76863221
 20
-113.2861297
 10
-91.77292677
 20
-113.29042426
 10
-91.77722052
 20
-113.29471789
 10
-91.78151333
 20
-113.29901082
 10
-91.78580533
 20
-113.30330282
 10
-91.79009652
 20
-113.30759389
 10
-91.79438677
 20
-113.31188426
  0
LWPOLYLINE
  5
34C
100
AcDbEntity
  8
MST_1_1
 62
   137
  6
CONTINUOUS
100
AcDbPolyline
 90
       25
 70
     0
 43
0.0
 10
-91.79438677
 20
-113.31188424
 10
-91.79797627
 20
-113.30635534
 10
-91.80166115
 20
-113.30089969
 10
-91.8054404
 20
-113.29551829
 10
-91.80931303
 20
-113.29021216
 10
-91.81327802
 20
-113.28498228
 10
-91.81733437
 20
-113.27982968
 10
-91.82148109
 20
-113.27475535
 10
-91.82571717
 20
-113.2697603
 10
-91.83004161
 20
-113.26484553
 10
-91.83445341
 20
-113.26001204
 10
-91.83895156
 20
-113.25526085
 10
-91.84353506
 20
-113.25059296
 10
-91.84820291
 20
-113.24600938
 10
-91.85295411
 20
-113.24151109
 10
-91.85778766
 20
-113.23709913
 10
-91.86270254
 20
-113.23277448
 10
-91.86769777
 20
-113.22853815
 10
-91.87277234
 20
-113.22439114
 10
-91.87792524
 20
-113.22033448
 10
-91.88315548
 20
-113.21636914
 10
-91.88846205
 20
-113.21249615
 10
-91.89384395
 20
-113.20871651
 10
-91.89930018
 20
-113.20503121
 10
-91.90482973
 20
-113.20144128
  0
LWPOLYLINE
  5
34D
100
AcDbEntity
  8
MST_1_1
 62
   137
  6
CONTINUOUS
100
AcDbPolyline
 90
        9
 70
     0
 43
0.0
 10
-91.90482975
 20
-113.20144128
 10
-91.90053938
 20
-113.19715103
 10
-91.89624832
 20
-113.19285984
 10
-91.89195632
 20
-113.18856784
 10
-91.88766338
 20
-113.18427503
 10
-91.88336975
 20
-113.17998128
 10
-91.87907519
 20
-113.17568672
 10
-91.87477982
 20
-113.17139146
 10
-91.87048363
 20
-113.16709527
  0
LWPOLYLINE
  5
34E
100
AcDbEntity
  8
MST_1_1
 62
   137
  6
CONTINUOUS
100
AcDbPolyline
 90
        9
 70
     0
 43
0.0
 10
-91.87048363
 20
-113.16709527
 10
-91.94325973
 20
-113.09431916
 10
-92.01601873
 20
-113.02156028
 10
-92.08875036
 20
-112.94882853
 10
-92.16144498
 20
-112.8761338
 10
-92.23409303
 20
-112.80348586
 10
-92.3066845
 20
-112.73089439
 10
-92.37920938
 20
-112.65836939
 10
-92.45165837
 20
-112.58592064
  0
LWPOLYLINE
  5
34F
100
AcDbEntity
  8
MST_1_1
 62
   137
  6
CONTINUOUS
100
AcDbPolyline
 90
        9
 70
     0
 43
0.0
 10
-92.45165837
 20
-112.58592064
 10
-92.46379978
 20
-112.59806206
 10
-92.47593445
 20
-112.61019673
 10
-92.48806237
 20
-112.62232453
 10
-92.5001833
 20
-112.63444558
 10
-92.51229748
 20
-112.64655964
 10
-92.52440444
 20
-112.65866683
 10
-92.53650465
 20
-112.67076704
 10
-92.54859787
 20
-112.68286015
  0
ARC
  5
350
100
AcDbEntity
  8
MST_1_1
 62
   137
  6
CONTINUOUS
100
AcDbCircle
 10
-92.75147146
 20
-112.85179288
 30
0.0
 40
0.26399993
100
AcDbArc
 50
230.21587884
 51
39.78413117
  0
LWPOLYLINE
  5
351
100
AcDbEntity
  8
MST_1_1
 62
   137
  6
CONTINUOUS
100
AcDbPolyline
 90
        9
 70
     0
 43
0.0
 10
-92.92040419
 20
-113.05466647
 10
-92.93255353
 20
-113.06681581
 10
-92.94469378
 20
-113.07895606
 10
-92.95682496
 20
-113.09108724
 10
-92.96894705
 20
-113.10320933
 10
-92.98106007
 20
-113.11532235
 10
-92.99316377
 20
-113.12742616
 10
-93.00525839
 20
-113.13952079
 10
-93.0173437
 20
-113.15160598
  0
LWPOLYLINE
  5
352
100
AcDbEntity
  8
MST_1_1
 62
   137
  6
CONTINUOUS
100
AcDbPolyline
 90
        9
 70
     0
 43
0.0
 10
-93.0173437
 20
-113.15160598
 10
-92.94490752
 20
-113.22404238
 10
-92.87239009
 20
-113.2965597
 10
-92.79980211
 20
-113.36914756
 10
-92.72715406
 20
-113.44179561
 10
-92.65445642
 20
-113.51449349
 10
-92.58171919
 20
-113.58723048
 10
-92.50895333
 20
-113.65999634
 10
-92.43616907
 20
-113.7327806
  0
LWPOLYLINE
  5
353
100
AcDbEntity
  8
MST_1_1
 62
   137
  6
CONTINUOUS
100
AcDbPolyline
 90
        9
 70
     0
 43
0.0
 10
-92.43616907
 20
-113.7327806
 10
-92.43187987
 20
-113.72849139
 10
-92.4275895
 20
-113.72420102
 10
-92.42329796
 20
-113.71990949
 10
-92.41900526
 20
-113.71561679
 10
-92.4147114
 20
-113.71132293
 10
-92.41041637
 20
-113.70702813
 10
-92.40612042
 20
-113.70273194
 10
-92.40182306
 20
-113.69843459
  0
LWPOLYLINE
  5
354
100
AcDbEntity
  8
MST_1_1
 62
   137
  6
CONTINUOUS
100
AcDbPolyline
 90
       25
 70
     0
 43
0.0
 10
-92.40182304
 20
-113.69843459
 10
-92.39823385
 20
-113.70396297
 10
-92.39454919
 20
-113.70941822
 10
-92.39077006
 20
-113.71479933
 10
-92.38689749
 20
-113.72010527
 10
-92.38293248
 20
-113.72533503
 10
-92.37887605
 20
-113.7304876
 10
-92.3747292
 20
-113.73556197
 10
-92.37049296
 20
-113.74055711
 10
-92.36616832
 20
-113.74547202
 10
-92.3617563
 20
-113.75030568
 10
-92.35725792
 20
-113.75505708
 10
-92.35267419
 20
-113.75972519
 10
-92.34800611
 20
-113.76430902
 10
-92.3432547
 20
-113.76880753
 10
-92.33842098
 20
-113.77321973
 10
-92.33350595
 20
-113.77754458
 10
-92.32851062
 20
-113.78178109
 10
-92.32343601
 20
-113.78592822
 10
-92.31828313
 20
-113.78998498
 10
-92.31305299
 20
-113.79395034
 10
-92.3077466
 20
-113.7978233
 10
-92.30236498
 20
-113.80160282
 10
-92.29690914
 20
-113.80528791
 10
-92.29138008
 20
-113.80887755
  0
LWPOLYLINE
  5
355
100
AcDbEntity
  8
MST_1_1
 62
   137
  6
CONTINUOUS
100
AcDbPolyline
 90
        9
 70
     0
 43
0.0
 10
-92.29138008
 20
-113.80887757
 10
-92.29567743
 20
-113.81317493
 10
-92.29997362
 20
-113.81747088
 10
-92.30426842
 20
-113.82176591
 10
-92.30856228
 20
-113.82605977
 10
-92.31285498
 20
-113.83035247
 10
-92.31714651
 20
-113.83464401
 10
-92.32143688
 20
-113.83893438
 10
-92.32572609
 20
-113.84322358
  0
LWPOLYLINE
  5
356
100
AcDbEntity
  8
MST_1_1
 62
   137
  6
CONTINUOUS
100
AcDbPolyline
 90
        9
 70
     0
 43
0.0
 10
-92.32572609
 20
-113.84322358
 10
-92.25294183
 20
-113.91600784
 10
-92.18017597
 20
-113.9887737
 10
-92.10743898
 20
-114.06151093
 10
-92.0347411
 20
-114.13420857
 10
-91.96209305
 20
-114.20685662
 10
-91.88950519
 20
-114.2794446
 10
-91.81698787
 20
-114.35196203
 10
-91.74455147
 20
-114.42439821
  0
CIRCLE
  5
357
100
AcDbEntity
  8
MST_1_1
 62
   137
  6
CONTINUOUS
100
AcDbCircle
 10
-90.04749524
 20
-111.45454975
 30
0.0
 40
3.94143771
  0
LWPOLYLINE
  5
358
100
AcDbEntity
  8
MST_1_1
 62
   137
  6
CONTINUOUS
100
AcDbPolyline
 90
        9
 70
     0
 43
0.0
 10
-92.01949698
 20
-113.15384651
 10
-92.06713669
 20
-113.10620679
 10
-92.11476546
 20
-113.05857791
 10
-92.16238096
 20
-113.01096241
 10
-92.20998016
 20
-112.96336322
 10
-92.25756026
 20
-112.91578311
 10
-92.30511848
 20
-112.86822477
 10
-92.35265226
 20
-112.82069112
 10
-92.40015855
 20
-112.77318482
  0
ARC
  5
359
100
AcDbEntity
  8
MST_1_1
 62
   137
  6
CONTINUOUS
100
AcDbCircle
 10
-92.09810516
 20
-113.50515905
 30
0.0
 40
0.35999965
100
AcDbArc
 50
77.38749365
 51
127.33775307
  0
LWPOLYLINE
  5
35A
100
AcDbEntity
  8
MST_1_1
 62
   137
  6
CONTINUOUS
100
AcDbPolyline
 90
        9
 70
     0
 43
0.0
 10
-91.81187817
 20
-113.72350393
 10
-91.87492662
 20
-113.66045549
 10
-91.93799473
 20
-113.59738725
 10
-92.00107589
 20
-113.53430598
 10
-92.06416368
 20
-113.47121819
 10
-92.12725147
 20
-113.4081304
 10
-92.19033274
 20
-113.34504924
 10
-92.25340098
 20
-113.28198112
 10
-92.31644942
 20
-113.21893268
  0
ARC
  5
35B
100
AcDbEntity
  8
MST_1_1
 62
   137
  6
CONTINUOUS
100
AcDbCircle
 10
-92.09810527
 20
-113.50515951
 30
0.0
 40
0.36000032
100
AcDbArc
 50
322.66230677
 51
12.61245653
  0
LWPOLYLINE
  5
35C
100
AcDbEntity
  8
MST_1_1
 62
   137
  6
CONTINUOUS
100
AcDbPolyline
 90
        9
 70
     0
 43
0.0
 10
-91.36613031
 20
-113.80721306
 10
-91.41363661
 20
-113.75970676
 10
-91.46117026
 20
-113.71217299
 10
-91.5087286
 20
-113.66461477
 10
-91.55630871
 20
-113.61703467
 10
-91.60390791
 20
-113.56943547
 10
-91.6515234
 20
-113.52181997
 10
-91.69915229
 20
-113.4741912
 10
-91.746792
 20
-113.42655149
  0
ARC
  5
35D
100
AcDbEntity
  8
MST_1_1
 62
   137
  6
CONTINUOUS
100
AcDbCircle
 10
-91.44473807
 20
-114.15852619
 30
0.0
 40
0.36000013
100
AcDbArc
 50
77.38757789
 51
192.61246315
  0
LWPOLYLINE
  5
35E
100
AcDbEntity
  8
MST_1_1
 62
   137
  6
CONTINUOUS
100
AcDbPolyline
 90
        9
 70
     0
 43
0.0
 10
-92.17671285
 20
-113.85647234
 10
-92.12907058
 20
-113.90411485
 10
-92.08143925
 20
-113.95174595
 10
-92.03382235
 20
-113.99936284
 10
-91.98622246
 20
-114.04696274
 10
-91.93864247
 20
-114.09454284
 10
-91.8910853
 20
-114.1420999
 10
-91.84355385
 20
-114.18963134
 10
-91.79605116
 20
-114.23713415
  0
ARC
  5
35F
100
AcDbEntity
  8
MST_1_1
 62
   137
  6
CONTINUOUS
100
AcDbCircle
 10
-92.09810506
 20
-113.5051584
 30
0.0
 40
0.36000093
100
AcDbArc
 50
257.38761324
 51
307.3376629
  0
LWPOLYLINE
  5
360
100
AcDbEntity
  8
MST_1_1
 62
   137
  6
CONTINUOUS
100
AcDbPolyline
 90
        9
 70
     0
 43
0.0
 10
-92.38433166
 20
-113.28681504
 10
-92.32128322
 20
-113.34986325
 10
-92.25821522
 20
-113.41293137
 10
-92.19513394
 20
-113.47601264
 10
-92.13204592
 20
-113.53910043
 10
-92.06895813
 20
-113.60218845
 10
-92.00587686
 20
-113.66526972
 10
-91.94280874
 20
-113.72833772
 10
-91.87976053
 20
-113.79138617
  0
ARC
  5
361
100
AcDbEntity
  8
MST_1_1
 62
   137
  6
CONTINUOUS
100
AcDbCircle
 10
-92.0981049
 20
-113.50515935
 30
0.0
 40
0.36
100
AcDbArc
 50
142.66227791
 51
192.61247599
  0
LWPOLYLINE
  5
362
100
AcDbEntity
  8
MST_1_1
 62
   137
  6
CONTINUOUS
100
AcDbPolyline
 90
        9
 70
     0
 43
0.0
 10
-92.83007964
 20
-113.20310567
 10
-92.78257683
 20
-113.25060836
 10
-92.73504539
 20
-113.2981398
 10
-92.68748833
 20
-113.34569698
 10
-92.63990823
 20
-113.39327697
 10
-92.59230833
 20
-113.44087686
 10
-92.54469144
 20
-113.48849376
 10
-92.49706034
 20
-113.53612509
 10
-92.44941784
 20
-113.58376736
  0
ARC
  5
363
100
AcDbEntity
  8
MST_1_1
 62
   137
  6
CONTINUOUS
100
AcDbCircle
 10
-92.75147158
 20
-112.85179269
 30
0.0
 40
0.36000006
100
AcDbArc
 50
257.38753734
 51
12.61244165
  0
LWPOLYLINE
  5
364
100
AcDbEntity
  8
MST_1_1
 62
   137
  6
CONTINUOUS
100
AcDbPolyline
 90
        9
 70
     0
 43
0.0
 10
-92.20411911
 20
-113.26338063
 10
-92.16065242
 20
-113.30684732
 10
-92.11717945
 20
-113.35032029
 10
-92.07370205
 20
-113.39379769
 10
-92.03022256
 20
-113.43727707
 10
-91.98674318
 20
-113.48075656
 10
-91.94326579
 20
-113.52423396
 10
-91.89979281
 20
-113.56770693
 10
-91.85632613
 20
-113.61117362
  0
ARC
  5
365
100
AcDbEntity
  8
MST_1_1
 62
   137
  6
CONTINUOUS
100
AcDbCircle
 10
-92.09810486
 20
-113.50515937
 30
0.0
 40
0.26399996
100
AcDbArc
 50
336.32369791
 51
113.67631211
  0
LWPOLYLINE
  5
366
100
AcDbEntity
  8
MST_1_1
 62
   137
  6
CONTINUOUS
100
AcDbPolyline
 90
        9
 70
     0
 43
0.0
 10
-91.9920906
 20
-113.7469381
 10
-92.03555718
 20
-113.70347165
 10
-92.07903015
 20
-113.65999867
 10
-92.12250755
 20
-113.61652127
 10
-92.16598704
 20
-113.57304155
 10
-92.20946677
 20
-113.52956206
 10
-92.25294416
 20
-113.48608466
 10
-92.29641714
 20
-113.44261168
 10
-92.33988359
 20
-113.39914511
  0
ARC
  5
367
100
AcDbEntity
  8
MST_1_1
 62
   137
  6
CONTINUOUS
100
AcDbCircle
 10
-92.09810494
 20
-113.50515945
 30
0.0
 40
0.26399992
100
AcDbArc
 50
156.32366302
 51
293.676347
  0
CIRCLE
  5
368
100
AcDbEntity
  8
MST_1_1
 62
   137
  6
CONTINUOUS
100
AcDbCircle
 10
-90.04749524
 20
-141.45454975
 30
0.0
 40
2.32981333
  0
CIRCLE
  5
369
100
AcDbEntity
  8
MST_1_1
 62
   137
  6
CONTINUOUS
100
AcDbCircle
 10
-90.04749524
 20
-141.45454975
 30
0.0
 40
1.32203389
  0
CIRCLE
  5
36A
100
AcDbEntity
  8
MST_1_1
 62
   137
  6
CONTINUOUS
100
AcDbCircle
 10
-90.04749524
 20
-141.45454975
 30
0.0
 40
2.32981333
  0
CIRCLE
  5
36B
100
AcDbEntity
  8
MST_1_1
 62
   137
  6
CONTINUOUS
100
AcDbCircle
 10
-90.04749524
 20
-141.45454975
 30
0.0
 40
2.32981333
  0
CIRCLE
  5
36C
100
AcDbEntity
  8
MST_1_1
 62
   137
  6
CONTINUOUS
100
AcDbCircle
 10
-90.04749524
 20
-141.45454975
 30
0.0
 40
4.5
  0
ARC
  5
36D
100
AcDbEntity
  8
MST_1_1
 62
   137
  6
CONTINUOUS
100
AcDbCircle
 10
-91.92149519
 20
-141.45454975
 30
0.0
 40
0.37600003
100
AcDbArc
 50
106.48878485
 51
253.51122516
  0
ARC
  5
36E
100
AcDbEntity
  8
MST_1_1
 62
   137
  6
CONTINUOUS
100
AcDbCircle
 10
-92.30776598
 20
-142.7595177
 30
0.0
 40
0.98493585
100
AcDbArc
 50
346.4887751
 51
73.5112424
  0
ARC
  5
36F
100
AcDbEntity
  8
MST_1_1
 62
   137
  6
CONTINUOUS
100
AcDbCircle
 10
-90.98449517
 20
-143.0774813
 30
0.0
 40
0.37600004
100
AcDbArc
 50
166.48877314
 51
313.51122983
  0
ARC
  5
370
100
AcDbEntity
  8
MST_1_1
 62
   137
  6
CONTINUOUS
100
AcDbCircle
 10
-90.04749524
 20
-144.06448542
 30
0.0
 40
0.98493568
100
AcDbArc
 50
46.48875513
 51
133.51124487
  0
ARC
  5
371
100
AcDbEntity
  8
MST_1_1
 62
   137
  6
CONTINUOUS
100
AcDbCircle
 10
-89.11049528
 20
-143.07748134
 30
0.0
 40
0.37600002
100
AcDbArc
 50
226.48878273
 51
13.51123435
  0
ARC
  5
372
100
AcDbEntity
  8
MST_1_1
 62
   137
  6
CONTINUOUS
100
AcDbCircle
 10
-87.78722446
 20
-142.75951772
 30
0.0
 40
0.98493588
100
AcDbArc
 50
106.48875933
 51
193.51124321
  0
ARC
  5
373
100
AcDbEntity
  8
MST_1_1
 62
   137
  6
CONTINUOUS
100
AcDbCircle
 10
-88.17349529
 20
-141.45454975
 30
0.0
 40
0.37600003
100
AcDbArc
 50
286.48879487
 51
73.51121515
  0
ARC
  5
374
100
AcDbEntity
  8
MST_1_1
 62
   137
  6
CONTINUOUS
100
AcDbCircle
 10
-87.95033682
 20
-140.24375474
 30
0.0
 40
0.91385801
100
AcDbArc
 50
166.48876508
 51
253.51125242
  0
ARC
  5
375
100
AcDbEntity
  8
MST_1_1
 62
   137
  6
CONTINUOUS
100
AcDbCircle
 10
-89.1104953
 20
-139.8316182
 30
0.0
 40
0.37600004
100
AcDbArc
 50
346.48878316
 51
133.51121981
  0
ARC
  5
376
100
AcDbEntity
  8
MST_1_1
 62
   137
  6
CONTINUOUS
100
AcDbCircle
 10
-90.04749524
 20
-138.84461407
 30
0.0
 40
0.98493568
100
AcDbArc
 50
226.48876515
 51
313.51125489
  0
ARC
  5
377
100
AcDbEntity
  8
MST_1_1
 62
   137
  6
CONTINUOUS
100
AcDbCircle
 10
-90.9844952
 20
-139.83161815
 30
0.0
 40
0.37600002
100
AcDbArc
 50
46.48877271
 51
193.51124436
  0
ARC
  5
378
100
AcDbEntity
  8
MST_1_1
 62
   137
  6
CONTINUOUS
100
AcDbCircle
 10
-92.30776602
 20
-140.14958178
 30
0.0
 40
0.98493588
100
AcDbArc
 50
286.48876935
 51
13.51123319
  0
LWPOLYLINE
  5
379
100
AcDbEntity
  8
MST_1_1
 62
   137
  6
CONTINUOUS
100
AcDbPolyline
 90
        9
 70
     0
 43
0.0
 10
-91.74455147
 20
-144.42439821
 10
-91.73246628
 20
-144.4123129
 10
-91.72037166
 20
-144.40021828
 10
-91.70826784
 20
-144.38811458
 10
-91.69615482
 20
-144.37600156
 10
-91.68403273
 20
-144.36387947
 10
-91.67190155
 20
-144.35174829
 10
-91.6597613
 20
-144.33960804
 10
-91.64761196
 20
-144.3274587
  0
ARC
  5
37A
100
AcDbEntity
  8
MST_1_1
 62
   137
  6
CONTINUOUS
100
AcDbCircle
 10
-91.44473825
 20
-144.15852609
 30
0.0
 40
0.26399994
100
AcDbArc
 50
50.21590624
 51
219.78410378
  0
LWPOLYLINE
  5
37B
100
AcDbEntity
  8
MST_1_1
 62
   137
  6
CONTINUOUS
100
AcDbPolyline
 90
        9
 70
     0
 43
0.0
 10
-91.27580564
 20
-143.95565238
 10
-91.26371253
 20
-143.94355915
 10
-91.25161232
 20
-143.93145895
 10
-91.23950513
 20
-143.91935198
 10
-91.22739107
 20
-143.90723781
 10
-91.21527002
 20
-143.89511688
 10
-91.20314222
 20
-143.88298896
 10
-91.19100756
 20
-143.87085429
 10
-91.17886614
 20
-143.85871287
  0
LWPOLYLINE
  5
37C
100
AcDbEntity
  8
MST_1_1
 62
   137
  6
CONTINUOUS
100
AcDbPolyline
 90
        9
 70
     0
 43
0.0
 10
-91.17886614
 20
-143.85871287
 10
-91.25131488
 20
-143.78626389
 10
-91.32383988
 20
-143.71373901
 10
-91.39643135
 20
-143.64114754
 10
-91.46907929
 20
-143.56849949
 10
-91.54177402
 20
-143.49580487
 10
-91.61450577
 20
-143.42307324
 10
-91.68726465
 20
-143.35031424
 10
-91.76004076
 20
-143.27753813
  0
LWPOLYLINE
  5
37D
100
AcDbEntity
  8
MST_1_1
 62
   137
  6
CONTINUOUS
100
AcDbPolyline
 90
        9
 70
     0
 43
0.0
 10
-91.76004076
 20
-143.27753813
 10
-91.76433695
 20
-143.28183433
 10
-91.76863221
 20
-143.2861297
 10
-91.77292677
 20
-143.29042426
 10
-91.77722052
 20
-143.29471789
 10
-91.78151333
 20
-143.29901082
 10
-91.78580533
 20
-143.30330282
 10
-91.79009652
 20
-143.30759389
 10
-91.79438677
 20
-143.31188426
  0
LWPOLYLINE
  5
37E
100
AcDbEntity
  8
MST_1_1
 62
   137
  6
CONTINUOUS
100
AcDbPolyline
 90
       25
 70
     0
 43
0.0
 10
-91.79438677
 20
-143.31188424
 10
-91.79797627
 20
-143.30635534
 10
-91.80166115
 20
-143.30089969
 10
-91.8054404
 20
-143.29551829
 10
-91.80931303
 20
-143.29021216
 10
-91.81327802
 20
-143.28498228
 10
-91.81733437
 20
-143.27982968
 10
-91.82148109
 20
-143.27475535
 10
-91.82571717
 20
-143.2697603
 10
-91.83004161
 20
-143.26484553
 10
-91.83445341
 20
-143.26001204
 10
-91.83895156
 20
-143.25526085
 10
-91.84353506
 20
-143.25059296
 10
-91.84820291
 20
-143.24600938
 10
-91.85295411
 20
-143.24151109
 10
-91.85778766
 20
-143.23709913
 10
-91.86270254
 20
-143.23277448
 10
-91.86769777
 20
-143.22853815
 10
-91.87277234
 20
-143.22439114
 10
-91.87792524
 20
-143.22033448
 10
-91.88315548
 20
-143.21636914
 10
-91.88846205
 20
-143.21249615
 10
-91.89384395
 20
-143.20871651
 10
-91.89930018
 20
-143.20503121
 10
-91.90482973
 20
-143.20144128
  0
LWPOLYLINE
  5
37F
100
AcDbEntity
  8
MST_1_1
 62
   137
  6
CONTINUOUS
100
AcDbPolyline
 90
        9
 70
     0
 43
0.0
 10
-91.90482975
 20
-143.20144128
 10
-91.90053938
 20
-143.19715103
 10
-91.89624832
 20
-143.19285984
 10
-91.89195632
 20
-143.18856784
 10
-91.88766338
 20
-143.18427503
 10
-91.88336975
 20
-143.17998128
 10
-91.87907519
 20
-143.17568672
 10
-91.87477982
 20
-143.17139146
 10
-91.87048363
 20
-143.16709527
  0
LWPOLYLINE
  5
380
100
AcDbEntity
  8
MST_1_1
 62
   137
  6
CONTINUOUS
100
AcDbPolyline
 90
        9
 70
     0
 43
0.0
 10
-91.87048363
 20
-143.16709527
 10
-91.94325973
 20
-143.09431916
 10
-92.01601873
 20
-143.02156028
 10
-92.08875036
 20
-142.94882853
 10
-92.16144498
 20
-142.8761338
 10
-92.23409303
 20
-142.80348586
 10
-92.3066845
 20
-142.73089439
 10
-92.37920938
 20
-142.65836939
 10
-92.45165837
 20
-142.58592064
  0
LWPOLYLINE
  5
381
100
AcDbEntity
  8
MST_1_1
 62
   137
  6
CONTINUOUS
100
AcDbPolyline
 90
        9
 70
     0
 43
0.0
 10
-92.45165837
 20
-142.58592064
 10
-92.46379978
 20
-142.59806206
 10
-92.47593445
 20
-142.61019673
 10
-92.48806237
 20
-142.62232453
 10
-92.5001833
 20
-142.63444558
 10
-92.51229748
 20
-142.64655964
 10
-92.52440444
 20
-142.65866683
 10
-92.53650465
 20
-142.67076704
 10
-92.54859787
 20
-142.68286015
  0
ARC
  5
382
100
AcDbEntity
  8
MST_1_1
 62
   137
  6
CONTINUOUS
100
AcDbCircle
 10
-92.75147146
 20
-142.85179288
 30
0.0
 40
0.26399993
100
AcDbArc
 50
230.21587884
 51
39.78413117
  0
LWPOLYLINE
  5
383
100
AcDbEntity
  8
MST_1_1
 62
   137
  6
CONTINUOUS
100
AcDbPolyline
 90
        9
 70
     0
 43
0.0
 10
-92.92040419
 20
-143.05466647
 10
-92.93255353
 20
-143.06681581
 10
-92.94469378
 20
-143.07895606
 10
-92.95682496
 20
-143.09108724
 10
-92.96894705
 20
-143.10320933
 10
-92.98106007
 20
-143.11532235
 10
-92.99316377
 20
-143.12742616
 10
-93.00525839
 20
-143.13952079
 10
-93.0173437
 20
-143.15160598
  0
LWPOLYLINE
  5
384
100
AcDbEntity
  8
MST_1_1
 62
   137
  6
CONTINUOUS
100
AcDbPolyline
 90
        9
 70
     0
 43
0.0
 10
-93.0173437
 20
-143.15160598
 10
-92.94490752
 20
-143.22404238
 10
-92.87239009
 20
-143.2965597
 10
-92.79980211
 20
-143.36914756
 10
-92.72715406
 20
-143.44179561
 10
-92.65445642
 20
-143.51449349
 10
-92.58171919
 20
-143.58723048
 10
-92.50895333
 20
-143.65999634
 10
-92.43616907
 20
-143.7327806
  0
LWPOLYLINE
  5
385
100
AcDbEntity
  8
MST_1_1
 62
   137
  6
CONTINUOUS
100
AcDbPolyline
 90
        9
 70
     0
 43
0.0
 10
-92.43616907
 20
-143.7327806
 10
-92.43187987
 20
-143.72849139
 10
-92.4275895
 20
-143.72420102
 10
-92.42329796
 20
-143.71990949
 10
-92.41900526
 20
-143.71561679
 10
-92.4147114
 20
-143.71132293
 10
-92.41041637
 20
-143.70702813
 10
-92.40612042
 20
-143.70273194
 10
-92.40182306
 20
-143.69843459
  0
LWPOLYLINE
  5
386
100
AcDbEntity
  8
MST_1_1
 62
   137
  6
CONTINUOUS
100
AcDbPolyline
 90
       25
 70
     0
 43
0.0
 10
-92.40182304
 20
-143.69843459
 10
-92.39823385
 20
-143.70396297
 10
-92.39454919
 20
-143.70941822
 10
-92.39077006
 20
-143.71479933
 10
-92.38689749
 20
-143.72010527
 10
-92.38293248
 20
-143.72533503
 10
-92.37887605
 20
-143.7304876
 10
-92.3747292
 20
-143.73556197
 10
-92.37049296
 20
-143.74055711
 10
-92.36616832
 20
-143.74547202
 10
-92.3617563
 20
-143.75030568
 10
-92.35725792
 20
-143.75505708
 10
-92.35267419
 20
-143.75972519
 10
-92.34800611
 20
-143.76430902
 10
-92.3432547
 20
-143.76880753
 10
-92.33842098
 20
-143.77321973
 10
-92.33350595
 20
-143.77754458
 10
-92.32851062
 20
-143.78178109
 10
-92.32343601
 20
-143.78592822
 10
-92.31828313
 20
-143.78998498
 10
-92.31305299
 20
-143.79395034
 10
-92.3077466
 20
-143.7978233
 10
-92.30236498
 20
-143.80160282
 10
-92.29690914
 20
-143.80528791
 10
-92.29138008
 20
-143.80887755
  0
LWPOLYLINE
  5
387
100
AcDbEntity
  8
MST_1_1
 62
   137
  6
CONTINUOUS
100
AcDbPolyline
 90
        9
 70
     0
 43
0.0
 10
-92.29138008
 20
-143.80887757
 10
-92.29567743
 20
-143.81317493
 10
-92.29997362
 20
-143.81747088
 10
-92.30426842
 20
-143.82176591
 10
-92.30856228
 20
-143.82605977
 10
-92.31285498
 20
-143.83035247
 10
-92.31714651
 20
-143.83464401
 10
-92.32143688
 20
-143.83893438
 10
-92.32572609
 20
-143.84322358
  0
LWPOLYLINE
  5
388
100
AcDbEntity
  8
MST_1_1
 62
   137
  6
CONTINUOUS
100
AcDbPolyline
 90
        9
 70
     0
 43
0.0
 10
-92.32572609
 20
-143.84322358
 10
-92.25294183
 20
-143.91600784
 10
-92.18017597
 20
-143.9887737
 10
-92.10743898
 20
-144.06151093
 10
-92.0347411
 20
-144.13420857
 10
-91.96209305
 20
-144.20685662
 10
-91.88950519
 20
-144.2794446
 10
-91.81698787
 20
-144.35196203
 10
-91.74455147
 20
-144.42439821
  0
CIRCLE
  5
389
100
AcDbEntity
  8
MST_1_1
 62
   137
  6
CONTINUOUS
100
AcDbCircle
 10
-90.04749524
 20
-141.45454975
 30
0.0
 40
3.94143771
  0
LWPOLYLINE
  5
38A
100
AcDbEntity
  8
MST_1_1
 62
   137
  6
CONTINUOUS
100
AcDbPolyline
 90
        9
 70
     0
 43
0.0
 10
-92.01949698
 20
-143.15384651
 10
-92.06713669
 20
-143.10620679
 10
-92.11476546
 20
-143.05857791
 10
-92.16238096
 20
-143.01096241
 10
-92.20998016
 20
-142.96336322
 10
-92.25756026
 20
-142.91578311
 10
-92.30511848
 20
-142.86822477
 10
-92.35265226
 20
-142.82069112
 10
-92.40015855
 20
-142.77318482
  0
ARC
  5
38B
100
AcDbEntity
  8
MST_1_1
 62
   137
  6
CONTINUOUS
100
AcDbCircle
 10
-92.09810516
 20
-143.50515905
 30
0.0
 40
0.35999965
100
AcDbArc
 50
77.38749365
 51
127.33775307
  0
LWPOLYLINE
  5
38C
100
AcDbEntity
  8
MST_1_1
 62
   137
  6
CONTINUOUS
100
AcDbPolyline
 90
        9
 70
     0
 43
0.0
 10
-91.81187817
 20
-143.72350393
 10
-91.87492662
 20
-143.66045549
 10
-91.93799473
 20
-143.59738725
 10
-92.00107589
 20
-143.53430598
 10
-92.06416368
 20
-143.47121819
 10
-92.12725147
 20
-143.4081304
 10
-92.19033274
 20
-143.34504924
 10
-92.25340098
 20
-143.28198112
 10
-92.31644942
 20
-143.21893268
  0
ARC
  5
38D
100
AcDbEntity
  8
MST_1_1
 62
   137
  6
CONTINUOUS
100
AcDbCircle
 10
-92.09810527
 20
-143.50515951
 30
0.0
 40
0.36000032
100
AcDbArc
 50
322.66230677
 51
12.61245653
  0
LWPOLYLINE
  5
38E
100
AcDbEntity
  8
MST_1_1
 62
   137
  6
CONTINUOUS
100
AcDbPolyline
 90
        9
 70
     0
 43
0.0
 10
-91.36613031
 20
-143.80721306
 10
-91.41363661
 20
-143.75970676
 10
-91.46117026
 20
-143.71217299
 10
-91.5087286
 20
-143.66461477
 10
-91.55630871
 20
-143.61703467
 10
-91.60390791
 20
-143.56943547
 10
-91.6515234
 20
-143.52181997
 10
-91.69915229
 20
-143.4741912
 10
-91.746792
 20
-143.42655149
  0
ARC
  5
38F
100
AcDbEntity
  8
MST_1_1
 62
   137
  6
CONTINUOUS
100
AcDbCircle
 10
-91.44473807
 20
-144.15852619
 30
0.0
 40
0.36000013
100
AcDbArc
 50
77.38757789
 51
192.61246315
  0
LWPOLYLINE
  5
390
100
AcDbEntity
  8
MST_1_1
 62
   137
  6
CONTINUOUS
100
AcDbPolyline
 90
        9
 70
     0
 43
0.0
 10
-92.17671285
 20
-143.85647234
 10
-92.12907058
 20
-143.90411485
 10
-92.08143925
 20
-143.95174595
 10
-92.03382235
 20
-143.99936284
 10
-91.98622246
 20
-144.04696274
 10
-91.93864247
 20
-144.09454284
 10
-91.8910853
 20
-144.1420999
 10
-91.84355385
 20
-144.18963134
 10
-91.79605116
 20
-144.23713415
  0
ARC
  5
391
100
AcDbEntity
  8
MST_1_1
 62
   137
  6
CONTINUOUS
100
AcDbCircle
 10
-92.09810506
 20
-143.5051584
 30
0.0
 40
0.36000093
100
AcDbArc
 50
257.38761324
 51
307.3376629
  0
LWPOLYLINE
  5
392
100
AcDbEntity
  8
MST_1_1
 62
   137
  6
CONTINUOUS
100
AcDbPolyline
 90
        9
 70
     0
 43
0.0
 10
-92.38433166
 20
-143.28681504
 10
-92.32128322
 20
-143.34986325
 10
-92.25821522
 20
-143.41293137
 10
-92.19513394
 20
-143.47601264
 10
-92.13204592
 20
-143.53910043
 10
-92.06895813
 20
-143.60218845
 10
-92.00587686
 20
-143.66526972
 10
-91.94280874
 20
-143.72833772
 10
-91.87976053
 20
-143.79138617
  0
ARC
  5
393
100
AcDbEntity
  8
MST_1_1
 62
   137
  6
CONTINUOUS
100
AcDbCircle
 10
-92.0981049
 20
-143.50515935
 30
0.0
 40
0.36
100
AcDbArc
 50
142.66227791
 51
192.61247599
  0
LWPOLYLINE
  5
394
100
AcDbEntity
  8
MST_1_1
 62
   137
  6
CONTINUOUS
100
AcDbPolyline
 90
        9
 70
     0
 43
0.0
 10
-92.83007964
 20
-143.20310567
 10
-92.78257683
 20
-143.25060836
 10
-92.73504539
 20
-143.2981398
 10
-92.68748833
 20
-143.34569698
 10
-92.63990823
 20
-143.39327697
 10
-92.59230833
 20
-143.44087686
 10
-92.54469144
 20
-143.48849376
 10
-92.49706034
 20
-143.53612509
 10
-92.44941784
 20
-143.58376736
  0
ARC
  5
395
100
AcDbEntity
  8
MST_1_1
 62
   137
  6
CONTINUOUS
100
AcDbCircle
 10
-92.75147158
 20
-142.85179269
 30
0.0
 40
0.36000006
100
AcDbArc
 50
257.38753734
 51
12.61244165
  0
LWPOLYLINE
  5
396
100
AcDbEntity
  8
MST_1_1
 62
   137
  6
CONTINUOUS
100
AcDbPolyline
 90
        9
 70
     0
 43
0.0
 10
-92.20411911
 20
-143.26338063
 10
-92.16065242
 20
-143.30684732
 10
-92.11717945
 20
-143.35032029
 10
-92.07370205
 20
-143.39379769
 10
-92.03022256
 20
-143.43727707
 10
-91.98674318
 20
-143.48075656
 10
-91.94326579
 20
-143.52423396
 10
-91.89979281
 20
-143.56770693
 10
-91.85632613
 20
-143.61117362
  0
ARC
  5
397
100
AcDbEntity
  8
MST_1_1
 62
   137
  6
CONTINUOUS
100
AcDbCircle
 10
-92.09810486
 20
-143.50515937
 30
0.0
 40
0.26399996
100
AcDbArc
 50
336.32369791
 51
113.67631211
  0
LWPOLYLINE
  5
398
100
AcDbEntity
  8
MST_1_1
 62
   137
  6
CONTINUOUS
100
AcDbPolyline
 90
        9
 70
     0
 43
0.0
 10
-91.9920906
 20
-143.7469381
 10
-92.03555718
 20
-143.70347165
 10
-92.07903015
 20
-143.65999867
 10
-92.12250755
 20
-143.61652127
 10
-92.16598704
 20
-143.57304155
 10
-92.20946677
 20
-143.52956206
 10
-92.25294416
 20
-143.48608466
 10
-92.29641714
 20
-143.44261168
 10
-92.33988359
 20
-143.39914511
  0
ARC
  5
399
100
AcDbEntity
  8
MST_1_1
 62
   137
  6
CONTINUOUS
100
AcDbCircle
 10
-92.09810494
 20
-143.50515945
 30
0.0
 40
0.26399992
100
AcDbArc
 50
156.32366302
 51
293.676347
  0
CIRCLE
  5
39A
100
AcDbEntity
  8
MST_1_1
 62
   137
  6
CONTINUOUS
100
AcDbCircle
 10
-90.04749524
 20
-171.45454975
 30
0.0
 40
2.32981333
  0
CIRCLE
  5
39B
100
AcDbEntity
  8
MST_1_1
 62
   137
  6
CONTINUOUS
100
AcDbCircle
 10
-90.04749524
 20
-171.45454975
 30
0.0
 40
1.32203389
  0
CIRCLE
  5
39C
100
AcDbEntity
  8
MST_1_1
 62
   137
  6
CONTINUOUS
100
AcDbCircle
 10
-90.04749524
 20
-171.45454975
 30
0.0
 40
2.32981333
  0
CIRCLE
  5
39D
100
AcDbEntity
  8
MST_1_1
 62
   137
  6
CONTINUOUS
100
AcDbCircle
 10
-90.04749524
 20
-171.45454975
 30
0.0
 40
2.32981333
  0
CIRCLE
  5
39E
100
AcDbEntity
  8
MST_1_1
 62
   137
  6
CONTINUOUS
100
AcDbCircle
 10
-90.04749524
 20
-171.45454975
 30
0.0
 40
4.5
  0
ARC
  5
39F
100
AcDbEntity
  8
MST_1_1
 62
   137
  6
CONTINUOUS
100
AcDbCircle
 10
-91.92149519
 20
-171.45454975
 30
0.0
 40
0.37600003
100
AcDbArc
 50
106.48878485
 51
253.51122516
  0
ARC
  5
3A0
100
AcDbEntity
  8
MST_1_1
 62
   137
  6
CONTINUOUS
100
AcDbCircle
 10
-92.30776598
 20
-172.7595177
 30
0.0
 40
0.98493585
100
AcDbArc
 50
346.4887751
 51
73.5112424
  0
ARC
  5
3A1
100
AcDbEntity
  8
MST_1_1
 62
   137
  6
CONTINUOUS
100
AcDbCircle
 10
-90.98449517
 20
-173.0774813
 30
0.0
 40
0.37600004
100
AcDbArc
 50
166.48877314
 51
313.51122983
  0
ARC
  5
3A2
100
AcDbEntity
  8
MST_1_1
 62
   137
  6
CONTINUOUS
100
AcDbCircle
 10
-90.04749524
 20
-174.06448542
 30
0.0
 40
0.98493568
100
AcDbArc
 50
46.48875513
 51
133.51124487
  0
ARC
  5
3A3
100
AcDbEntity
  8
MST_1_1
 62
   137
  6
CONTINUOUS
100
AcDbCircle
 10
-89.11049528
 20
-173.07748134
 30
0.0
 40
0.37600002
100
AcDbArc
 50
226.48878273
 51
13.51123435
  0
ARC
  5
3A4
100
AcDbEntity
  8
MST_1_1
 62
   137
  6
CONTINUOUS
100
AcDbCircle
 10
-87.78722446
 20
-172.75951772
 30
0.0
 40
0.98493588
100
AcDbArc
 50
106.48875933
 51
193.51124321
  0
ARC
  5
3A5
100
AcDbEntity
  8
MST_1_1
 62
   137
  6
CONTINUOUS
100
AcDbCircle
 10
-88.17349529
 20
-171.45454975
 30
0.0
 40
0.37600003
100
AcDbArc
 50
286.48879487
 51
73.51121515
  0
ARC
  5
3A6
100
AcDbEntity
  8
MST_1_1
 62
   137
  6
CONTINUOUS
100
AcDbCircle
 10
-87.95033682
 20
-170.24375474
 30
0.0
 40
0.91385801
100
AcDbArc
 50
166.48876508
 51
253.51125242
  0
ARC
  5
3A7
100
AcDbEntity
  8
MST_1_1
 62
   137
  6
CONTINUOUS
100
AcDbCircle
 10
-89.1104953
 20
-169.8316182
 30
0.0
 40
0.37600004
100
AcDbArc
 50
346.48878316
 51
133.51121981
  0
ARC
  5
3A8
100
AcDbEntity
  8
MST_1_1
 62
   137
  6
CONTINUOUS
100
AcDbCircle
 10
-90.04749524
 20
-168.84461407
 30
0.0
 40
0.98493568
100
AcDbArc
 50
226.48876515
 51
313.51125489
  0
ARC
  5
3A9
100
AcDbEntity
  8
MST_1_1
 62
   137
  6
CONTINUOUS
100
AcDbCircle
 10
-90.9844952
 20
-169.83161815
 30
0.0
 40
0.37600002
100
AcDbArc
 50
46.48877271
 51
193.51124436
  0
ARC
  5
3AA
100
AcDbEntity
  8
MST_1_1
 62
   137
  6
CONTINUOUS
100
AcDbCircle
 10
-92.30776602
 20
-170.14958178
 30
0.0
 40
0.98493588
100
AcDbArc
 50
286.48876935
 51
13.51123319
  0
LWPOLYLINE
  5
3AB
100
AcDbEntity
  8
MST_1_1
 62
   137
  6
CONTINUOUS
100
AcDbPolyline
 90
        9
 70
     0
 43
0.0
 10
-91.74455147
 20
-174.42439821
 10
-91.73246628
 20
-174.4123129
 10
-91.72037166
 20
-174.40021828
 10
-91.70826784
 20
-174.38811458
 10
-91.69615482
 20
-174.37600156
 10
-91.68403273
 20
-174.36387947
 10
-91.67190155
 20
-174.35174829
 10
-91.6597613
 20
-174.33960804
 10
-91.64761196
 20
-174.3274587
  0
ARC
  5
3AC
100
AcDbEntity
  8
MST_1_1
 62
   137
  6
CONTINUOUS
100
AcDbCircle
 10
-91.44473825
 20
-174.15852609
 30
0.0
 40
0.26399994
100
AcDbArc
 50
50.21590624
 51
219.78410378
  0
LWPOLYLINE
  5
3AD
100
AcDbEntity
  8
MST_1_1
 62
   137
  6
CONTINUOUS
100
AcDbPolyline
 90
        9
 70
     0
 43
0.0
 10
-91.27580564
 20
-173.95565238
 10
-91.26371253
 20
-173.94355915
 10
-91.25161232
 20
-173.93145895
 10
-91.23950513
 20
-173.91935198
 10
-91.22739107
 20
-173.90723781
 10
-91.21527002
 20
-173.89511688
 10
-91.20314222
 20
-173.88298896
 10
-91.19100756
 20
-173.87085429
 10
-91.17886614
 20
-173.85871287
  0
LWPOLYLINE
  5
3AE
100
AcDbEntity
  8
MST_1_1
 62
   137
  6
CONTINUOUS
100
AcDbPolyline
 90
        9
 70
     0
 43
0.0
 10
-91.17886614
 20
-173.85871287
 10
-91.25131488
 20
-173.78626389
 10
-91.32383988
 20
-173.71373901
 10
-91.39643135
 20
-173.64114754
 10
-91.46907929
 20
-173.56849949
 10
-91.54177402
 20
-173.49580487
 10
-91.61450577
 20
-173.42307324
 10
-91.68726465
 20
-173.35031424
 10
-91.76004076
 20
-173.27753813
  0
LWPOLYLINE
  5
3AF
100
AcDbEntity
  8
MST_1_1
 62
   137
  6
CONTINUOUS
100
AcDbPolyline
 90
        9
 70
     0
 43
0.0
 10
-91.76004076
 20
-173.27753813
 10
-91.76433695
 20
-173.28183433
 10
-91.76863221
 20
-173.2861297
 10
-91.77292677
 20
-173.29042426
 10
-91.77722052
 20
-173.29471789
 10
-91.78151333
 20
-173.29901082
 10
-91.78580533
 20
-173.30330282
 10
-91.79009652
 20
-173.30759389
 10
-91.79438677
 20
-173.31188426
  0
LWPOLYLINE
  5
3B0
100
AcDbEntity
  8
MST_1_1
 62
   137
  6
CONTINUOUS
100
AcDbPolyline
 90
       25
 70
     0
 43
0.0
 10
-91.79438677
 20
-173.31188424
 10
-91.79797627
 20
-173.30635534
 10
-91.80166115
 20
-173.30089969
 10
-91.8054404
 20
-173.29551829
 10
-91.80931303
 20
-173.29021216
 10
-91.81327802
 20
-173.28498228
 10
-91.81733437
 20
-173.27982968
 10
-91.82148109
 20
-173.27475535
 10
-91.82571717
 20
-173.2697603
 10
-91.83004161
 20
-173.26484553
 10
-91.83445341
 20
-173.26001204
 10
-91.83895156
 20
-173.25526085
 10
-91.84353506
 20
-173.25059296
 10
-91.84820291
 20
-173.24600938
 10
-91.85295411
 20
-173.24151109
 10
-91.85778766
 20
-173.23709913
 10
-91.86270254
 20
-173.23277448
 10
-91.86769777
 20
-173.22853815
 10
-91.87277234
 20
-173.22439114
 10
-91.87792524
 20
-173.22033448
 10
-91.88315548
 20
-173.21636914
 10
-91.88846205
 20
-173.21249615
 10
-91.89384395
 20
-173.20871651
 10
-91.89930018
 20
-173.20503121
 10
-91.90482973
 20
-173.20144128
  0
LWPOLYLINE
  5
3B1
100
AcDbEntity
  8
MST_1_1
 62
   137
  6
CONTINUOUS
100
AcDbPolyline
 90
        9
 70
     0
 43
0.0
 10
-91.90482975
 20
-173.20144128
 10
-91.90053938
 20
-173.19715103
 10
-91.89624832
 20
-173.19285984
 10
-91.89195632
 20
-173.18856784
 10
-91.88766338
 20
-173.18427503
 10
-91.88336975
 20
-173.17998128
 10
-91.87907519
 20
-173.17568672
 10
-91.87477982
 20
-173.17139146
 10
-91.87048363
 20
-173.16709527
  0
LWPOLYLINE
  5
3B2
100
AcDbEntity
  8
MST_1_1
 62
   137
  6
CONTINUOUS
100
AcDbPolyline
 90
        9
 70
     0
 43
0.0
 10
-91.87048363
 20
-173.16709527
 10
-91.94325973
 20
-173.09431916
 10
-92.01601873
 20
-173.02156028
 10
-92.08875036
 20
-172.94882853
 10
-92.16144498
 20
-172.8761338
 10
-92.23409303
 20
-172.80348586
 10
-92.3066845
 20
-172.73089439
 10
-92.37920938
 20
-172.65836939
 10
-92.45165837
 20
-172.58592064
  0
LWPOLYLINE
  5
3B3
100
AcDbEntity
  8
MST_1_1
 62
   137
  6
CONTINUOUS
100
AcDbPolyline
 90
        9
 70
     0
 43
0.0
 10
-92.45165837
 20
-172.58592064
 10
-92.46379978
 20
-172.59806206
 10
-92.47593445
 20
-172.61019673
 10
-92.48806237
 20
-172.62232453
 10
-92.5001833
 20
-172.63444558
 10
-92.51229748
 20
-172.64655964
 10
-92.52440444
 20
-172.65866683
 10
-92.53650465
 20
-172.67076704
 10
-92.54859787
 20
-172.68286015
  0
ARC
  5
3B4
100
AcDbEntity
  8
MST_1_1
 62
   137
  6
CONTINUOUS
100
AcDbCircle
 10
-92.75147146
 20
-172.85179288
 30
0.0
 40
0.26399993
100
AcDbArc
 50
230.21587884
 51
39.78413117
  0
LWPOLYLINE
  5
3B5
100
AcDbEntity
  8
MST_1_1
 62
   137
  6
CONTINUOUS
100
AcDbPolyline
 90
        9
 70
     0
 43
0.0
 10
-92.92040419
 20
-173.05466647
 10
-92.93255353
 20
-173.06681581
 10
-92.94469378
 20
-173.07895606
 10
-92.95682496
 20
-173.09108724
 10
-92.96894705
 20
-173.10320933
 10
-92.98106007
 20
-173.11532235
 10
-92.99316377
 20
-173.12742616
 10
-93.00525839
 20
-173.13952079
 10
-93.0173437
 20
-173.15160598
  0
LWPOLYLINE
  5
3B6
100
AcDbEntity
  8
MST_1_1
 62
   137
  6
CONTINUOUS
100
AcDbPolyline
 90
        9
 70
     0
 43
0.0
 10
-93.0173437
 20
-173.15160598
 10
-92.94490752
 20
-173.22404238
 10
-92.87239009
 20
-173.2965597
 10
-92.79980211
 20
-173.36914756
 10
-92.72715406
 20
-173.44179561
 10
-92.65445642
 20
-173.51449349
 10
-92.58171919
 20
-173.58723048
 10
-92.50895333
 20
-173.65999634
 10
-92.43616907
 20
-173.7327806
  0
LWPOLYLINE
  5
3B7
100
AcDbEntity
  8
MST_1_1
 62
   137
  6
CONTINUOUS
100
AcDbPolyline
 90
        9
 70
     0
 43
0.0
 10
-92.43616907
 20
-173.7327806
 10
-92.43187987
 20
-173.72849139
 10
-92.4275895
 20
-173.72420102
 10
-92.42329796
 20
-173.71990949
 10
-92.41900526
 20
-173.71561679
 10
-92.4147114
 20
-173.71132293
 10
-92.41041637
 20
-173.70702813
 10
-92.40612042
 20
-173.70273194
 10
-92.40182306
 20
-173.69843459
  0
LWPOLYLINE
  5
3B8
100
AcDbEntity
  8
MST_1_1
 62
   137
  6
CONTINUOUS
100
AcDbPolyline
 90
       25
 70
     0
 43
0.0
 10
-92.40182304
 20
-173.69843459
 10
-92.39823385
 20
-173.70396297
 10
-92.39454919
 20
-173.70941822
 10
-92.39077006
 20
-173.71479933
 10
-92.38689749
 20
-173.72010527
 10
-92.38293248
 20
-173.72533503
 10
-92.37887605
 20
-173.7304876
 10
-92.3747292
 20
-173.73556197
 10
-92.37049296
 20
-173.74055711
 10
-92.36616832
 20
-173.74547202
 10
-92.3617563
 20
-173.75030568
 10
-92.35725792
 20
-173.75505708
 10
-92.35267419
 20
-173.75972519
 10
-92.34800611
 20
-173.76430902
 10
-92.3432547
 20
-173.76880753
 10
-92.33842098
 20
-173.77321973
 10
-92.33350595
 20
-173.77754458
 10
-92.32851062
 20
-173.78178109
 10
-92.32343601
 20
-173.78592822
 10
-92.31828313
 20
-173.78998498
 10
-92.31305299
 20
-173.79395034
 10
-92.3077466
 20
-173.7978233
 10
-92.30236498
 20
-173.80160282
 10
-92.29690914
 20
-173.80528791
 10
-92.29138008
 20
-173.80887755
  0
LWPOLYLINE
  5
3B9
100
AcDbEntity
  8
MST_1_1
 62
   137
  6
CONTINUOUS
100
AcDbPolyline
 90
        9
 70
     0
 43
0.0
 10
-92.29138008
 20
-173.80887757
 10
-92.29567743
 20
-173.81317493
 10
-92.29997362
 20
-173.81747088
 10
-92.30426842
 20
-173.82176591
 10
-92.30856228
 20
-173.82605977
 10
-92.31285498
 20
-173.83035247
 10
-92.31714651
 20
-173.83464401
 10
-92.32143688
 20
-173.83893438
 10
-92.32572609
 20
-173.84322358
  0
LWPOLYLINE
  5
3BA
100
AcDbEntity
  8
MST_1_1
 62
   137
  6
CONTINUOUS
100
AcDbPolyline
 90
        9
 70
     0
 43
0.0
 10
-92.32572609
 20
-173.84322358
 10
-92.25294183
 20
-173.91600784
 10
-92.18017597
 20
-173.9887737
 10
-92.10743898
 20
-174.06151093
 10
-92.0347411
 20
-174.13420857
 10
-91.96209305
 20
-174.20685662
 10
-91.88950519
 20
-174.2794446
 10
-91.81698787
 20
-174.35196203
 10
-91.74455147
 20
-174.42439821
  0
CIRCLE
  5
3BB
100
AcDbEntity
  8
MST_1_1
 62
   137
  6
CONTINUOUS
100
AcDbCircle
 10
-90.04749524
 20
-171.45454975
 30
0.0
 40
3.94143771
  0
LWPOLYLINE
  5
3BC
100
AcDbEntity
  8
MST_1_1
 62
   137
  6
CONTINUOUS
100
AcDbPolyline
 90
        9
 70
     0
 43
0.0
 10
-92.01949698
 20
-173.15384651
 10
-92.06713669
 20
-173.10620679
 10
-92.11476546
 20
-173.05857791
 10
-92.16238096
 20
-173.01096241
 10
-92.20998016
 20
-172.96336322
 10
-92.25756026
 20
-172.91578311
 10
-92.30511848
 20
-172.86822477
 10
-92.35265226
 20
-172.82069112
 10
-92.40015855
 20
-172.77318482
  0
ARC
  5
3BD
100
AcDbEntity
  8
MST_1_1
 62
   137
  6
CONTINUOUS
100
AcDbCircle
 10
-92.09810516
 20
-173.50515905
 30
0.0
 40
0.35999965
100
AcDbArc
 50
77.38749365
 51
127.33775307
  0
LWPOLYLINE
  5
3BE
100
AcDbEntity
  8
MST_1_1
 62
   137
  6
CONTINUOUS
100
AcDbPolyline
 90
        9
 70
     0
 43
0.0
 10
-91.81187817
 20
-173.72350393
 10
-91.87492662
 20
-173.66045549
 10
-91.93799473
 20
-173.59738725
 10
-92.00107589
 20
-173.53430598
 10
-92.06416368
 20
-173.47121819
 10
-92.12725147
 20
-173.4081304
 10
-92.19033274
 20
-173.34504924
 10
-92.25340098
 20
-173.28198112
 10
-92.31644942
 20
-173.21893268
  0
ARC
  5
3BF
100
AcDbEntity
  8
MST_1_1
 62
   137
  6
CONTINUOUS
100
AcDbCircle
 10
-92.09810527
 20
-173.50515951
 30
0.0
 40
0.36000032
100
AcDbArc
 50
322.66230677
 51
12.61245653
  0
LWPOLYLINE
  5
3C0
100
AcDbEntity
  8
MST_1_1
 62
   137
  6
CONTINUOUS
100
AcDbPolyline
 90
        9
 70
     0
 43
0.0
 10
-91.36613031
 20
-173.80721306
 10
-91.41363661
 20
-173.75970676
 10
-91.46117026
 20
-173.71217299
 10
-91.5087286
 20
-173.66461477
 10
-91.55630871
 20
-173.61703467
 10
-91.60390791
 20
-173.56943547
 10
-91.6515234
 20
-173.52181997
 10
-91.69915229
 20
-173.4741912
 10
-91.746792
 20
-173.42655149
  0
ARC
  5
3C1
100
AcDbEntity
  8
MST_1_1
 62
   137
  6
CONTINUOUS
100
AcDbCircle
 10
-91.44473807
 20
-174.15852619
 30
0.0
 40
0.36000013
100
AcDbArc
 50
77.38757789
 51
192.61246315
  0
LWPOLYLINE
  5
3C2
100
AcDbEntity
  8
MST_1_1
 62
   137
  6
CONTINUOUS
100
AcDbPolyline
 90
        9
 70
     0
 43
0.0
 10
-92.17671285
 20
-173.85647234
 10
-92.12907058
 20
-173.90411485
 10
-92.08143925
 20
-173.95174595
 10
-92.03382235
 20
-173.99936284
 10
-91.98622246
 20
-174.04696274
 10
-91.93864247
 20
-174.09454284
 10
-91.8910853
 20
-174.1420999
 10
-91.84355385
 20
-174.18963134
 10
-91.79605116
 20
-174.23713415
  0
ARC
  5
3C3
100
AcDbEntity
  8
MST_1_1
 62
   137
  6
CONTINUOUS
100
AcDbCircle
 10
-92.09810506
 20
-173.5051584
 30
0.0
 40
0.36000093
100
AcDbArc
 50
257.38761324
 51
307.3376629
  0
LWPOLYLINE
  5
3C4
100
AcDbEntity
  8
MST_1_1
 62
   137
  6
CONTINUOUS
100
AcDbPolyline
 90
        9
 70
     0
 43
0.0
 10
-92.38433166
 20
-173.28681504
 10
-92.32128322
 20
-173.34986325
 10
-92.25821522
 20
-173.41293137
 10
-92.19513394
 20
-173.47601264
 10
-92.13204592
 20
-173.53910043
 10
-92.06895813
 20
-173.60218845
 10
-92.00587686
 20
-173.66526972
 10
-91.94280874
 20
-173.72833772
 10
-91.87976053
 20
-173.79138617
  0
ARC
  5
3C5
100
AcDbEntity
  8
MST_1_1
 62
   137
  6
CONTINUOUS
100
AcDbCircle
 10
-92.0981049
 20
-173.50515935
 30
0.0
 40
0.36
100
AcDbArc
 50
142.66227791
 51
192.61247599
  0
LWPOLYLINE
  5
3C6
100
AcDbEntity
  8
MST_1_1
 62
   137
  6
CONTINUOUS
100
AcDbPolyline
 90
        9
 70
     0
 43
0.0
 10
-92.83007964
 20
-173.20310567
 10
-92.78257683
 20
-173.25060836
 10
-92.73504539
 20
-173.2981398
 10
-92.68748833
 20
-173.34569698
 10
-92.63990823
 20
-173.39327697
 10
-92.59230833
 20
-173.44087686
 10
-92.54469144
 20
-173.48849376
 10
-92.49706034
 20
-173.53612509
 10
-92.44941784
 20
-173.58376736
  0
ARC
  5
3C7
100
AcDbEntity
  8
MST_1_1
 62
   137
  6
CONTINUOUS
100
AcDbCircle
 10
-92.75147158
 20
-172.85179269
 30
0.0
 40
0.36000006
100
AcDbArc
 50
257.38753734
 51
12.61244165
  0
LWPOLYLINE
  5
3C8
100
AcDbEntity
  8
MST_1_1
 62
   137
  6
CONTINUOUS
100
AcDbPolyline
 90
        9
 70
     0
 43
0.0
 10
-92.20411911
 20
-173.26338063
 10
-92.16065242
 20
-173.30684732
 10
-92.11717945
 20
-173.35032029
 10
-92.07370205
 20
-173.39379769
 10
-92.03022256
 20
-173.43727707
 10
-91.98674318
 20
-173.48075656
 10
-91.94326579
 20
-173.52423396
 10
-91.89979281
 20
-173.56770693
 10
-91.85632613
 20
-173.61117362
  0
ARC
  5
3C9
100
AcDbEntity
  8
MST_1_1
 62
   137
  6
CONTINUOUS
100
AcDbCircle
 10
-92.09810486
 20
-173.50515937
 30
0.0
 40
0.26399996
100
AcDbArc
 50
336.32369791
 51
113.67631211
  0
LWPOLYLINE
  5
3CA
100
AcDbEntity
  8
MST_1_1
 62
   137
  6
CONTINUOUS
100
AcDbPolyline
 90
        9
 70
     0
 43
0.0
 10
-91.9920906
 20
-173.7469381
 10
-92.03555718
 20
-173.70347165
 10
-92.07903015
 20
-173.65999867
 10
-92.12250755
 20
-173.61652127
 10
-92.16598704
 20
-173.57304155
 10
-92.20946677
 20
-173.52956206
 10
-92.25294416
 20
-173.48608466
 10
-92.29641714
 20
-173.44261168
 10
-92.33988359
 20
-173.39914511
  0
ARC
  5
3CB
100
AcDbEntity
  8
MST_1_1
 62
   137
  6
CONTINUOUS
100
AcDbCircle
 10
-92.09810494
 20
-173.50515945
 30
0.0
 40
0.26399992
100
AcDbArc
 50
156.32366302
 51
293.676347
  0
CIRCLE
  5
3CC
100
AcDbEntity
  8
MST_1_1
 62
   137
  6
CONTINUOUS
100
AcDbCircle
 10
-90.04749524
 20
-201.45454975
 30
0.0
 40
2.32981333
  0
CIRCLE
  5
3CD
100
AcDbEntity
  8
MST_1_1
 62
   137
  6
CONTINUOUS
100
AcDbCircle
 10
-90.04749524
 20
-201.45454975
 30
0.0
 40
1.32203389
  0
CIRCLE
  5
3CE
100
AcDbEntity
  8
MST_1_1
 62
   137
  6
CONTINUOUS
100
AcDbCircle
 10
-90.04749524
 20
-201.45454975
 30
0.0
 40
2.32981333
  0
CIRCLE
  5
3CF
100
AcDbEntity
  8
MST_1_1
 62
   137
  6
CONTINUOUS
100
AcDbCircle
 10
-90.04749524
 20
-201.45454975
 30
0.0
 40
2.32981333
  0
CIRCLE
  5
3D0
100
AcDbEntity
  8
MST_1_1
 62
   137
  6
CONTINUOUS
100
AcDbCircle
 10
-90.04749524
 20
-201.45454975
 30
0.0
 40
4.5
  0
ARC
  5
3D1
100
AcDbEntity
  8
MST_1_1
 62
   137
  6
CONTINUOUS
100
AcDbCircle
 10
-91.92149519
 20
-201.45454975
 30
0.0
 40
0.37600003
100
AcDbArc
 50
106.48878485
 51
253.51122516
  0
ARC
  5
3D2
100
AcDbEntity
  8
MST_1_1
 62
   137
  6
CONTINUOUS
100
AcDbCircle
 10
-92.30776598
 20
-202.7595177
 30
0.0
 40
0.98493585
100
AcDbArc
 50
346.4887751
 51
73.5112424
  0
ARC
  5
3D3
100
AcDbEntity
  8
MST_1_1
 62
   137
  6
CONTINUOUS
100
AcDbCircle
 10
-90.98449517
 20
-203.0774813
 30
0.0
 40
0.37600004
100
AcDbArc
 50
166.48877314
 51
313.51122983
  0
ARC
  5
3D4
100
AcDbEntity
  8
MST_1_1
 62
   137
  6
CONTINUOUS
100
AcDbCircle
 10
-90.04749524
 20
-204.06448542
 30
0.0
 40
0.98493568
100
AcDbArc
 50
46.48875513
 51
133.51124487
  0
ARC
  5
3D5
100
AcDbEntity
  8
MST_1_1
 62
   137
  6
CONTINUOUS
100
AcDbCircle
 10
-89.11049528
 20
-203.07748134
 30
0.0
 40
0.37600002
100
AcDbArc
 50
226.48878273
 51
13.51123435
  0
ARC
  5
3D6
100
AcDbEntity
  8
MST_1_1
 62
   137
  6
CONTINUOUS
100
AcDbCircle
 10
-87.78722446
 20
-202.75951772
 30
0.0
 40
0.98493588
100
AcDbArc
 50
106.48875933
 51
193.51124321
  0
ARC
  5
3D7
100
AcDbEntity
  8
MST_1_1
 62
   137
  6
CONTINUOUS
100
AcDbCircle
 10
-88.17349529
 20
-201.45454975
 30
0.0
 40
0.37600003
100
AcDbArc
 50
286.48879487
 51
73.51121515
  0
ARC
  5
3D8
100
AcDbEntity
  8
MST_1_1
 62
   137
  6
CONTINUOUS
100
AcDbCircle
 10
-87.95033682
 20
-200.24375474
 30
0.0
 40
0.91385801
100
AcDbArc
 50
166.48876508
 51
253.51125242
  0
ARC
  5
3D9
100
AcDbEntity
  8
MST_1_1
 62
   137
  6
CONTINUOUS
100
AcDbCircle
 10
-89.1104953
 20
-199.8316182
 30
0.0
 40
0.37600004
100
AcDbArc
 50
346.48878316
 51
133.51121981
  0
ARC
  5
3DA
100
AcDbEntity
  8
MST_1_1
 62
   137
  6
CONTINUOUS
100
AcDbCircle
 10
-90.04749524
 20
-198.84461407
 30
0.0
 40
0.98493568
100
AcDbArc
 50
226.48876515
 51
313.51125489
  0
ARC
  5
3DB
100
AcDbEntity
  8
MST_1_1
 62
   137
  6
CONTINUOUS
100
AcDbCircle
 10
-90.9844952
 20
-199.83161815
 30
0.0
 40
0.37600002
100
AcDbArc
 50
46.48877271
 51
193.51124436
  0
ARC
  5
3DC
100
AcDbEntity
  8
MST_1_1
 62
   137
  6
CONTINUOUS
100
AcDbCircle
 10
-92.30776602
 20
-200.14958178
 30
0.0
 40
0.98493588
100
AcDbArc
 50
286.48876935
 51
13.51123319
  0
LWPOLYLINE
  5
3DD
100
AcDbEntity
  8
MST_1_1
 62
   137
  6
CONTINUOUS
100
AcDbPolyline
 90
        9
 70
     0
 43
0.0
 10
-91.74455147
 20
-204.42439821
 10
-91.73246628
 20
-204.4123129
 10
-91.72037166
 20
-204.40021828
 10
-91.70826784
 20
-204.38811458
 10
-91.69615482
 20
-204.37600156
 10
-91.68403273
 20
-204.36387947
 10
-91.67190155
 20
-204.35174829
 10
-91.6597613
 20
-204.33960804
 10
-91.64761196
 20
-204.3274587
  0
ARC
  5
3DE
100
AcDbEntity
  8
MST_1_1
 62
   137
  6
CONTINUOUS
100
AcDbCircle
 10
-91.44473825
 20
-204.15852609
 30
0.0
 40
0.26399994
100
AcDbArc
 50
50.21590624
 51
219.78410378
  0
LWPOLYLINE
  5
3DF
100
AcDbEntity
  8
MST_1_1
 62
   137
  6
CONTINUOUS
100
AcDbPolyline
 90
        9
 70
     0
 43
0.0
 10
-91.27580564
 20
-203.95565238
 10
-91.26371253
 20
-203.94355915
 10
-91.25161232
 20
-203.93145895
 10
-91.23950513
 20
-203.91935198
 10
-91.22739107
 20
-203.90723781
 10
-91.21527002
 20
-203.89511688
 10
-91.20314222
 20
-203.88298896
 10
-91.19100756
 20
-203.87085429
 10
-91.17886614
 20
-203.85871287
  0
LWPOLYLINE
  5
3E0
100
AcDbEntity
  8
MST_1_1
 62
   137
  6
CONTINUOUS
100
AcDbPolyline
 90
        9
 70
     0
 43
0.0
 10
-91.17886614
 20
-203.85871287
 10
-91.25131488
 20
-203.78626389
 10
-91.32383988
 20
-203.71373901
 10
-91.39643135
 20
-203.64114754
 10
-91.46907929
 20
-203.56849949
 10
-91.54177402
 20
-203.49580487
 10
-91.61450577
 20
-203.42307324
 10
-91.68726465
 20
-203.35031424
 10
-91.76004076
 20
-203.27753813
  0
LWPOLYLINE
  5
3E1
100
AcDbEntity
  8
MST_1_1
 62
   137
  6
CONTINUOUS
100
AcDbPolyline
 90
        9
 70
     0
 43
0.0
 10
-91.76004076
 20
-203.27753813
 10
-91.76433695
 20
-203.28183433
 10
-91.76863221
 20
-203.2861297
 10
-91.77292677
 20
-203.29042426
 10
-91.77722052
 20
-203.29471789
 10
-91.78151333
 20
-203.29901082
 10
-91.78580533
 20
-203.30330282
 10
-91.79009652
 20
-203.30759389
 10
-91.79438677
 20
-203.31188426
  0
LWPOLYLINE
  5
3E2
100
AcDbEntity
  8
MST_1_1
 62
   137
  6
CONTINUOUS
100
AcDbPolyline
 90
       25
 70
     0
 43
0.0
 10
-91.79438677
 20
-203.31188424
 10
-91.79797627
 20
-203.30635534
 10
-91.80166115
 20
-203.30089969
 10
-91.8054404
 20
-203.29551829
 10
-91.80931303
 20
-203.29021216
 10
-91.81327802
 20
-203.28498228
 10
-91.81733437
 20
-203.27982968
 10
-91.82148109
 20
-203.27475535
 10
-91.82571717
 20
-203.2697603
 10
-91.83004161
 20
-203.26484553
 10
-91.83445341
 20
-203.26001204
 10
-91.83895156
 20
-203.25526085
 10
-91.84353506
 20
-203.25059296
 10
-91.84820291
 20
-203.24600938
 10
-91.85295411
 20
-203.24151109
 10
-91.85778766
 20
-203.23709913
 10
-91.86270254
 20
-203.23277448
 10
-91.86769777
 20
-203.22853815
 10
-91.87277234
 20
-203.22439114
 10
-91.87792524
 20
-203.22033448
 10
-91.88315548
 20
-203.21636914
 10
-91.88846205
 20
-203.21249615
 10
-91.89384395
 20
-203.20871651
 10
-91.89930018
 20
-203.20503121
 10
-91.90482973
 20
-203.20144128
  0
LWPOLYLINE
  5
3E3
100
AcDbEntity
  8
MST_1_1
 62
   137
  6
CONTINUOUS
100
AcDbPolyline
 90
        9
 70
     0
 43
0.0
 10
-91.90482975
 20
-203.20144128
 10
-91.90053938
 20
-203.19715103
 10
-91.89624832
 20
-203.19285984
 10
-91.89195632
 20
-203.18856784
 10
-91.88766338
 20
-203.18427503
 10
-91.88336975
 20
-203.17998128
 10
-91.87907519
 20
-203.17568672
 10
-91.87477982
 20
-203.17139146
 10
-91.87048363
 20
-203.16709527
  0
LWPOLYLINE
  5
3E4
100
AcDbEntity
  8
MST_1_1
 62
   137
  6
CONTINUOUS
100
AcDbPolyline
 90
        9
 70
     0
 43
0.0
 10
-91.87048363
 20
-203.16709527
 10
-91.94325973
 20
-203.09431916
 10
-92.01601873
 20
-203.02156028
 10
-92.08875036
 20
-202.94882853
 10
-92.16144498
 20
-202.8761338
 10
-92.23409303
 20
-202.80348586
 10
-92.3066845
 20
-202.73089439
 10
-92.37920938
 20
-202.65836939
 10
-92.45165837
 20
-202.58592064
  0
LWPOLYLINE
  5
3E5
100
AcDbEntity
  8
MST_1_1
 62
   137
  6
CONTINUOUS
100
AcDbPolyline
 90
        9
 70
     0
 43
0.0
 10
-92.45165837
 20
-202.58592064
 10
-92.46379978
 20
-202.59806206
 10
-92.47593445
 20
-202.61019673
 10
-92.48806237
 20
-202.62232453
 10
-92.5001833
 20
-202.63444558
 10
-92.51229748
 20
-202.64655964
 10
-92.52440444
 20
-202.65866683
 10
-92.53650465
 20
-202.67076704
 10
-92.54859787
 20
-202.68286015
  0
ARC
  5
3E6
100
AcDbEntity
  8
MST_1_1
 62
   137
  6
CONTINUOUS
100
AcDbCircle
 10
-92.75147146
 20
-202.85179288
 30
0.0
 40
0.26399993
100
AcDbArc
 50
230.21587884
 51
39.78413117
  0
LWPOLYLINE
  5
3E7
100
AcDbEntity
  8
MST_1_1
 62
   137
  6
CONTINUOUS
100
AcDbPolyline
 90
        9
 70
     0
 43
0.0
 10
-92.92040419
 20
-203.05466647
 10
-92.93255353
 20
-203.06681581
 10
-92.94469378
 20
-203.07895606
 10
-92.95682496
 20
-203.09108724
 10
-92.96894705
 20
-203.10320933
 10
-92.98106007
 20
-203.11532235
 10
-92.99316377
 20
-203.12742616
 10
-93.00525839
 20
-203.13952079
 10
-93.0173437
 20
-203.15160598
  0
LWPOLYLINE
  5
3E8
100
AcDbEntity
  8
MST_1_1
 62
   137
  6
CONTINUOUS
100
AcDbPolyline
 90
        9
 70
     0
 43
0.0
 10
-93.0173437
 20
-203.15160598
 10
-92.94490752
 20
-203.22404238
 10
-92.87239009
 20
-203.2965597
 10
-92.79980211
 20
-203.36914756
 10
-92.72715406
 20
-203.44179561
 10
-92.65445642
 20
-203.51449349
 10
-92.58171919
 20
-203.58723048
 10
-92.50895333
 20
-203.65999634
 10
-92.43616907
 20
-203.7327806
  0
LWPOLYLINE
  5
3E9
100
AcDbEntity
  8
MST_1_1
 62
   137
  6
CONTINUOUS
100
AcDbPolyline
 90
        9
 70
     0
 43
0.0
 10
-92.43616907
 20
-203.7327806
 10
-92.43187987
 20
-203.72849139
 10
-92.4275895
 20
-203.72420102
 10
-92.42329796
 20
-203.71990949
 10
-92.41900526
 20
-203.71561679
 10
-92.4147114
 20
-203.71132293
 10
-92.41041637
 20
-203.70702813
 10
-92.40612042
 20
-203.70273194
 10
-92.40182306
 20
-203.69843459
  0
LWPOLYLINE
  5
3EA
100
AcDbEntity
  8
MST_1_1
 62
   137
  6
CONTINUOUS
100
AcDbPolyline
 90
       25
 70
     0
 43
0.0
 10
-92.40182304
 20
-203.69843459
 10
-92.39823385
 20
-203.70396297
 10
-92.39454919
 20
-203.70941822
 10
-92.39077006
 20
-203.71479933
 10
-92.38689749
 20
-203.72010527
 10
-92.38293248
 20
-203.72533503
 10
-92.37887605
 20
-203.7304876
 10
-92.3747292
 20
-203.73556197
 10
-92.37049296
 20
-203.74055711
 10
-92.36616832
 20
-203.74547202
 10
-92.3617563
 20
-203.75030568
 10
-92.35725792
 20
-203.75505708
 10
-92.35267419
 20
-203.75972519
 10
-92.34800611
 20
-203.76430902
 10
-92.3432547
 20
-203.76880753
 10
-92.33842098
 20
-203.77321973
 10
-92.33350595
 20
-203.77754458
 10
-92.32851062
 20
-203.78178109
 10
-92.32343601
 20
-203.78592822
 10
-92.31828313
 20
-203.78998498
 10
-92.31305299
 20
-203.79395034
 10
-92.3077466
 20
-203.7978233
 10
-92.30236498
 20
-203.80160282
 10
-92.29690914
 20
-203.80528791
 10
-92.29138008
 20
-203.80887755
  0
LWPOLYLINE
  5
3EB
100
AcDbEntity
  8
MST_1_1
 62
   137
  6
CONTINUOUS
100
AcDbPolyline
 90
        9
 70
     0
 43
0.0
 10
-92.29138008
 20
-203.80887757
 10
-92.29567743
 20
-203.81317493
 10
-92.29997362
 20
-203.81747088
 10
-92.30426842
 20
-203.82176591
 10
-92.30856228
 20
-203.82605977
 10
-92.31285498
 20
-203.83035247
 10
-92.31714651
 20
-203.83464401
 10
-92.32143688
 20
-203.83893438
 10
-92.32572609
 20
-203.84322358
  0
LWPOLYLINE
  5
3EC
100
AcDbEntity
  8
MST_1_1
 62
   137
  6
CONTINUOUS
100
AcDbPolyline
 90
        9
 70
     0
 43
0.0
 10
-92.32572609
 20
-203.84322358
 10
-92.25294183
 20
-203.91600784
 10
-92.18017597
 20
-203.9887737
 10
-92.10743898
 20
-204.06151093
 10
-92.0347411
 20
-204.13420857
 10
-91.96209305
 20
-204.20685662
 10
-91.88950519
 20
-204.2794446
 10
-91.81698787
 20
-204.35196203
 10
-91.74455147
 20
-204.42439821
  0
CIRCLE
  5
3ED
100
AcDbEntity
  8
MST_1_1
 62
   137
  6
CONTINUOUS
100
AcDbCircle
 10
-90.04749524
 20
-201.45454975
 30
0.0
 40
3.94143771
  0
LWPOLYLINE
  5
3EE
100
AcDbEntity
  8
MST_1_1
 62
   137
  6
CONTINUOUS
100
AcDbPolyline
 90
        9
 70
     0
 43
0.0
 10
-92.01949698
 20
-203.15384651
 10
-92.06713669
 20
-203.10620679
 10
-92.11476546
 20
-203.05857791
 10
-92.16238096
 20
-203.01096241
 10
-92.20998016
 20
-202.96336322
 10
-92.25756026
 20
-202.91578311
 10
-92.30511848
 20
-202.86822477
 10
-92.35265226
 20
-202.82069112
 10
-92.40015855
 20
-202.77318482
  0
ARC
  5
3EF
100
AcDbEntity
  8
MST_1_1
 62
   137
  6
CONTINUOUS
100
AcDbCircle
 10
-92.09810516
 20
-203.50515905
 30
0.0
 40
0.35999965
100
AcDbArc
 50
77.38749365
 51
127.33775307
  0
LWPOLYLINE
  5
3F0
100
AcDbEntity
  8
MST_1_1
 62
   137
  6
CONTINUOUS
100
AcDbPolyline
 90
        9
 70
     0
 43
0.0
 10
-91.81187817
 20
-203.72350393
 10
-91.87492662
 20
-203.66045549
 10
-91.93799473
 20
-203.59738725
 10
-92.00107589
 20
-203.53430598
 10
-92.06416368
 20
-203.47121819
 10
-92.12725147
 20
-203.4081304
 10
-92.19033274
 20
-203.34504924
 10
-92.25340098
 20
-203.28198112
 10
-92.31644942
 20
-203.21893268
  0
ARC
  5
3F1
100
AcDbEntity
  8
MST_1_1
 62
   137
  6
CONTINUOUS
100
AcDbCircle
 10
-92.09810527
 20
-203.50515951
 30
0.0
 40
0.36000032
100
AcDbArc
 50
322.66230677
 51
12.61245653
  0
LWPOLYLINE
  5
3F2
100
AcDbEntity
  8
MST_1_1
 62
   137
  6
CONTINUOUS
100
AcDbPolyline
 90
        9
 70
     0
 43
0.0
 10
-91.36613031
 20
-203.80721306
 10
-91.41363661
 20
-203.75970676
 10
-91.46117026
 20
-203.71217299
 10
-91.5087286
 20
-203.66461477
 10
-91.55630871
 20
-203.61703467
 10
-91.60390791
 20
-203.56943547
 10
-91.6515234
 20
-203.52181997
 10
-91.69915229
 20
-203.4741912
 10
-91.746792
 20
-203.42655149
  0
ARC
  5
3F3
100
AcDbEntity
  8
MST_1_1
 62
   137
  6
CONTINUOUS
100
AcDbCircle
 10
-91.44473807
 20
-204.15852619
 30
0.0
 40
0.36000013
100
AcDbArc
 50
77.38757789
 51
192.61246315
  0
LWPOLYLINE
  5
3F4
100
AcDbEntity
  8
MST_1_1
 62
   137
  6
CONTINUOUS
100
AcDbPolyline
 90
        9
 70
     0
 43
0.0
 10
-92.17671285
 20
-203.85647234
 10
-92.12907058
 20
-203.90411485
 10
-92.08143925
 20
-203.95174595
 10
-92.03382235
 20
-203.99936284
 10
-91.98622246
 20
-204.04696274
 10
-91.93864247
 20
-204.09454284
 10
-91.8910853
 20
-204.1420999
 10
-91.84355385
 20
-204.18963134
 10
-91.79605116
 20
-204.23713415
  0
ARC
  5
3F5
100
AcDbEntity
  8
MST_1_1
 62
   137
  6
CONTINUOUS
100
AcDbCircle
 10
-92.09810506
 20
-203.5051584
 30
0.0
 40
0.36000093
100
AcDbArc
 50
257.38761324
 51
307.3376629
  0
LWPOLYLINE
  5
3F6
100
AcDbEntity
  8
MST_1_1
 62
   137
  6
CONTINUOUS
100
AcDbPolyline
 90
        9
 70
     0
 43
0.0
 10
-92.38433166
 20
-203.28681504
 10
-92.32128322
 20
-203.34986325
 10
-92.25821522
 20
-203.41293137
 10
-92.19513394
 20
-203.47601264
 10
-92.13204592
 20
-203.53910043
 10
-92.06895813
 20
-203.60218845
 10
-92.00587686
 20
-203.66526972
 10
-91.94280874
 20
-203.72833772
 10
-91.87976053
 20
-203.79138617
  0
ARC
  5
3F7
100
AcDbEntity
  8
MST_1_1
 62
   137
  6
CONTINUOUS
100
AcDbCircle
 10
-92.0981049
 20
-203.50515935
 30
0.0
 40
0.36
100
AcDbArc
 50
142.66227791
 51
192.61247599
  0
LWPOLYLINE
  5
3F8
100
AcDbEntity
  8
MST_1_1
 62
   137
  6
CONTINUOUS
100
AcDbPolyline
 90
        9
 70
     0
 43
0.0
 10
-92.83007964
 20
-203.20310567
 10
-92.78257683
 20
-203.25060836
 10
-92.73504539
 20
-203.2981398
 10
-92.68748833
 20
-203.34569698
 10
-92.63990823
 20
-203.39327697
 10
-92.59230833
 20
-203.44087686
 10
-92.54469144
 20
-203.48849376
 10
-92.49706034
 20
-203.53612509
 10
-92.44941784
 20
-203.58376736
  0
ARC
  5
3F9
100
AcDbEntity
  8
MST_1_1
 62
   137
  6
CONTINUOUS
100
AcDbCircle
 10
-92.75147158
 20
-202.85179269
 30
0.0
 40
0.36000006
100
AcDbArc
 50
257.38753734
 51
12.61244165
  0
LWPOLYLINE
  5
3FA
100
AcDbEntity
  8
MST_1_1
 62
   137
  6
CONTINUOUS
100
AcDbPolyline
 90
        9
 70
     0
 43
0.0
 10
-92.20411911
 20
-203.26338063
 10
-92.16065242
 20
-203.30684732
 10
-92.11717945
 20
-203.35032029
 10
-92.07370205
 20
-203.39379769
 10
-92.03022256
 20
-203.43727707
 10
-91.98674318
 20
-203.48075656
 10
-91.94326579
 20
-203.52423396
 10
-91.89979281
 20
-203.56770693
 10
-91.85632613
 20
-203.61117362
  0
ARC
  5
3FB
100
AcDbEntity
  8
MST_1_1
 62
   137
  6
CONTINUOUS
100
AcDbCircle
 10
-92.09810486
 20
-203.50515937
 30
0.0
 40
0.26399996
100
AcDbArc
 50
336.32369791
 51
113.67631211
  0
LWPOLYLINE
  5
3FC
100
AcDbEntity
  8
MST_1_1
 62
   137
  6
CONTINUOUS
100
AcDbPolyline
 90
        9
 70
     0
 43
0.0
 10
-91.9920906
 20
-203.7469381
 10
-92.03555718
 20
-203.70347165
 10
-92.07903015
 20
-203.65999867
 10
-92.12250755
 20
-203.61652127
 10
-92.16598704
 20
-203.57304155
 10
-92.20946677
 20
-203.52956206
 10
-92.25294416
 20
-203.48608466
 10
-92.29641714
 20
-203.44261168
 10
-92.33988359
 20
-203.39914511
  0
ARC
  5
3FD
100
AcDbEntity
  8
MST_1_1
 62
   137
  6
CONTINUOUS
100
AcDbCircle
 10
-92.09810494
 20
-203.50515945
 30
0.0
 40
0.26399992
100
AcDbArc
 50
156.32366302
 51
293.676347
  0
CIRCLE
  5
3FE
100
AcDbEntity
  8
MST_1_1
 62
   137
  6
CONTINUOUS
100
AcDbCircle
 10
-90.04749524
 20
-231.45454975
 30
0.0
 40
2.32981333
  0
CIRCLE
  5
3FF
100
AcDbEntity
  8
MST_1_1
 62
   137
  6
CONTINUOUS
100
AcDbCircle
 10
-90.04749524
 20
-231.45454975
 30
0.0
 40
1.32203389
  0
CIRCLE
  5
400
100
AcDbEntity
  8
MST_1_1
 62
   137
  6
CONTINUOUS
100
AcDbCircle
 10
-90.04749524
 20
-231.45454975
 30
0.0
 40
2.32981333
  0
CIRCLE
  5
401
100
AcDbEntity
  8
MST_1_1
 62
   137
  6
CONTINUOUS
100
AcDbCircle
 10
-90.04749524
 20
-231.45454975
 30
0.0
 40
2.32981333
  0
CIRCLE
  5
402
100
AcDbEntity
  8
MST_1_1
 62
   137
  6
CONTINUOUS
100
AcDbCircle
 10
-90.04749524
 20
-231.45454975
 30
0.0
 40
4.5
  0
ARC
  5
403
100
AcDbEntity
  8
MST_1_1
 62
   137
  6
CONTINUOUS
100
AcDbCircle
 10
-91.92149519
 20
-231.45454975
 30
0.0
 40
0.37600003
100
AcDbArc
 50
106.48878485
 51
253.51122516
  0
ARC
  5
404
100
AcDbEntity
  8
MST_1_1
 62
   137
  6
CONTINUOUS
100
AcDbCircle
 10
-92.30776598
 20
-232.7595177
 30
0.0
 40
0.98493585
100
AcDbArc
 50
346.4887751
 51
73.5112424
  0
ARC
  5
405
100
AcDbEntity
  8
MST_1_1
 62
   137
  6
CONTINUOUS
100
AcDbCircle
 10
-90.98449517
 20
-233.0774813
 30
0.0
 40
0.37600004
100
AcDbArc
 50
166.48877314
 51
313.51122983
  0
ARC
  5
406
100
AcDbEntity
  8
MST_1_1
 62
   137
  6
CONTINUOUS
100
AcDbCircle
 10
-90.04749524
 20
-234.06448542
 30
0.0
 40
0.98493568
100
AcDbArc
 50
46.48875513
 51
133.51124487
  0
ARC
  5
407
100
AcDbEntity
  8
MST_1_1
 62
   137
  6
CONTINUOUS
100
AcDbCircle
 10
-89.11049528
 20
-233.07748134
 30
0.0
 40
0.37600002
100
AcDbArc
 50
226.48878273
 51
13.51123435
  0
ARC
  5
408
100
AcDbEntity
  8
MST_1_1
 62
   137
  6
CONTINUOUS
100
AcDbCircle
 10
-87.78722446
 20
-232.75951772
 30
0.0
 40
0.98493588
100
AcDbArc
 50
106.48875933
 51
193.51124321
  0
ARC
  5
409
100
AcDbEntity
  8
MST_1_1
 62
   137
  6
CONTINUOUS
100
AcDbCircle
 10
-88.17349529
 20
-231.45454975
 30
0.0
 40
0.37600003
100
AcDbArc
 50
286.48879487
 51
73.51121515
  0
ARC
  5
40A
100
AcDbEntity
  8
MST_1_1
 62
   137
  6
CONTINUOUS
100
AcDbCircle
 10
-87.95033682
 20
-230.24375474
 30
0.0
 40
0.91385801
100
AcDbArc
 50
166.48876508
 51
253.51125242
  0
ARC
  5
40B
100
AcDbEntity
  8
MST_1_1
 62
   137
  6
CONTINUOUS
100
AcDbCircle
 10
-89.1104953
 20
-229.8316182
 30
0.0
 40
0.37600004
100
AcDbArc
 50
346.48878316
 51
133.51121981
  0
ARC
  5
40C
100
AcDbEntity
  8
MST_1_1
 62
   137
  6
CONTINUOUS
100
AcDbCircle
 10
-90.04749524
 20
-228.84461407
 30
0.0
 40
0.98493568
100
AcDbArc
 50
226.48876515
 51
313.51125489
  0
ARC
  5
40D
100
AcDbEntity
  8
MST_1_1
 62
   137
  6
CONTINUOUS
100
AcDbCircle
 10
-90.9844952
 20
-229.83161815
 30
0.0
 40
0.37600002
100
AcDbArc
 50
46.48877271
 51
193.51124436
  0
ARC
  5
40E
100
AcDbEntity
  8
MST_1_1
 62
   137
  6
CONTINUOUS
100
AcDbCircle
 10
-92.30776602
 20
-230.14958178
 30
0.0
 40
0.98493588
100
AcDbArc
 50
286.48876935
 51
13.51123319
  0
LWPOLYLINE
  5
40F
100
AcDbEntity
  8
MST_1_1
 62
   137
  6
CONTINUOUS
100
AcDbPolyline
 90
        9
 70
     0
 43
0.0
 10
-91.74455147
 20
-234.42439821
 10
-91.73246628
 20
-234.4123129
 10
-91.72037166
 20
-234.40021828
 10
-91.70826784
 20
-234.38811458
 10
-91.69615482
 20
-234.37600156
 10
-91.68403273
 20
-234.36387947
 10
-91.67190155
 20
-234.35174829
 10
-91.6597613
 20
-234.33960804
 10
-91.64761196
 20
-234.3274587
  0
ARC
  5
410
100
AcDbEntity
  8
MST_1_1
 62
   137
  6
CONTINUOUS
100
AcDbCircle
 10
-91.44473825
 20
-234.15852609
 30
0.0
 40
0.26399994
100
AcDbArc
 50
50.21590624
 51
219.78410378
  0
LWPOLYLINE
  5
411
100
AcDbEntity
  8
MST_1_1
 62
   137
  6
CONTINUOUS
100
AcDbPolyline
 90
        9
 70
     0
 43
0.0
 10
-91.27580564
 20
-233.95565238
 10
-91.26371253
 20
-233.94355915
 10
-91.25161232
 20
-233.93145895
 10
-91.23950513
 20
-233.91935198
 10
-91.22739107
 20
-233.90723781
 10
-91.21527002
 20
-233.89511688
 10
-91.20314222
 20
-233.88298896
 10
-91.19100756
 20
-233.87085429
 10
-91.17886614
 20
-233.85871287
  0
LWPOLYLINE
  5
412
100
AcDbEntity
  8
MST_1_1
 62
   137
  6
CONTINUOUS
100
AcDbPolyline
 90
        9
 70
     0
 43
0.0
 10
-91.17886614
 20
-233.85871287
 10
-91.25131488
 20
-233.78626389
 10
-91.32383988
 20
-233.71373901
 10
-91.39643135
 20
-233.64114754
 10
-91.46907929
 20
-233.56849949
 10
-91.54177402
 20
-233.49580487
 10
-91.61450577
 20
-233.42307324
 10
-91.68726465
 20
-233.35031424
 10
-91.76004076
 20
-233.27753813
  0
LWPOLYLINE
  5
413
100
AcDbEntity
  8
MST_1_1
 62
   137
  6
CONTINUOUS
100
AcDbPolyline
 90
        9
 70
     0
 43
0.0
 10
-91.76004076
 20
-233.27753813
 10
-91.76433695
 20
-233.28183433
 10
-91.76863221
 20
-233.2861297
 10
-91.77292677
 20
-233.29042426
 10
-91.77722052
 20
-233.29471789
 10
-91.78151333
 20
-233.29901082
 10
-91.78580533
 20
-233.30330282
 10
-91.79009652
 20
-233.30759389
 10
-91.79438677
 20
-233.31188426
  0
LWPOLYLINE
  5
414
100
AcDbEntity
  8
MST_1_1
 62
   137
  6
CONTINUOUS
100
AcDbPolyline
 90
       25
 70
     0
 43
0.0
 10
-91.79438677
 20
-233.31188424
 10
-91.79797627
 20
-233.30635534
 10
-91.80166115
 20
-233.30089969
 10
-91.8054404
 20
-233.29551829
 10
-91.80931303
 20
-233.29021216
 10
-91.81327802
 20
-233.28498228
 10
-91.81733437
 20
-233.27982968
 10
-91.82148109
 20
-233.27475535
 10
-91.82571717
 20
-233.2697603
 10
-91.83004161
 20
-233.26484553
 10
-91.83445341
 20
-233.26001204
 10
-91.83895156
 20
-233.25526085
 10
-91.84353506
 20
-233.25059296
 10
-91.84820291
 20
-233.24600938
 10
-91.85295411
 20
-233.24151109
 10
-91.85778766
 20
-233.23709913
 10
-91.86270254
 20
-233.23277448
 10
-91.86769777
 20
-233.22853815
 10
-91.87277234
 20
-233.22439114
 10
-91.87792524
 20
-233.22033448
 10
-91.88315548
 20
-233.21636914
 10
-91.88846205
 20
-233.21249615
 10
-91.89384395
 20
-233.20871651
 10
-91.89930018
 20
-233.20503121
 10
-91.90482973
 20
-233.20144128
  0
LWPOLYLINE
  5
415
100
AcDbEntity
  8
MST_1_1
 62
   137
  6
CONTINUOUS
100
AcDbPolyline
 90
        9
 70
     0
 43
0.0
 10
-91.90482975
 20
-233.20144128
 10
-91.90053938
 20
-233.19715103
 10
-91.89624832
 20
-233.19285984
 10
-91.89195632
 20
-233.18856784
 10
-91.88766338
 20
-233.18427503
 10
-91.88336975
 20
-233.17998128
 10
-91.87907519
 20
-233.17568672
 10
-91.87477982
 20
-233.17139146
 10
-91.87048363
 20
-233.16709527
  0
LWPOLYLINE
  5
416
100
AcDbEntity
  8
MST_1_1
 62
   137
  6
CONTINUOUS
100
AcDbPolyline
 90
        9
 70
     0
 43
0.0
 10
-91.87048363
 20
-233.16709527
 10
-91.94325973
 20
-233.09431916
 10
-92.01601873
 20
-233.02156028
 10
-92.08875036
 20
-232.94882853
 10
-92.16144498
 20
-232.8761338
 10
-92.23409303
 20
-232.80348586
 10
-92.3066845
 20
-232.73089439
 10
-92.37920938
 20
-232.65836939
 10
-92.45165837
 20
-232.58592064
  0
LWPOLYLINE
  5
417
100
AcDbEntity
  8
MST_1_1
 62
   137
  6
CONTINUOUS
100
AcDbPolyline
 90
        9
 70
     0
 43
0.0
 10
-92.45165837
 20
-232.58592064
 10
-92.46379978
 20
-232.59806206
 10
-92.47593445
 20
-232.61019673
 10
-92.48806237
 20
-232.62232453
 10
-92.5001833
 20
-232.63444558
 10
-92.51229748
 20
-232.64655964
 10
-92.52440444
 20
-232.65866683
 10
-92.53650465
 20
-232.67076704
 10
-92.54859787
 20
-232.68286015
  0
ARC
  5
418
100
AcDbEntity
  8
MST_1_1
 62
   137
  6
CONTINUOUS
100
AcDbCircle
 10
-92.75147146
 20
-232.85179288
 30
0.0
 40
0.26399993
100
AcDbArc
 50
230.21587884
 51
39.78413117
  0
LWPOLYLINE
  5
419
100
AcDbEntity
  8
MST_1_1
 62
   137
  6
CONTINUOUS
100
AcDbPolyline
 90
        9
 70
     0
 43
0.0
 10
-92.92040419
 20
-233.05466647
 10
-92.93255353
 20
-233.06681581
 10
-92.94469378
 20
-233.07895606
 10
-92.95682496
 20
-233.09108724
 10
-92.96894705
 20
-233.10320933
 10
-92.98106007
 20
-233.11532235
 10
-92.99316377
 20
-233.12742616
 10
-93.00525839
 20
-233.13952079
 10
-93.0173437
 20
-233.15160598
  0
LWPOLYLINE
  5
41A
100
AcDbEntity
  8
MST_1_1
 62
   137
  6
CONTINUOUS
100
AcDbPolyline
 90
        9
 70
     0
 43
0.0
 10
-93.0173437
 20
-233.15160598
 10
-92.94490752
 20
-233.22404238
 10
-92.87239009
 20
-233.2965597
 10
-92.79980211
 20
-233.36914756
 10
-92.72715406
 20
-233.44179561
 10
-92.65445642
 20
-233.51449349
 10
-92.58171919
 20
-233.58723048
 10
-92.50895333
 20
-233.65999634
 10
-92.43616907
 20
-233.7327806
  0
LWPOLYLINE
  5
41B
100
AcDbEntity
  8
MST_1_1
 62
   137
  6
CONTINUOUS
100
AcDbPolyline
 90
        9
 70
     0
 43
0.0
 10
-92.43616907
 20
-233.7327806
 10
-92.43187987
 20
-233.72849139
 10
-92.4275895
 20
-233.72420102
 10
-92.42329796
 20
-233.71990949
 10
-92.41900526
 20
-233.71561679
 10
-92.4147114
 20
-233.71132293
 10
-92.41041637
 20
-233.70702813
 10
-92.40612042
 20
-233.70273194
 10
-92.40182306
 20
-233.69843459
  0
LWPOLYLINE
  5
41C
100
AcDbEntity
  8
MST_1_1
 62
   137
  6
CONTINUOUS
100
AcDbPolyline
 90
       25
 70
     0
 43
0.0
 10
-92.40182304
 20
-233.69843459
 10
-92.39823385
 20
-233.70396297
 10
-92.39454919
 20
-233.70941822
 10
-92.39077006
 20
-233.71479933
 10
-92.38689749
 20
-233.72010527
 10
-92.38293248
 20
-233.72533503
 10
-92.37887605
 20
-233.7304876
 10
-92.3747292
 20
-233.73556197
 10
-92.37049296
 20
-233.74055711
 10
-92.36616832
 20
-233.74547202
 10
-92.3617563
 20
-233.75030568
 10
-92.35725792
 20
-233.75505708
 10
-92.35267419
 20
-233.75972519
 10
-92.34800611
 20
-233.76430902
 10
-92.3432547
 20
-233.76880753
 10
-92.33842098
 20
-233.77321973
 10
-92.33350595
 20
-233.77754458
 10
-92.32851062
 20
-233.78178109
 10
-92.32343601
 20
-233.78592822
 10
-92.31828313
 20
-233.78998498
 10
-92.31305299
 20
-233.79395034
 10
-92.3077466
 20
-233.7978233
 10
-92.30236498
 20
-233.80160282
 10
-92.29690914
 20
-233.80528791
 10
-92.29138008
 20
-233.80887755
  0
LWPOLYLINE
  5
41D
100
AcDbEntity
  8
MST_1_1
 62
   137
  6
CONTINUOUS
100
AcDbPolyline
 90
        9
 70
     0
 43
0.0
 10
-92.29138008
 20
-233.80887757
 10
-92.29567743
 20
-233.81317493
 10
-92.29997362
 20
-233.81747088
 10
-92.30426842
 20
-233.82176591
 10
-92.30856228
 20
-233.82605977
 10
-92.31285498
 20
-233.83035247
 10
-92.31714651
 20
-233.83464401
 10
-92.32143688
 20
-233.83893438
 10
-92.32572609
 20
-233.84322358
  0
LWPOLYLINE
  5
41E
100
AcDbEntity
  8
MST_1_1
 62
   137
  6
CONTINUOUS
100
AcDbPolyline
 90
        9
 70
     0
 43
0.0
 10
-92.32572609
 20
-233.84322358
 10
-92.25294183
 20
-233.91600784
 10
-92.18017597
 20
-233.9887737
 10
-92.10743898
 20
-234.06151093
 10
-92.0347411
 20
-234.13420857
 10
-91.96209305
 20
-234.20685662
 10
-91.88950519
 20
-234.2794446
 10
-91.81698787
 20
-234.35196203
 10
-91.74455147
 20
-234.42439821
  0
CIRCLE
  5
41F
100
AcDbEntity
  8
MST_1_1
 62
   137
  6
CONTINUOUS
100
AcDbCircle
 10
-90.04749524
 20
-231.45454975
 30
0.0
 40
3.94143771
  0
LWPOLYLINE
  5
420
100
AcDbEntity
  8
MST_1_1
 62
   137
  6
CONTINUOUS
100
AcDbPolyline
 90
        9
 70
     0
 43
0.0
 10
-92.01949698
 20
-233.15384651
 10
-92.06713669
 20
-233.10620679
 10
-92.11476546
 20
-233.05857791
 10
-92.16238096
 20
-233.01096241
 10
-92.20998016
 20
-232.96336322
 10
-92.25756026
 20
-232.91578311
 10
-92.30511848
 20
-232.86822477
 10
-92.35265226
 20
-232.82069112
 10
-92.40015855
 20
-232.77318482
  0
ARC
  5
421
100
AcDbEntity
  8
MST_1_1
 62
   137
  6
CONTINUOUS
100
AcDbCircle
 10
-92.09810516
 20
-233.50515905
 30
0.0
 40
0.35999965
100
AcDbArc
 50
77.38749365
 51
127.33775307
  0
LWPOLYLINE
  5
422
100
AcDbEntity
  8
MST_1_1
 62
   137
  6
CONTINUOUS
100
AcDbPolyline
 90
        9
 70
     0
 43
0.0
 10
-91.81187817
 20
-233.72350393
 10
-91.87492662
 20
-233.66045549
 10
-91.93799473
 20
-233.59738725
 10
-92.00107589
 20
-233.53430598
 10
-92.06416368
 20
-233.47121819
 10
-92.12725147
 20
-233.4081304
 10
-92.19033274
 20
-233.34504924
 10
-92.25340098
 20
-233.28198112
 10
-92.31644942
 20
-233.21893268
  0
ARC
  5
423
100
AcDbEntity
  8
MST_1_1
 62
   137
  6
CONTINUOUS
100
AcDbCircle
 10
-92.09810527
 20
-233.50515951
 30
0.0
 40
0.36000032
100
AcDbArc
 50
322.66230677
 51
12.61245653
  0
LWPOLYLINE
  5
424
100
AcDbEntity
  8
MST_1_1
 62
   137
  6
CONTINUOUS
100
AcDbPolyline
 90
        9
 70
     0
 43
0.0
 10
-91.36613031
 20
-233.80721306
 10
-91.41363661
 20
-233.75970676
 10
-91.46117026
 20
-233.71217299
 10
-91.5087286
 20
-233.66461477
 10
-91.55630871
 20
-233.61703467
 10
-91.60390791
 20
-233.56943547
 10
-91.6515234
 20
-233.52181997
 10
-91.69915229
 20
-233.4741912
 10
-91.746792
 20
-233.42655149
  0
ARC
  5
425
100
AcDbEntity
  8
MST_1_1
 62
   137
  6
CONTINUOUS
100
AcDbCircle
 10
-91.44473807
 20
-234.15852619
 30
0.0
 40
0.36000013
100
AcDbArc
 50
77.38757789
 51
192.61246315
  0
LWPOLYLINE
  5
426
100
AcDbEntity
  8
MST_1_1
 62
   137
  6
CONTINUOUS
100
AcDbPolyline
 90
        9
 70
     0
 43
0.0
 10
-92.17671285
 20
-233.85647234
 10
-92.12907058
 20
-233.90411485
 10
-92.08143925
 20
-233.95174595
 10
-92.03382235
 20
-233.99936284
 10
-91.98622246
 20
-234.04696274
 10
-91.93864247
 20
-234.09454284
 10
-91.8910853
 20
-234.1420999
 10
-91.84355385
 20
-234.18963134
 10
-91.79605116
 20
-234.23713415
  0
ARC
  5
427
100
AcDbEntity
  8
MST_1_1
 62
   137
  6
CONTINUOUS
100
AcDbCircle
 10
-92.09810506
 20
-233.5051584
 30
0.0
 40
0.36000093
100
AcDbArc
 50
257.38761324
 51
307.3376629
  0
LWPOLYLINE
  5
428
100
AcDbEntity
  8
MST_1_1
 62
   137
  6
CONTINUOUS
100
AcDbPolyline
 90
        9
 70
     0
 43
0.0
 10
-92.38433166
 20
-233.28681504
 10
-92.32128322
 20
-233.34986325
 10
-92.25821522
 20
-233.41293137
 10
-92.19513394
 20
-233.47601264
 10
-92.13204592
 20
-233.53910043
 10
-92.06895813
 20
-233.60218845
 10
-92.00587686
 20
-233.66526972
 10
-91.94280874
 20
-233.72833772
 10
-91.87976053
 20
-233.79138617
  0
ARC
  5
429
100
AcDbEntity
  8
MST_1_1
 62
   137
  6
CONTINUOUS
100
AcDbCircle
 10
-92.0981049
 20
-233.50515935
 30
0.0
 40
0.36
100
AcDbArc
 50
142.66227791
 51
192.61247599
  0
LWPOLYLINE
  5
42A
100
AcDbEntity
  8
MST_1_1
 62
   137
  6
CONTINUOUS
100
AcDbPolyline
 90
        9
 70
     0
 43
0.0
 10
-92.83007964
 20
-233.20310567
 10
-92.78257683
 20
-233.25060836
 10
-92.73504539
 20
-233.2981398
 10
-92.68748833
 20
-233.34569698
 10
-92.63990823
 20
-233.39327697
 10
-92.59230833
 20
-233.44087686
 10
-92.54469144
 20
-233.48849376
 10
-92.49706034
 20
-233.53612509
 10
-92.44941784
 20
-233.58376736
  0
ARC
  5
42B
100
AcDbEntity
  8
MST_1_1
 62
   137
  6
CONTINUOUS
100
AcDbCircle
 10
-92.75147158
 20
-232.85179269
 30
0.0
 40
0.36000006
100
AcDbArc
 50
257.38753734
 51
12.61244165
  0
LWPOLYLINE
  5
42C
100
AcDbEntity
  8
MST_1_1
 62
   137
  6
CONTINUOUS
100
AcDbPolyline
 90
        9
 70
     0
 43
0.0
 10
-92.20411911
 20
-233.26338063
 10
-92.16065242
 20
-233.30684732
 10
-92.11717945
 20
-233.35032029
 10
-92.07370205
 20
-233.39379769
 10
-92.03022256
 20
-233.43727707
 10
-91.98674318
 20
-233.48075656
 10
-91.94326579
 20
-233.52423396
 10
-91.89979281
 20
-233.56770693
 10
-91.85632613
 20
-233.61117362
  0
ARC
  5
42D
100
AcDbEntity
  8
MST_1_1
 62
   137
  6
CONTINUOUS
100
AcDbCircle
 10
-92.09810486
 20
-233.50515937
 30
0.0
 40
0.26399996
100
AcDbArc
 50
336.32369791
 51
113.67631211
  0
LWPOLYLINE
  5
42E
100
AcDbEntity
  8
MST_1_1
 62
   137
  6
CONTINUOUS
100
AcDbPolyline
 90
        9
 70
     0
 43
0.0
 10
-91.9920906
 20
-233.7469381
 10
-92.03555718
 20
-233.70347165
 10
-92.07903015
 20
-233.65999867
 10
-92.12250755
 20
-233.61652127
 10
-92.16598704
 20
-233.57304155
 10
-92.20946677
 20
-233.52956206
 10
-92.25294416
 20
-233.48608466
 10
-92.29641714
 20
-233.44261168
 10
-92.33988359
 20
-233.39914511
  0
ARC
  5
42F
100
AcDbEntity
  8
MST_1_1
 62
   137
  6
CONTINUOUS
100
AcDbCircle
 10
-92.09810494
 20
-233.50515945
 30
0.0
 40
0.26399992
100
AcDbArc
 50
156.32366302
 51
293.676347
  0
CIRCLE
  5
430
100
AcDbEntity
  8
MST_1_1
 62
   137
  6
CONTINUOUS
100
AcDbCircle
 10
-90.04749524
 20
-261.45454975
 30
0.0
 40
2.32981333
  0
CIRCLE
  5
431
100
AcDbEntity
  8
MST_1_1
 62
   137
  6
CONTINUOUS
100
AcDbCircle
 10
-90.04749524
 20
-261.45454975
 30
0.0
 40
1.32203389
  0
CIRCLE
  5
432
100
AcDbEntity
  8
MST_1_1
 62
   137
  6
CONTINUOUS
100
AcDbCircle
 10
-90.04749524
 20
-261.45454975
 30
0.0
 40
2.32981333
  0
CIRCLE
  5
433
100
AcDbEntity
  8
MST_1_1
 62
   137
  6
CONTINUOUS
100
AcDbCircle
 10
-90.04749524
 20
-261.45454975
 30
0.0
 40
2.32981333
  0
CIRCLE
  5
434
100
AcDbEntity
  8
MST_1_1
 62
   137
  6
CONTINUOUS
100
AcDbCircle
 10
-90.04749524
 20
-261.45454975
 30
0.0
 40
4.5
  0
ARC
  5
435
100
AcDbEntity
  8
MST_1_1
 62
   137
  6
CONTINUOUS
100
AcDbCircle
 10
-91.92149519
 20
-261.45454975
 30
0.0
 40
0.37600003
100
AcDbArc
 50
106.48878485
 51
253.51122516
  0
ARC
  5
436
100
AcDbEntity
  8
MST_1_1
 62
   137
  6
CONTINUOUS
100
AcDbCircle
 10
-92.30776598
 20
-262.7595177
 30
0.0
 40
0.98493585
100
AcDbArc
 50
346.4887751
 51
73.5112424
  0
ARC
  5
437
100
AcDbEntity
  8
MST_1_1
 62
   137
  6
CONTINUOUS
100
AcDbCircle
 10
-90.98449517
 20
-263.0774813
 30
0.0
 40
0.37600004
100
AcDbArc
 50
166.48877314
 51
313.51122983
  0
ARC
  5
438
100
AcDbEntity
  8
MST_1_1
 62
   137
  6
CONTINUOUS
100
AcDbCircle
 10
-90.04749524
 20
-264.06448542
 30
0.0
 40
0.98493568
100
AcDbArc
 50
46.48875513
 51
133.51124487
  0
ARC
  5
439
100
AcDbEntity
  8
MST_1_1
 62
   137
  6
CONTINUOUS
100
AcDbCircle
 10
-89.11049528
 20
-263.07748134
 30
0.0
 40
0.37600002
100
AcDbArc
 50
226.48878273
 51
13.51123435
  0
ARC
  5
43A
100
AcDbEntity
  8
MST_1_1
 62
   137
  6
CONTINUOUS
100
AcDbCircle
 10
-87.78722446
 20
-262.75951772
 30
0.0
 40
0.98493588
100
AcDbArc
 50
106.48875933
 51
193.51124321
  0
ARC
  5
43B
100
AcDbEntity
  8
MST_1_1
 62
   137
  6
CONTINUOUS
100
AcDbCircle
 10
-88.17349529
 20
-261.45454975
 30
0.0
 40
0.37600003
100
AcDbArc
 50
286.48879487
 51
73.51121515
  0
ARC
  5
43C
100
AcDbEntity
  8
MST_1_1
 62
   137
  6
CONTINUOUS
100
AcDbCircle
 10
-87.95033682
 20
-260.24375474
 30
0.0
 40
0.91385801
100
AcDbArc
 50
166.48876508
 51
253.51125242
  0
ARC
  5
43D
100
AcDbEntity
  8
MST_1_1
 62
   137
  6
CONTINUOUS
100
AcDbCircle
 10
-89.1104953
 20
-259.8316182
 30
0.0
 40
0.37600004
100
AcDbArc
 50
346.48878316
 51
133.51121981
  0
ARC
  5
43E
100
AcDbEntity
  8
MST_1_1
 62
   137
  6
CONTINUOUS
100
AcDbCircle
 10
-90.04749524
 20
-258.84461407
 30
0.0
 40
0.98493568
100
AcDbArc
 50
226.48876515
 51
313.51125489
  0
ARC
  5
43F
100
AcDbEntity
  8
MST_1_1
 62
   137
  6
CONTINUOUS
100
AcDbCircle
 10
-90.9844952
 20
-259.83161815
 30
0.0
 40
0.37600002
100
AcDbArc
 50
46.48877271
 51
193.51124436
  0
ARC
  5
440
100
AcDbEntity
  8
MST_1_1
 62
   137
  6
CONTINUOUS
100
AcDbCircle
 10
-92.30776602
 20
-260.14958178
 30
0.0
 40
0.98493588
100
AcDbArc
 50
286.48876935
 51
13.51123319
  0
LWPOLYLINE
  5
441
100
AcDbEntity
  8
MST_1_1
 62
   137
  6
CONTINUOUS
100
AcDbPolyline
 90
        9
 70
     0
 43
0.0
 10
-91.74455147
 20
-264.42439821
 10
-91.73246628
 20
-264.4123129
 10
-91.72037166
 20
-264.40021828
 10
-91.70826784
 20
-264.38811458
 10
-91.69615482
 20
-264.37600156
 10
-91.68403273
 20
-264.36387947
 10
-91.67190155
 20
-264.35174829
 10
-91.6597613
 20
-264.33960804
 10
-91.64761196
 20
-264.3274587
  0
ARC
  5
442
100
AcDbEntity
  8
MST_1_1
 62
   137
  6
CONTINUOUS
100
AcDbCircle
 10
-91.44473825
 20
-264.15852609
 30
0.0
 40
0.26399994
100
AcDbArc
 50
50.21590624
 51
219.78410378
  0
LWPOLYLINE
  5
443
100
AcDbEntity
  8
MST_1_1
 62
   137
  6
CONTINUOUS
100
AcDbPolyline
 90
        9
 70
     0
 43
0.0
 10
-91.27580564
 20
-263.95565238
 10
-91.26371253
 20
-263.94355915
 10
-91.25161232
 20
-263.93145895
 10
-91.23950513
 20
-263.91935198
 10
-91.22739107
 20
-263.90723781
 10
-91.21527002
 20
-263.89511688
 10
-91.20314222
 20
-263.88298896
 10
-91.19100756
 20
-263.87085429
 10
-91.17886614
 20
-263.85871287
  0
LWPOLYLINE
  5
444
100
AcDbEntity
  8
MST_1_1
 62
   137
  6
CONTINUOUS
100
AcDbPolyline
 90
        9
 70
     0
 43
0.0
 10
-91.17886614
 20
-263.85871287
 10
-91.25131488
 20
-263.78626389
 10
-91.32383988
 20
-263.71373901
 10
-91.39643135
 20
-263.64114754
 10
-91.46907929
 20
-263.56849949
 10
-91.54177402
 20
-263.49580487
 10
-91.61450577
 20
-263.42307324
 10
-91.68726465
 20
-263.35031424
 10
-91.76004076
 20
-263.27753813
  0
LWPOLYLINE
  5
445
100
AcDbEntity
  8
MST_1_1
 62
   137
  6
CONTINUOUS
100
AcDbPolyline
 90
        9
 70
     0
 43
0.0
 10
-91.76004076
 20
-263.27753813
 10
-91.76433695
 20
-263.28183433
 10
-91.76863221
 20
-263.2861297
 10
-91.77292677
 20
-263.29042426
 10
-91.77722052
 20
-263.29471789
 10
-91.78151333
 20
-263.29901082
 10
-91.78580533
 20
-263.30330282
 10
-91.79009652
 20
-263.30759389
 10
-91.79438677
 20
-263.31188426
  0
LWPOLYLINE
  5
446
100
AcDbEntity
  8
MST_1_1
 62
   137
  6
CONTINUOUS
100
AcDbPolyline
 90
       25
 70
     0
 43
0.0
 10
-91.79438677
 20
-263.31188424
 10
-91.79797627
 20
-263.30635534
 10
-91.80166115
 20
-263.30089969
 10
-91.8054404
 20
-263.29551829
 10
-91.80931303
 20
-263.29021216
 10
-91.81327802
 20
-263.28498228
 10
-91.81733437
 20
-263.27982968
 10
-91.82148109
 20
-263.27475535
 10
-91.82571717
 20
-263.2697603
 10
-91.83004161
 20
-263.26484553
 10
-91.83445341
 20
-263.26001204
 10
-91.83895156
 20
-263.25526085
 10
-91.84353506
 20
-263.25059296
 10
-91.84820291
 20
-263.24600938
 10
-91.85295411
 20
-263.24151109
 10
-91.85778766
 20
-263.23709913
 10
-91.86270254
 20
-263.23277448
 10
-91.86769777
 20
-263.22853815
 10
-91.87277234
 20
-263.22439114
 10
-91.87792524
 20
-263.22033448
 10
-91.88315548
 20
-263.21636914
 10
-91.88846205
 20
-263.21249615
 10
-91.89384395
 20
-263.20871651
 10
-91.89930018
 20
-263.20503121
 10
-91.90482973
 20
-263.20144128
  0
LWPOLYLINE
  5
447
100
AcDbEntity
  8
MST_1_1
 62
   137
  6
CONTINUOUS
100
AcDbPolyline
 90
        9
 70
     0
 43
0.0
 10
-91.90482975
 20
-263.20144128
 10
-91.90053938
 20
-263.19715103
 10
-91.89624832
 20
-263.19285984
 10
-91.89195632
 20
-263.18856784
 10
-91.88766338
 20
-263.18427503
 10
-91.88336975
 20
-263.17998128
 10
-91.87907519
 20
-263.17568672
 10
-91.87477982
 20
-263.17139146
 10
-91.87048363
 20
-263.16709527
  0
LWPOLYLINE
  5
448
100
AcDbEntity
  8
MST_1_1
 62
   137
  6
CONTINUOUS
100
AcDbPolyline
 90
        9
 70
     0
 43
0.0
 10
-91.87048363
 20
-263.16709527
 10
-91.94325973
 20
-263.09431916
 10
-92.01601873
 20
-263.02156028
 10
-92.08875036
 20
-262.94882853
 10
-92.16144498
 20
-262.8761338
 10
-92.23409303
 20
-262.80348586
 10
-92.3066845
 20
-262.73089439
 10
-92.37920938
 20
-262.65836939
 10
-92.45165837
 20
-262.58592064
  0
LWPOLYLINE
  5
449
100
AcDbEntity
  8
MST_1_1
 62
   137
  6
CONTINUOUS
100
AcDbPolyline
 90
        9
 70
     0
 43
0.0
 10
-92.45165837
 20
-262.58592064
 10
-92.46379978
 20
-262.59806206
 10
-92.47593445
 20
-262.61019673
 10
-92.48806237
 20
-262.62232453
 10
-92.5001833
 20
-262.63444558
 10
-92.51229748
 20
-262.64655964
 10
-92.52440444
 20
-262.65866683
 10
-92.53650465
 20
-262.67076704
 10
-92.54859787
 20
-262.68286015
  0
ARC
  5
44A
100
AcDbEntity
  8
MST_1_1
 62
   137
  6
CONTINUOUS
100
AcDbCircle
 10
-92.75147146
 20
-262.85179288
 30
0.0
 40
0.26399993
100
AcDbArc
 50
230.21587884
 51
39.78413117
  0
LWPOLYLINE
  5
44B
100
AcDbEntity
  8
MST_1_1
 62
   137
  6
CONTINUOUS
100
AcDbPolyline
 90
        9
 70
     0
 43
0.0
 10
-92.92040419
 20
-263.05466647
 10
-92.93255353
 20
-263.06681581
 10
-92.94469378
 20
-263.07895606
 10
-92.95682496
 20
-263.09108724
 10
-92.96894705
 20
-263.10320933
 10
-92.98106007
 20
-263.11532235
 10
-92.99316377
 20
-263.12742616
 10
-93.00525839
 20
-263.13952079
 10
-93.0173437
 20
-263.15160598
  0
LWPOLYLINE
  5
44C
100
AcDbEntity
  8
MST_1_1
 62
   137
  6
CONTINUOUS
100
AcDbPolyline
 90
        9
 70
     0
 43
0.0
 10
-93.0173437
 20
-263.15160598
 10
-92.94490752
 20
-263.22404238
 10
-92.87239009
 20
-263.2965597
 10
-92.79980211
 20
-263.36914756
 10
-92.72715406
 20
-263.44179561
 10
-92.65445642
 20
-263.51449349
 10
-92.58171919
 20
-263.58723048
 10
-92.50895333
 20
-263.65999634
 10
-92.43616907
 20
-263.7327806
  0
LWPOLYLINE
  5
44D
100
AcDbEntity
  8
MST_1_1
 62
   137
  6
CONTINUOUS
100
AcDbPolyline
 90
        9
 70
     0
 43
0.0
 10
-92.43616907
 20
-263.7327806
 10
-92.43187987
 20
-263.72849139
 10
-92.4275895
 20
-263.72420102
 10
-92.42329796
 20
-263.71990949
 10
-92.41900526
 20
-263.71561679
 10
-92.4147114
 20
-263.71132293
 10
-92.41041637
 20
-263.70702813
 10
-92.40612042
 20
-263.70273194
 10
-92.40182306
 20
-263.69843459
  0
LWPOLYLINE
  5
44E
100
AcDbEntity
  8
MST_1_1
 62
   137
  6
CONTINUOUS
100
AcDbPolyline
 90
       25
 70
     0
 43
0.0
 10
-92.40182304
 20
-263.69843459
 10
-92.39823385
 20
-263.70396297
 10
-92.39454919
 20
-263.70941822
 10
-92.39077006
 20
-263.71479933
 10
-92.38689749
 20
-263.72010527
 10
-92.38293248
 20
-263.72533503
 10
-92.37887605
 20
-263.7304876
 10
-92.3747292
 20
-263.73556197
 10
-92.37049296
 20
-263.74055711
 10
-92.36616832
 20
-263.74547202
 10
-92.3617563
 20
-263.75030568
 10
-92.35725792
 20
-263.75505708
 10
-92.35267419
 20
-263.75972519
 10
-92.34800611
 20
-263.76430902
 10
-92.3432547
 20
-263.76880753
 10
-92.33842098
 20
-263.77321973
 10
-92.33350595
 20
-263.77754458
 10
-92.32851062
 20
-263.78178109
 10
-92.32343601
 20
-263.78592822
 10
-92.31828313
 20
-263.78998498
 10
-92.31305299
 20
-263.79395034
 10
-92.3077466
 20
-263.7978233
 10
-92.30236498
 20
-263.80160282
 10
-92.29690914
 20
-263.80528791
 10
-92.29138008
 20
-263.80887755
  0
LWPOLYLINE
  5
44F
100
AcDbEntity
  8
MST_1_1
 62
   137
  6
CONTINUOUS
100
AcDbPolyline
 90
        9
 70
     0
 43
0.0
 10
-92.29138008
 20
-263.80887757
 10
-92.29567743
 20
-263.81317493
 10
-92.29997362
 20
-263.81747088
 10
-92.30426842
 20
-263.82176591
 10
-92.30856228
 20
-263.82605977
 10
-92.31285498
 20
-263.83035247
 10
-92.31714651
 20
-263.83464401
 10
-92.32143688
 20
-263.83893438
 10
-92.32572609
 20
-263.84322358
  0
LWPOLYLINE
  5
450
100
AcDbEntity
  8
MST_1_1
 62
   137
  6
CONTINUOUS
100
AcDbPolyline
 90
        9
 70
     0
 43
0.0
 10
-92.32572609
 20
-263.84322358
 10
-92.25294183
 20
-263.91600784
 10
-92.18017597
 20
-263.9887737
 10
-92.10743898
 20
-264.06151093
 10
-92.0347411
 20
-264.13420857
 10
-91.96209305
 20
-264.20685662
 10
-91.88950519
 20
-264.2794446
 10
-91.81698787
 20
-264.35196203
 10
-91.74455147
 20
-264.42439821
  0
CIRCLE
  5
451
100
AcDbEntity
  8
MST_1_1
 62
   137
  6
CONTINUOUS
100
AcDbCircle
 10
-90.04749524
 20
-261.45454975
 30
0.0
 40
3.94143771
  0
LWPOLYLINE
  5
452
100
AcDbEntity
  8
MST_1_1
 62
   137
  6
CONTINUOUS
100
AcDbPolyline
 90
        9
 70
     0
 43
0.0
 10
-92.01949698
 20
-263.15384651
 10
-92.06713669
 20
-263.10620679
 10
-92.11476546
 20
-263.05857791
 10
-92.16238096
 20
-263.01096241
 10
-92.20998016
 20
-262.96336322
 10
-92.25756026
 20
-262.91578311
 10
-92.30511848
 20
-262.86822477
 10
-92.35265226
 20
-262.82069112
 10
-92.40015855
 20
-262.77318482
  0
ARC
  5
453
100
AcDbEntity
  8
MST_1_1
 62
   137
  6
CONTINUOUS
100
AcDbCircle
 10
-92.09810516
 20
-263.50515905
 30
0.0
 40
0.35999965
100
AcDbArc
 50
77.38749365
 51
127.33775307
  0
LWPOLYLINE
  5
454
100
AcDbEntity
  8
MST_1_1
 62
   137
  6
CONTINUOUS
100
AcDbPolyline
 90
        9
 70
     0
 43
0.0
 10
-91.81187817
 20
-263.72350393
 10
-91.87492662
 20
-263.66045549
 10
-91.93799473
 20
-263.59738725
 10
-92.00107589
 20
-263.53430598
 10
-92.06416368
 20
-263.47121819
 10
-92.12725147
 20
-263.4081304
 10
-92.19033274
 20
-263.34504924
 10
-92.25340098
 20
-263.28198112
 10
-92.31644942
 20
-263.21893268
  0
ARC
  5
455
100
AcDbEntity
  8
MST_1_1
 62
   137
  6
CONTINUOUS
100
AcDbCircle
 10
-92.09810527
 20
-263.50515951
 30
0.0
 40
0.36000032
100
AcDbArc
 50
322.66230677
 51
12.61245653
  0
LWPOLYLINE
  5
456
100
AcDbEntity
  8
MST_1_1
 62
   137
  6
CONTINUOUS
100
AcDbPolyline
 90
        9
 70
     0
 43
0.0
 10
-91.36613031
 20
-263.80721306
 10
-91.41363661
 20
-263.75970676
 10
-91.46117026
 20
-263.71217299
 10
-91.5087286
 20
-263.66461477
 10
-91.55630871
 20
-263.61703467
 10
-91.60390791
 20
-263.56943547
 10
-91.6515234
 20
-263.52181997
 10
-91.69915229
 20
-263.4741912
 10
-91.746792
 20
-263.42655149
  0
ARC
  5
457
100
AcDbEntity
  8
MST_1_1
 62
   137
  6
CONTINUOUS
100
AcDbCircle
 10
-91.44473807
 20
-264.15852619
 30
0.0
 40
0.36000013
100
AcDbArc
 50
77.38757789
 51
192.61246315
  0
LWPOLYLINE
  5
458
100
AcDbEntity
  8
MST_1_1
 62
   137
  6
CONTINUOUS
100
AcDbPolyline
 90
        9
 70
     0
 43
0.0
 10
-92.17671285
 20
-263.85647234
 10
-92.12907058
 20
-263.90411485
 10
-92.08143925
 20
-263.95174595
 10
-92.03382235
 20
-263.99936284
 10
-91.98622246
 20
-264.04696274
 10
-91.93864247
 20
-264.09454284
 10
-91.8910853
 20
-264.1420999
 10
-91.84355385
 20
-264.18963134
 10
-91.79605116
 20
-264.23713415
  0
ARC
  5
459
100
AcDbEntity
  8
MST_1_1
 62
   137
  6
CONTINUOUS
100
AcDbCircle
 10
-92.09810506
 20
-263.5051584
 30
0.0
 40
0.36000093
100
AcDbArc
 50
257.38761324
 51
307.3376629
  0
LWPOLYLINE
  5
45A
100
AcDbEntity
  8
MST_1_1
 62
   137
  6
CONTINUOUS
100
AcDbPolyline
 90
        9
 70
     0
 43
0.0
 10
-92.38433166
 20
-263.28681504
 10
-92.32128322
 20
-263.34986325
 10
-92.25821522
 20
-263.41293137
 10
-92.19513394
 20
-263.47601264
 10
-92.13204592
 20
-263.53910043
 10
-92.06895813
 20
-263.60218845
 10
-92.00587686
 20
-263.66526972
 10
-91.94280874
 20
-263.72833772
 10
-91.87976053
 20
-263.79138617
  0
ARC
  5
45B
100
AcDbEntity
  8
MST_1_1
 62
   137
  6
CONTINUOUS
100
AcDbCircle
 10
-92.0981049
 20
-263.50515935
 30
0.0
 40
0.36
100
AcDbArc
 50
142.66227791
 51
192.61247599
  0
LWPOLYLINE
  5
45C
100
AcDbEntity
  8
MST_1_1
 62
   137
  6
CONTINUOUS
100
AcDbPolyline
 90
        9
 70
     0
 43
0.0
 10
-92.83007964
 20
-263.20310567
 10
-92.78257683
 20
-263.25060836
 10
-92.73504539
 20
-263.2981398
 10
-92.68748833
 20
-263.34569698
 10
-92.63990823
 20
-263.39327697
 10
-92.59230833
 20
-263.44087686
 10
-92.54469144
 20
-263.48849376
 10
-92.49706034
 20
-263.53612509
 10
-92.44941784
 20
-263.58376736
  0
ARC
  5
45D
100
AcDbEntity
  8
MST_1_1
 62
   137
  6
CONTINUOUS
100
AcDbCircle
 10
-92.75147158
 20
-262.85179269
 30
0.0
 40
0.36000006
100
AcDbArc
 50
257.38753734
 51
12.61244165
  0
LWPOLYLINE
  5
45E
100
AcDbEntity
  8
MST_1_1
 62
   137
  6
CONTINUOUS
100
AcDbPolyline
 90
        9
 70
     0
 43
0.0
 10
-92.20411911
 20
-263.26338063
 10
-92.16065242
 20
-263.30684732
 10
-92.11717945
 20
-263.35032029
 10
-92.07370205
 20
-263.39379769
 10
-92.03022256
 20
-263.43727707
 10
-91.98674318
 20
-263.48075656
 10
-91.94326579
 20
-263.52423396
 10
-91.89979281
 20
-263.56770693
 10
-91.85632613
 20
-263.61117362
  0
ARC
  5
45F
100
AcDbEntity
  8
MST_1_1
 62
   137
  6
CONTINUOUS
100
AcDbCircle
 10
-92.09810486
 20
-263.50515937
 30
0.0
 40
0.26399996
100
AcDbArc
 50
336.32369791
 51
113.67631211
  0
LWPOLYLINE
  5
460
100
AcDbEntity
  8
MST_1_1
 62
   137
  6
CONTINUOUS
100
AcDbPolyline
 90
        9
 70
     0
 43
0.0
 10
-91.9920906
 20
-263.7469381
 10
-92.03555718
 20
-263.70347165
 10
-92.07903015
 20
-263.65999867
 10
-92.12250755
 20
-263.61652127
 10
-92.16598704
 20
-263.57304155
 10
-92.20946677
 20
-263.52956206
 10
-92.25294416
 20
-263.48608466
 10
-92.29641714
 20
-263.44261168
 10
-92.33988359
 20
-263.39914511
  0
ARC
  5
461
100
AcDbEntity
  8
MST_1_1
 62
   137
  6
CONTINUOUS
100
AcDbCircle
 10
-92.09810494
 20
-263.50515945
 30
0.0
 40
0.26399992
100
AcDbArc
 50
156.32366302
 51
293.676347
  0
MTEXT
  5
462
100
AcDbEntity
  8
MST_1_1
 62
     4
100
AcDbMText
 10
-136.49080326
 20
169.50219173
 30
2500.0
 11
1.0
 21
0.0
 31
0.0
 40
20.0
 41
316.1838307
 71
     1
 72
     1
  1
\fTahoma|b0|i0|c0|p18;\H20;\W0.80000001;\C7;Spanplattenschrauben Senkkopf\PHECO-FIX-plus 4.5mm\P35.301
  0
LWPOLYLINE
  5
463
102
{ACAD_REACTORS
330
464
102
}
100
AcDbEntity
  8
MST_1_1
 62
    12
100
AcDbPolyline
 90
       46
 70
     1
 43
0.0
 10
270.3917916
 20
180.06794173
 10
270.26097027
 20
180.07858007
 10
270.13682094
 20
180.1093684
 10
270.0210156
 20
180.15861673
 10
269.91522627
 20
180.22463507
 10
269.82112494
 20
180.3057334
 10
269.7403836
 20
180.40022173
 10
269.67467427
 20
180.50641007
 10
269.62566894
 20
180.6226084
 10
269.5950396
 20
180.74712673
 10
269.58445827
 20
180.87827507
 10
269.58445827
 20
180.87827507
 10
269.5950396
 20
181.00948723
 10
269.62566894
 20
181.1340924
 10
269.67467427
 20
181.25039357
 10
269.7403836
 20
181.35669373
 10
269.82112494
 20
181.4512959
 10
269.91522627
 20
181.53250307
 10
270.0210156
 20
181.59861823
 10
270.13682094
 20
181.6479444
 10
270.26097027
 20
181.67878457
 10
270.3917916
 20
181.68944173
 10
270.3917916
 20
181.68944173
 10
270.52244627
 20
181.67878457
 10
270.64648894
 20
181.6479444
 10
270.7622376
 20
181.59861823
 10
270.86801027
 20
181.53250307
 10
270.96212494
 20
181.4512959
 10
271.0428996
 20
181.35669373
 10
271.10865227
 20
181.25039357
 10
271.15770094
 20
181.1340924
 10
271.1883636
 20
181.00948723
 10
271.19895827
 20
180.87827507
 10
271.19895827
 20
180.87827507
 10
271.1883636
 20
180.74712673
 10
271.15770094
 20
180.6226084
 10
271.10865227
 20
180.50641007
 10
271.0428996
 20
180.40022173
 10
270.96212494
 20
180.3057334
 10
270.86801027
 20
180.22463507
 10
270.7622376
 20
180.15861673
 10
270.64648894
 20
180.1093684
 10
270.52244627
 20
180.07858007
 10
270.3917916
 20
180.06794173
 10
270.3917916
 20
180.06794173
 10
270.3917916
 20
180.06794173
  0
HATCH
  5
464
100
AcDbEntity
  8
MST_1_1
 62
    12
100
AcDbHatch
 10
0.0
 20
0.0
 30
0.0
210
0.0
220
0.0
230
1.0
  2
SOLID
 70
     1
 71
     1
 91
        1
 92
        7
 72
     0
 73
     1
 93
       40
 10
270.3917916
 20
180.06794173
 10
270.26097027
 20
180.07858007
 10
270.13682094
 20
180.1093684
 10
270.0210156
 20
180.15861673
 10
269.91522627
 20
180.22463507
 10
269.82112494
 20
180.3057334
 10
269.7403836
 20
180.40022173
 10
269.67467427
 20
180.50641007
 10
269.62566894
 20
180.6226084
 10
269.5950396
 20
180.74712673
 10
269.58445827
 20
180.87827507
 10
269.5950396
 20
181.00948723
 10
269.62566894
 20
181.1340924
 10
269.67467427
 20
181.25039357
 10
269.7403836
 20
181.35669373
 10
269.82112494
 20
181.4512959
 10
269.91522627
 20
181.53250307
 10
270.0210156
 20
181.59861823
 10
270.13682094
 20
181.6479444
 10
270.26097027
 20
181.67878457
 10
270.3917916
 20
181.68944173
 10
270.52244627
 20
181.67878457
 10
270.64648894
 20
181.6479444
 10
270.7622376
 20
181.59861823
 10
270.86801027
 20
181.53250307
 10
270.96212494
 20
181.4512959
 10
271.0428996
 20
181.35669373
 10
271.10865227
 20
181.25039357
 10
271.15770094
 20
181.1340924
 10
271.1883636
 20
181.00948723
 10
271.19895827
 20
180.87827507
 10
271.1883636
 20
180.74712673
 10
271.15770094
 20
180.6226084
 10
271.10865227
 20
180.50641007
 10
271.0428996
 20
180.40022173
 10
270.96212494
 20
180.3057334
 10
270.86801027
 20
180.22463507
 10
270.7622376
 20
180.15861673
 10
270.64648894
 20
180.1093684
 10
270.52244627
 20
180.07858007
 97
        1
330
463
 75
     0
 76
     2
 47
0.775229
 98
        1
 10
0.0
 20
0.0
  0
LWPOLYLINE
  5
465
102
{ACAD_REACTORS
330
466
102
}
100
AcDbEntity
  8
MST_1_1
 62
    12
100
AcDbPolyline
 90
        8
 70
     1
 43
0.0
 10
202.9267916
 20
179.50219173
 10
268.89462494
 20
179.50219173
 10
268.89462494
 20
179.50219173
 10
268.89462494
 20
162.92094173
 10
268.89462494
 20
162.92094173
 10
202.9267916
 20
162.92094173
 10
202.9267916
 20
162.92094173
 10
202.9267916
 20
179.50219173
  0
HATCH
  5
466
100
AcDbEntity
  8
MST_1_1
 62
    12
100
AcDbHatch
 10
0.0
 20
0.0
 30
0.0
210
0.0
220
0.0
230
1.0
  2
SOLID
 70
     1
 71
     1
 91
        1
 92
        7
 72
     0
 73
     1
 93
        4
 10
202.9267916
 20
179.50219173
 10
268.89462494
 20
179.50219173
 10
268.89462494
 20
162.92094173
 10
202.9267916
 20
162.92094173
 97
        1
330
465
 75
     0
 76
     2
 47
0.775229
 98
        1
 10
0.0
 20
0.0
  0
LINE
  5
467
100
AcDbEntity
  8
MST_1_1
100
AcDbLine
 10
202.9267916
 20
162.92094173
 30
0.0
 11
202.9267916
 21
162.92094173
 31
0.0
  0
LINE
  5
468
100
AcDbEntity
  8
MST_1_1
100
AcDbLine
 10
202.9267916
 20
162.92094173
 30
0.0
 11
202.9267916
 21
162.92094173
 31
0.0
  0
LINE
  5
469
100
AcDbEntity
  8
MST_1_1
100
AcDbLine
 10
202.9267916
 20
162.92094173
 30
0.0
 11
202.9267916
 21
162.92094173
 31
0.0
  0
LINE
  5
46A
100
AcDbEntity
  8
MST_1_1
100
AcDbLine
 10
202.9267916
 20
162.92094173
 30
0.0
 11
202.9267916
 21
162.92094173
 31
0.0
  0
LINE
  5
46B
100
AcDbEntity
  8
MST_1_1
100
AcDbLine
 10
202.9267916
 20
162.92094173
 30
0.0
 11
202.9267916
 21
162.92094173
 31
0.0
  0
LINE
  5
46C
100
AcDbEntity
  8
MST_1_1
100
AcDbLine
 10
202.9267916
 20
162.92094173
 30
0.0
 11
202.9267916
 21
162.92094173
 31
0.0
  0
LINE
  5
46D
100
AcDbEntity
  8
MST_1_1
100
AcDbLine
 10
202.9267916
 20
162.92094173
 30
0.0
 11
202.9267916
 21
162.92094173
 31
0.0
  0
LINE
  5
46E
100
AcDbEntity
  8
MST_1_1
100
AcDbLine
 10
202.9267916
 20
162.92094173
 30
0.0
 11
202.9267916
 21
162.92094173
 31
0.0
  0
LINE
  5
46F
100
AcDbEntity
  8
MST_1_1
100
AcDbLine
 10
202.9267916
 20
162.92094173
 30
0.0
 11
202.9267916
 21
162.92094173
 31
0.0
  0
LINE
  5
470
100
AcDbEntity
  8
MST_1_1
100
AcDbLine
 10
202.9267916
 20
162.92094173
 30
0.0
 11
202.9267916
 21
162.92094173
 31
0.0
  0
LINE
  5
471
100
AcDbEntity
  8
MST_1_1
100
AcDbLine
 10
202.9267916
 20
162.92094173
 30
0.0
 11
202.9267916
 21
162.92094173
 31
0.0
  0
LWPOLYLINE
  5
472
102
{ACAD_REACTORS
330
473
102
}
100
AcDbEntity
  8
MST_1_1
 62
   190
100
AcDbPolyline
 90
        8
 70
     1
 43
0.0
 10
235.7332916
 20
178.35252507
 10
267.74812494
 20
178.35252507
 10
267.74812494
 20
178.35252507
 10
267.74812494
 20
164.0687734
 10
267.74812494
 20
164.0687734
 10
235.7332916
 20
164.0687734
 10
235.7332916
 20
164.0687734
 10
235.7332916
 20
178.35252507
  0
HATCH
  5
473
100
AcDbEntity
  8
MST_1_1
 62
   190
100
AcDbHatch
 10
0.0
 20
0.0
 30
0.0
210
0.0
220
0.0
230
1.0
  2
SOLID
 70
     1
 71
     1
 91
        1
 92
        7
 72
     0
 73
     1
 93
        4
 10
235.7332916
 20
178.35252507
 10
267.74812494
 20
178.35252507
 10
267.74812494
 20
164.0687734
 10
235.7332916
 20
164.0687734
 97
        1
330
472
 75
     0
 76
     2
 47
0.775229
 98
        1
 10
0.0
 20
0.0
  0
LWPOLYLINE
  5
474
102
{ACAD_REACTORS
330
475
102
}
100
AcDbEntity
  8
MST_1_1
 62
    12
100
AcDbPolyline
 90
       22
 70
     1
 43
0.0
 10
237.65112494
 20
166.36204173
 10
237.65112494
 20
175.4485584
 10
237.65112494
 20
175.4485584
 10
245.83045827
 20
175.4485584
 10
245.83045827
 20
175.4485584
 10
245.83045827
 20
172.9842084
 10
245.83045827
 20
172.9842084
 10
242.05445827
 20
172.9842084
 10
242.05445827
 20
172.9842084
 10
242.05445827
 20
171.92959173
 10
242.05445827
 20
171.92959173
 10
245.47212494
 20
171.92959173
 10
245.47212494
 20
171.92959173
 10
245.47212494
 20
169.60179173
 10
245.47212494
 20
169.60179173
 10
242.05445827
 20
169.60179173
 10
242.05445827
 20
169.60179173
 10
242.05445827
 20
166.36204173
 10
242.05445827
 20
166.36204173
 10
237.65112494
 20
166.36204173
 10
237.65112494
 20
166.36204173
 10
237.65112494
 20
166.36204173
  0
HATCH
  5
475
100
AcDbEntity
  8
MST_1_1
 62
    12
100
AcDbHatch
 10
0.0
 20
0.0
 30
0.0
210
0.0
220
0.0
230
1.0
  2
SOLID
 70
     1
 71
     1
 91
        1
 92
        7
 72
     0
 73
     1
 93
       10
 10
237.65112494
 20
166.36204173
 10
237.65112494
 20
175.4485584
 10
245.83045827
 20
175.4485584
 10
245.83045827
 20
172.9842084
 10
242.05445827
 20
172.9842084
 10
242.05445827
 20
171.92959173
 10
245.47212494
 20
171.92959173
 10
245.47212494
 20
169.60179173
 10
242.05445827
 20
169.60179173
 10
242.05445827
 20
166.36204173
 97
        1
330
474
 75
     0
 76
     2
 47
0.775229
 98
        1
 10
0.0
 20
0.0
  0
LWPOLYLINE
  5
476
102
{ACAD_REACTORS
330
477
102
}
100
AcDbEntity
  8
MST_1_1
 62
   190
100
AcDbPolyline
 90
      178
 70
     1
 43
0.0
 10
233.8757916
 20
170.88719173
 10
233.8722196
 20
170.68902502
 10
233.8615156
 20
170.493558
 10
233.8436976
 20
170.30081038
 10
233.8187836
 20
170.11080187
 10
233.7867916
 20
169.92355215
 10
233.7477396
 20
169.73908093
 10
233.7016456
 20
169.55740792
 10
233.6485276
 20
169.3785528
 10
233.5884036
 20
169.20253528
 10
233.5212916
 20
169.02937507
 10
233.5212916
 20
169.02937507
 10
233.4475586
 20
168.8589012
 10
233.3671676
 20
168.69215413
 10
233.2801306
 20
168.52912567
 10
233.1864596
 20
168.3698076
 10
233.0861666
 20
168.21419173
 10
232.9792636
 20
168.06226987
 10
232.8657626
 20
167.9140338
 10
232.7456756
 20
167.76947533
 10
232.6190146
 20
167.62858627
 10
232.4857916
 20
167.4913584
 10
232.4857916
 20
167.4913584
 10
232.34705294
 20
167.36157762
 10
232.20414227
 20
167.23801013
 10
232.0570676
 20
167.12066325
 10
231.90583694
 20
167.00954427
 10
231.75045827
 20
166.90466048
 10
231.5909396
 20
166.8060192
 10
231.42728894
 20
166.71362772
 10
231.25951427
 20
166.62749333
 10
231.0876236
 20
166.54762335
 10
230.91162494
 20
166.47402507
 10
230.91162494
 20
166.47402507
 10
230.73257694
 20
166.40702693
 10
230.55106094
 20
166.34697
 10
230.36711894
 20
166.29388047
 10
230.18079294
 20
166.24778453
 10
229.99212494
 20
166.2087084
 10
229.80115694
 20
166.17667827
 10
229.60793094
 20
166.15172033
 10
229.41248894
 20
166.1338608
 10
229.21487294
 20
166.12312587
 10
229.01512494
 20
166.11954173
 10
229.01512494
 20
166.11954173
 10
228.8132046
 20
166.12312587
 10
228.61376227
 20
166.1338608
 10
228.41682594
 20
166.15172033
 10
228.2224236
 20
166.17667827
 10
228.03058327
 20
166.2087084
 10
227.84133294
 20
166.24778453
 10
227.6547006
 20
166.29388047
 10
227.47071427
 20
166.34697
 10
227.28940194
 20
166.40702693
 10
227.1107916
 20
166.47402507
 10
227.1107916
 20
166.47402507
 10
226.9348651
 20
166.5477407
 10
226.7629796
 20
166.62796413
 10
226.5951261
 20
166.71469017
 10
226.4312956
 20
166.8079136
 10
226.2714791
 20
166.90762923
 10
226.1156676
 20
167.01383187
 10
225.9638521
 20
167.1265163
 10
225.8160236
 20
167.24567733
 10
225.6721731
 20
167.37130977
 10
225.5322916
 20
167.5034084
 10
225.5322916
 20
167.5034084
 10
225.40073277
 20
167.63718328
 10
225.27558094
 20
167.77492747
 10
225.1568731
 20
167.91662525
 10
225.04464627
 20
168.06226093
 10
224.93893744
 20
168.21181882
 10
224.8397836
 20
168.3652832
 10
224.74722177
 20
168.52263838
 10
224.66128894
 20
168.68386867
 10
224.5820221
 20
168.84895835
 10
224.50945827
 20
169.01789173
 10
224.50945827
 20
169.01789173
 10
224.44364044
 20
169.19101438
 10
224.3846956
 20
169.36721893
 10
224.33263677
 20
169.54650028
 10
224.28747694
 20
169.72885333
 10
224.2492291
 20
169.91427298
 10
224.21790627
 20
170.10275413
 10
224.19352144
 20
170.29429168
 10
224.1760876
 20
170.48888053
 10
224.16561777
 20
170.68651558
 10
224.16212494
 20
170.88719173
 10
224.16212494
 20
170.88719173
 10
224.16561777
 20
171.08786377
 10
224.1760876
 20
171.285586
 10
224.19352144
 20
171.48036763
 10
224.21790627
 20
171.67221787
 10
224.2492291
 20
171.8611459
 10
224.28747694
 20
172.04716093
 10
224.33263677
 20
172.23027217
 10
224.3846956
 20
172.4104888
 10
224.44364044
 20
172.58782003
 10
224.50945827
 20
172.76227507
 10
224.50945827
 20
172.76227507
 10
224.5820221
 20
172.93234152
 10
224.66128894
 20
173.09851467
 10
224.74722177
 20
173.26075522
 10
224.8397836
 20
173.41902387
 10
224.93893744
 20
173.57328132
 10
225.04464627
 20
173.72348827
 10
225.1568731
 20
173.86960542
 10
225.27558094
 20
174.01159347
 10
225.40073277
 20
174.14941312
 10
225.5322916
 20
174.28302507
 10
225.5322916
 20
174.28302507
 10
225.67109544
 20
174.4134169
 10
225.81392227
 20
174.53753973
 10
225.9607951
 20
174.65537457
 10
226.11173694
 20
174.7669024
 10
226.26677077
 20
174.87210423
 10
226.4259196
 20
174.97096107
 10
226.58920644
 20
175.0634539
 10
226.75665427
 20
175.14956373
 10
226.9282861
 20
175.22927157
 10
227.10412494
 20
175.3025584
 10
227.10412494
 20
175.3025584
 10
227.28303894
 20
175.36958998
 10
227.46467694
 20
175.42948707
 10
227.64903294
 20
175.48226815
 10
227.83610094
 20
175.52795173
 10
228.02587494
 20
175.56655632
 10
228.21834894
 20
175.5981004
 10
228.41351694
 20
175.62260248
 10
228.61137294
 20
175.64008107
 10
228.81191094
 20
175.65055465
 10
229.01512494
 20
175.65404173
 10
229.01512494
 20
175.65404173
 10
229.2184966
 20
175.65055465
 10
229.41919827
 20
175.64008107
 10
229.61720994
 20
175.62260248
 10
229.8125116
 20
175.5981004
 10
230.00508327
 20
175.56655632
 10
230.19490494
 20
175.52795173
 10
230.3819566
 20
175.48226815
 10
230.56621827
 20
175.42948707
 10
230.74766994
 20
175.36958998
 10
230.9262916
 20
175.3025584
 10
230.9262916
 20
175.3025584
 10
231.10229427
 20
175.22927157
 10
231.27421294
 20
175.14956373
 10
231.4420636
 20
175.0634539
 10
231.60586227
 20
174.97096107
 10
231.76562494
 20
174.87210423
 10
231.9213676
 20
174.7669024
 10
232.07310627
 20
174.65537457
 10
232.22085694
 20
174.53753973
 10
232.3646356
 20
174.4134169
 10
232.50445827
 20
174.28302507
 10
232.50445827
 20
174.28302507
 10
232.6348031
 20
174.14825055
 10
232.75891694
 20
174.00942293
 10
232.87676877
 20
173.86656612
 10
232.9883276
 20
173.719704
 10
233.09356244
 20
173.56886048
 10
233.19244227
 20
173.41405947
 10
233.2849361
 20
173.25532485
 10
233.37101294
 20
173.09268053
 10
233.45064177
 20
172.92615042
 10
233.5237916
 20
172.7557584
 10
233.5237916
 20
172.7557584
 10
233.5908336
 20
172.58146648
 10
233.6507676
 20
172.40438907
 10
233.7036056
 20
172.22452365
 10
233.7493596
 20
172.04186773
 10
233.7880416
 20
171.85641882
 10
233.8196636
 20
171.6681744
 10
233.8442376
 20
171.47713198
 10
233.8617756
 20
171.28328907
 10
233.8722896
 20
171.08664315
 10
233.8757916
 20
170.88719173
 10
233.8757916
 20
170.88719173
 10
233.8757916
 20
170.88719173
  0
HATCH
  5
477
100
AcDbEntity
  8
MST_1_1
 62
   190
100
AcDbHatch
 10
0.0
 20
0.0
 30
0.0
210
0.0
220
0.0
230
1.0
  2
SOLID
 70
     1
 71
     1
 91
        1
 92
        7
 72
     0
 73
     1
 93
      160
 10
233.8757916
 20
170.88719173
 10
233.8722196
 20
170.68902502
 10
233.8615156
 20
170.493558
 10
233.8436976
 20
170.30081038
 10
233.8187836
 20
170.11080187
 10
233.7867916
 20
169.92355215
 10
233.7477396
 20
169.73908093
 10
233.7016456
 20
169.55740792
 10
233.6485276
 20
169.3785528
 10
233.5884036
 20
169.20253528
 10
233.5212916
 20
169.02937507
 10
233.4475586
 20
168.8589012
 10
233.3671676
 20
168.69215413
 10
233.2801306
 20
168.52912567
 10
233.1864596
 20
168.3698076
 10
233.0861666
 20
168.21419173
 10
232.9792636
 20
168.06226987
 10
232.8657626
 20
167.9140338
 10
232.7456756
 20
167.76947533
 10
232.6190146
 20
167.62858627
 10
232.4857916
 20
167.4913584
 10
232.34705294
 20
167.36157762
 10
232.20414227
 20
167.23801013
 10
232.0570676
 20
167.12066325
 10
231.90583694
 20
167.00954427
 10
231.75045827
 20
166.90466048
 10
231.5909396
 20
166.8060192
 10
231.42728894
 20
166.71362772
 10
231.25951427
 20
166.62749333
 10
231.0876236
 20
166.54762335
 10
230.91162494
 20
166.47402507
 10
230.73257694
 20
166.40702693
 10
230.55106094
 20
166.34697
 10
230.36711894
 20
166.29388047
 10
230.18079294
 20
166.24778453
 10
229.99212494
 20
166.2087084
 10
229.80115694
 20
166.17667827
 10
229.60793094
 20
166.15172033
 10
229.41248894
 20
166.1338608
 10
229.21487294
 20
166.12312587
 10
229.01512494
 20
166.11954173
 10
228.8132046
 20
166.12312587
 10
228.61376227
 20
166.1338608
 10
228.41682594
 20
166.15172033
 10
228.2224236
 20
166.17667827
 10
228.03058327
 20
166.2087084
 10
227.84133294
 20
166.24778453
 10
227.6547006
 20
166.29388047
 10
227.47071427
 20
166.34697
 10
227.28940194
 20
166.40702693
 10
227.1107916
 20
166.47402507
 10
226.9348651
 20
166.5477407
 10
226.7629796
 20
166.62796413
 10
226.5951261
 20
166.71469017
 10
226.4312956
 20
166.8079136
 10
226.2714791
 20
166.90762923
 10
226.1156676
 20
167.01383187
 10
225.9638521
 20
167.1265163
 10
225.8160236
 20
167.24567733
 10
225.6721731
 20
167.37130977
 10
225.5322916
 20
167.5034084
 10
225.40073277
 20
167.63718328
 10
225.27558094
 20
167.77492747
 10
225.1568731
 20
167.91662525
 10
225.04464627
 20
168.06226093
 10
224.93893744
 20
168.21181882
 10
224.8397836
 20
168.3652832
 10
224.74722177
 20
168.52263838
 10
224.66128894
 20
168.68386867
 10
224.5820221
 20
168.84895835
 10
224.50945827
 20
169.01789173
 10
224.44364044
 20
169.19101438
 10
224.3846956
 20
169.36721893
 10
224.33263677
 20
169.54650028
 10
224.28747694
 20
169.72885333
 10
224.2492291
 20
169.91427298
 10
224.21790627
 20
170.10275413
 10
224.19352144
 20
170.29429168
 10
224.1760876
 20
170.48888053
 10
224.16561777
 20
170.68651558
 10
224.16212494
 20
170.88719173
 10
224.16561777
 20
171.08786377
 10
224.1760876
 20
171.285586
 10
224.19352144
 20
171.48036763
 10
224.21790627
 20
171.67221787
 10
224.2492291
 20
171.8611459
 10
224.28747694
 20
172.04716093
 10
224.33263677
 20
172.23027217
 10
224.3846956
 20
172.4104888
 10
224.44364044
 20
172.58782003
 10
224.50945827
 20
172.76227507
 10
224.5820221
 20
172.93234152
 10
224.66128894
 20
173.09851467
 10
224.74722177
 20
173.26075522
 10
224.8397836
 20
173.41902387
 10
224.93893744
 20
173.57328132
 10
225.04464627
 20
173.72348827
 10
225.1568731
 20
173.86960542
 10
225.27558094
 20
174.01159347
 10
225.40073277
 20
174.14941312
 10
225.5322916
 20
174.28302507
 10
225.67109544
 20
174.4134169
 10
225.81392227
 20
174.53753973
 10
225.9607951
 20
174.65537457
 10
226.11173694
 20
174.7669024
 10
226.26677077
 20
174.87210423
 10
226.4259196
 20
174.97096107
 10
226.58920644
 20
175.0634539
 10
226.75665427
 20
175.14956373
 10
226.9282861
 20
175.22927157
 10
227.10412494
 20
175.3025584
 10
227.28303894
 20
175.36958998
 10
227.46467694
 20
175.42948707
 10
227.64903294
 20
175.48226815
 10
227.83610094
 20
175.52795173
 10
228.02587494
 20
175.56655632
 10
228.21834894
 20
175.5981004
 10
228.41351694
 20
175.62260248
 10
228.61137294
 20
175.64008107
 10
228.81191094
 20
175.65055465
 10
229.01512494
 20
175.65404173
 10
229.2184966
 20
175.65055465
 10
229.41919827
 20
175.64008107
 10
229.61720994
 20
175.62260248
 10
229.8125116
 20
175.5981004
 10
230.00508327
 20
175.56655632
 10
230.19490494
 20
175.52795173
 10
230.3819566
 20
175.48226815
 10
230.56621827
 20
175.42948707
 10
230.74766994
 20
175.36958998
 10
230.9262916
 20
175.3025584
 10
231.10229427
 20
175.22927157
 10
231.27421294
 20
175.14956373
 10
231.4420636
 20
175.0634539
 10
231.60586227
 20
174.97096107
 10
231.76562494
 20
174.87210423
 10
231.9213676
 20
174.7669024
 10
232.07310627
 20
174.65537457
 10
232.22085694
 20
174.53753973
 10
232.3646356
 20
174.4134169
 10
232.50445827
 20
174.28302507
 10
232.6348031
 20
174.14825055
 10
232.75891694
 20
174.00942293
 10
232.87676877
 20
173.86656612
 10
232.9883276
 20
173.719704
 10
233.09356244
 20
173.56886048
 10
233.19244227
 20
173.41405947
 10
233.2849361
 20
173.25532485
 10
233.37101294
 20
173.09268053
 10
233.45064177
 20
172.92615042
 10
233.5237916
 20
172.7557584
 10
233.5908336
 20
172.58146648
 10
233.6507676
 20
172.40438907
 10
233.7036056
 20
172.22452365
 10
233.7493596
 20
172.04186773
 10
233.7880416
 20
171.85641882
 10
233.8196636
 20
171.6681744
 10
233.8442376
 20
171.47713198
 10
233.8617756
 20
171.28328907
 10
233.8722896
 20
171.08664315
 97
        1
330
476
 75
     0
 76
     2
 47
0.775229
 98
        1
 10
0.0
 20
0.0
  0
LWPOLYLINE
  5
478
102
{ACAD_REACTORS
330
479
102
}
100
AcDbEntity
  8
MST_1_1
 62
    12
100
AcDbPolyline
 90
       90
 70
     1
 43
0.0
 10
229.01512494
 20
169.1730084
 10
229.1503421
 20
169.17774372
 10
229.28010227
 20
169.19192693
 10
229.40441844
 20
169.21552395
 10
229.5233036
 20
169.24850067
 10
229.63677077
 20
169.29082298
 10
229.74483294
 20
169.3424568
 10
229.8475031
 20
169.40336802
 10
229.94479427
 20
169.47352253
 10
230.03671944
 20
169.55288625
 10
230.1232916
 20
169.64142507
 10
230.1232916
 20
169.64142507
 10
230.2029841
 20
169.73855008
 10
230.2743516
 20
169.8416712
 10
230.3373791
 20
169.95082752
 10
230.3920516
 20
170.06605813
 10
230.4383541
 20
170.18740215
 10
230.4762716
 20
170.31489867
 10
230.5057891
 20
170.44858678
 10
230.5268916
 20
170.5885056
 10
230.5395641
 20
170.73469422
 10
230.5437916
 20
170.88719173
 10
230.5437916
 20
170.88719173
 10
230.5395641
 20
171.04043727
 10
230.5268916
 20
171.187446
 10
230.5057891
 20
171.32825113
 10
230.4762716
 20
171.46288587
 10
230.4383541
 20
171.5913834
 10
230.3920516
 20
171.71377693
 10
230.3373791
 20
171.83009967
 10
230.2743516
 20
171.9403848
 10
230.2029841
 20
172.04466553
 10
230.1232916
 20
172.14297507
 10
230.1232916
 20
172.14297507
 10
230.03671944
 20
172.23300045
 10
229.94479427
 20
172.31361613
 10
229.8475031
 20
172.38480642
 10
229.74483294
 20
172.4465556
 10
229.63677077
 20
172.49884798
 10
229.5233036
 20
172.54166787
 10
229.40441844
 20
172.57499955
 10
229.28010227
 20
172.59882733
 10
229.1503421
 20
172.61313552
 10
229.01512494
 20
172.6179084
 10
229.01512494
 20
172.6179084
 10
228.87997194
 20
172.61313145
 10
228.75012094
 20
172.5987948
 10
228.62558394
 20
172.57488975
 10
228.50637294
 20
172.5414076
 10
228.39249994
 20
172.49833965
 10
228.28397694
 20
172.4456772
 10
228.18081594
 20
172.38341155
 10
228.08302894
 20
172.311534
 10
227.99062794
 20
172.23003585
 10
227.90362494
 20
172.1389084
 10
227.90362494
 20
172.1389084
 10
227.82327827
 20
172.04054443
 10
227.7514316
 20
171.93622267
 10
227.68807494
 20
171.8259433
 10
227.63319827
 20
171.70970653
 10
227.5867916
 20
171.58751257
 10
227.54884494
 20
171.4593616
 10
227.51934827
 20
171.32525383
 10
227.4982916
 20
171.18518947
 10
227.48566494
 20
171.0391687
 10
227.48145827
 20
170.88719173
 10
227.48145827
 20
170.88719173
 10
227.48566494
 20
170.73469422
 10
227.4982916
 20
170.5885056
 10
227.51934827
 20
170.44858678
 10
227.54884494
 20
170.31489867
 10
227.5867916
 20
170.18740215
 10
227.63319827
 20
170.06605813
 10
227.68807494
 20
169.95082752
 10
227.7514316
 20
169.8416712
 10
227.82327827
 20
169.73855008
 10
227.90362494
 20
169.64142507
 10
227.90362494
 20
169.64142507
 10
227.99062794
 20
169.55288625
 10
228.08302894
 20
169.47352253
 10
228.18081594
 20
169.40336802
 10
228.28397694
 20
169.3424568
 10
228.39249994
 20
169.29082298
 10
228.50637294
 20
169.24850067
 10
228.62558394
 20
169.21552395
 10
228.75012094
 20
169.19192693
 10
228.87997194
 20
169.17774372
 10
229.01512494
 20
169.1730084
 10
229.01512494
 20
169.1730084
 10
229.01512494
 20
169.1730084
  0
HATCH
  5
479
100
AcDbEntity
  8
MST_1_1
 62
    12
100
AcDbHatch
 10
0.0
 20
0.0
 30
0.0
210
0.0
220
0.0
230
1.0
  2
SOLID
 70
     1
 71
     1
 91
        1
 92
        7
 72
     0
 73
     1
 93
       80
 10
229.01512494
 20
169.1730084
 10
229.1503421
 20
169.17774372
 10
229.28010227
 20
169.19192693
 10
229.40441844
 20
169.21552395
 10
229.5233036
 20
169.24850067
 10
229.63677077
 20
169.29082298
 10
229.74483294
 20
169.3424568
 10
229.8475031
 20
169.40336802
 10
229.94479427
 20
169.47352253
 10
230.03671944
 20
169.55288625
 10
230.1232916
 20
169.64142507
 10
230.2029841
 20
169.73855008
 10
230.2743516
 20
169.8416712
 10
230.3373791
 20
169.95082752
 10
230.3920516
 20
170.06605813
 10
230.4383541
 20
170.18740215
 10
230.4762716
 20
170.31489867
 10
230.5057891
 20
170.44858678
 10
230.5268916
 20
170.5885056
 10
230.5395641
 20
170.73469422
 10
230.5437916
 20
170.88719173
 10
230.5395641
 20
171.04043727
 10
230.5268916
 20
171.187446
 10
230.5057891
 20
171.32825113
 10
230.4762716
 20
171.46288587
 10
230.4383541
 20
171.5913834
 10
230.3920516
 20
171.71377693
 10
230.3373791
 20
171.83009967
 10
230.2743516
 20
171.9403848
 10
230.2029841
 20
172.04466553
 10
230.1232916
 20
172.14297507
 10
230.03671944
 20
172.23300045
 10
229.94479427
 20
172.31361613
 10
229.8475031
 20
172.38480642
 10
229.74483294
 20
172.4465556
 10
229.63677077
 20
172.49884798
 10
229.5233036
 20
172.54166787
 10
229.40441844
 20
172.57499955
 10
229.28010227
 20
172.59882733
 10
229.1503421
 20
172.61313552
 10
229.01512494
 20
172.6179084
 10
228.87997194
 20
172.61313145
 10
228.75012094
 20
172.5987948
 10
228.62558394
 20
172.57488975
 10
228.50637294
 20
172.5414076
 10
228.39249994
 20
172.49833965
 10
228.28397694
 20
172.4456772
 10
228.18081594
 20
172.38341155
 10
228.08302894
 20
172.311534
 10
227.99062794
 20
172.23003585
 10
227.90362494
 20
172.1389084
 10
227.82327827
 20
172.04054443
 10
227.7514316
 20
171.93622267
 10
227.68807494
 20
171.8259433
 10
227.63319827
 20
171.70970653
 10
227.5867916
 20
171.58751257
 10
227.54884494
 20
171.4593616
 10
227.51934827
 20
171.32525383
 10
227.4982916
 20
171.18518947
 10
227.48566494
 20
171.0391687
 10
227.48145827
 20
170.88719173
 10
227.48566494
 20
170.73469422
 10
227.4982916
 20
170.5885056
 10
227.51934827
 20
170.44858678
 10
227.54884494
 20
170.31489867
 10
227.5867916
 20
170.18740215
 10
227.63319827
 20
170.06605813
 10
227.68807494
 20
169.95082752
 10
227.7514316
 20
169.8416712
 10
227.82327827
 20
169.73855008
 10
227.90362494
 20
169.64142507
 10
227.99062794
 20
169.55288625
 10
228.08302894
 20
169.47352253
 10
228.18081594
 20
169.40336802
 10
228.28397694
 20
169.3424568
 10
228.39249994
 20
169.29082298
 10
228.50637294
 20
169.24850067
 10
228.62558394
 20
169.21552395
 10
228.75012094
 20
169.19192693
 10
228.87997194
 20
169.17774372
 97
        1
330
478
 75
     0
 76
     2
 47
0.775229
 98
        1
 10
0.0
 20
0.0
  0
LWPOLYLINE
  5
47A
102
{ACAD_REACTORS
330
47B
102
}
100
AcDbEntity
  8
MST_1_1
 62
   190
100
AcDbPolyline
 90
       60
 70
     1
 43
0.0
 10
215.3760916
 20
166.36204173
 10
215.3760916
 20
175.4485584
 10
215.3760916
 20
175.4485584
 10
219.48635827
 20
175.4485584
 10
219.48635827
 20
175.4485584
 10
219.83509404
 20
175.44065777
 10
220.1670364
 20
175.41696533
 10
220.48217797
 20
175.3774953
 10
220.78051134
 20
175.32226187
 10
221.0620291
 20
175.25127923
 10
221.32672387
 20
175.1645616
 10
221.57458824
 20
175.06212317
 10
221.8056148
 20
174.94397813
 10
222.01979617
 20
174.8101407
 10
222.21712494
 20
174.66062507
 10
222.21712494
 20
174.66062507
 10
222.39633077
 20
174.49603602
 10
222.5566516
 20
174.31747067
 10
222.69809244
 20
174.12496172
 10
222.82065827
 20
173.91854187
 10
222.9243541
 20
173.69824382
 10
223.00918494
 20
173.46410027
 10
223.07515577
 20
173.21614392
 10
223.1222716
 20
172.95440747
 10
223.15053744
 20
172.67892362
 10
223.15995827
 20
172.38972507
 10
223.15995827
 20
172.38972507
 10
223.1551766
 20
172.1992405
 10
223.14084494
 20
172.01559453
 10
223.11698327
 20
171.83879877
 10
223.0836116
 20
171.6688648
 10
223.04074994
 20
171.50580423
 10
222.98841827
 20
171.34962867
 10
222.9266366
 20
171.2003497
 10
222.85542494
 20
171.05797893
 10
222.77480327
 20
170.92252797
 10
222.6847916
 20
170.7940084
 10
222.6847916
 20
170.7940084
 10
222.5863506
 20
170.67341615
 10
222.4814036
 20
170.5633804
 10
222.3699146
 20
170.46388765
 10
222.2518476
 20
170.3749244
 10
222.1271666
 20
170.29647715
 10
221.9958356
 20
170.2285324
 10
221.8578186
 20
170.17107665
 10
221.7130796
 20
170.1240964
 10
221.5615826
 20
170.08757815
 10
221.4032916
 20
170.0615084
 10
221.4032916
 20
170.0615084
 10
223.82962494
 20
166.36204173
 10
223.82962494
 20
166.36204173
 10
220.16912494
 20
166.36204173
 10
220.16912494
 20
166.36204173
 10
218.5791416
 20
169.3593584
 10
218.5791416
 20
169.3593584
 10
218.5791416
 20
166.36204173
 10
218.5791416
 20
166.36204173
 10
215.3760916
 20
166.36204173
 10
215.3760916
 20
166.36204173
 10
215.3760916
 20
166.36204173
  0
HATCH
  5
47B
100
AcDbEntity
  8
MST_1_1
 62
   190
100
AcDbHatch
 10
0.0
 20
0.0
 30
0.0
210
0.0
220
0.0
230
1.0
  2
SOLID
 70
     1
 71
     1
 91
        1
 92
        7
 72
     0
 73
     1
 93
       47
 10
215.3760916
 20
166.36204173
 10
215.3760916
 20
175.4485584
 10
219.48635827
 20
175.4485584
 10
219.83509404
 20
175.44065777
 10
220.1670364
 20
175.41696533
 10
220.48217797
 20
175.3774953
 10
220.78051134
 20
175.32226187
 10
221.0620291
 20
175.25127923
 10
221.32672387
 20
175.1645616
 10
221.57458824
 20
175.06212317
 10
221.8056148
 20
174.94397813
 10
222.01979617
 20
174.8101407
 10
222.21712494
 20
174.66062507
 10
222.39633077
 20
174.49603602
 10
222.5566516
 20
174.31747067
 10
222.69809244
 20
174.12496172
 10
222.82065827
 20
173.91854187
 10
222.9243541
 20
173.69824382
 10
223.00918494
 20
173.46410027
 10
223.07515577
 20
173.21614392
 10
223.1222716
 20
172.95440747
 10
223.15053744
 20
172.67892362
 10
223.15995827
 20
172.38972507
 10
223.1551766
 20
172.1992405
 10
223.14084494
 20
172.01559453
 10
223.11698327
 20
171.83879877
 10
223.0836116
 20
171.6688648
 10
223.04074994
 20
171.50580423
 10
222.98841827
 20
171.34962867
 10
222.9266366
 20
171.2003497
 10
222.85542494
 20
171.05797893
 10
222.77480327
 20
170.92252797
 10
222.6847916
 20
170.7940084
 10
222.5863506
 20
170.67341615
 10
222.4814036
 20
170.5633804
 10
222.3699146
 20
170.46388765
 10
222.2518476
 20
170.3749244
 10
222.1271666
 20
170.29647715
 10
221.9958356
 20
170.2285324
 10
221.8578186
 20
170.17107665
 10
221.7130796
 20
170.1240964
 10
221.5615826
 20
170.08757815
 10
221.4032916
 20
170.0615084
 10
223.82962494
 20
166.36204173
 10
220.16912494
 20
166.36204173
 10
218.5791416
 20
169.3593584
 10
218.5791416
 20
166.36204173
 97
        1
330
47A
 75
     0
 76
     2
 47
0.775229
 98
        1
 10
0.0
 20
0.0
  0
LWPOLYLINE
  5
47C
102
{ACAD_REACTORS
330
47D
102
}
100
AcDbEntity
  8
MST_1_1
 62
    12
100
AcDbPolyline
 90
       52
 70
     1
 43
0.0
 10
218.5791416
 20
173.10992507
 10
218.5791416
 20
171.33487507
 10
218.5791416
 20
171.33487507
 10
219.08825827
 20
171.33487507
 10
219.08825827
 20
171.33487507
 10
219.17930472
 20
171.33714647
 10
219.26598387
 20
171.34395627
 10
219.34831042
 20
171.35529787
 10
219.42629907
 20
171.37116467
 10
219.49996452
 20
171.39155007
 10
219.56932147
 20
171.41644747
 10
219.63438462
 20
171.44585027
 10
219.69516867
 20
171.47975187
 10
219.75168832
 20
171.51814567
 10
219.80395827
 20
171.56102507
 10
219.80395827
 20
171.56102507
 10
219.85180244
 20
171.60810855
 10
219.8946316
 20
171.65913093
 10
219.93244077
 20
171.71409512
 10
219.96522494
 20
171.773004
 10
219.9929791
 20
171.83586048
 10
220.01569827
 20
171.90266747
 10
220.03337744
 20
171.97342785
 10
220.0460116
 20
172.04814453
 10
220.05359577
 20
172.12682042
 10
220.05612494
 20
172.2094584
 10
220.05612494
 20
172.2094584
 10
220.05359577
 20
172.2942972
 10
220.0460116
 20
172.3751268
 10
220.03337744
 20
172.451937
 10
220.01569827
 20
172.5247176
 10
219.9929791
 20
172.5934584
 10
219.96522494
 20
172.6581492
 10
219.93244077
 20
172.7187798
 10
219.8946316
 20
172.77534
 10
219.85180244
 20
172.8278196
 10
219.80395827
 20
172.8762084
 10
219.80395827
 20
172.8762084
 10
219.75168832
 20
172.92034457
 10
219.69516867
 20
172.95991973
 10
219.63438462
 20
172.9949139
 10
219.56932147
 20
173.02530707
 10
219.49996452
 20
173.05107923
 10
219.42629907
 20
173.0722104
 10
219.34831042
 20
173.08868057
 10
219.26598387
 20
173.10046973
 10
219.17930472
 20
173.1075579
 10
219.08825827
 20
173.10992507
 10
219.08825827
 20
173.10992507
 10
218.5791416
 20
173.10992507
 10
218.5791416
 20
173.10992507
 10
218.5791416
 20
173.10992507
  0
HATCH
  5
47D
100
AcDbEntity
  8
MST_1_1
 62
    12
100
AcDbHatch
 10
0.0
 20
0.0
 30
0.0
210
0.0
220
0.0
230
1.0
  2
SOLID
 70
     1
 71
     1
 91
        1
 92
        7
 72
     0
 73
     1
 93
       43
 10
218.5791416
 20
173.10992507
 10
218.5791416
 20
171.33487507
 10
219.08825827
 20
171.33487507
 10
219.17930472
 20
171.33714647
 10
219.26598387
 20
171.34395627
 10
219.34831042
 20
171.35529787
 10
219.42629907
 20
171.37116467
 10
219.49996452
 20
171.39155007
 10
219.56932147
 20
171.41644747
 10
219.63438462
 20
171.44585027
 10
219.69516867
 20
171.47975187
 10
219.75168832
 20
171.51814567
 10
219.80395827
 20
171.56102507
 10
219.85180244
 20
171.60810855
 10
219.8946316
 20
171.65913093
 10
219.93244077
 20
171.71409512
 10
219.96522494
 20
171.773004
 10
219.9929791
 20
171.83586048
 10
220.01569827
 20
171.90266747
 10
220.03337744
 20
171.97342785
 10
220.0460116
 20
172.04814453
 10
220.05359577
 20
172.12682042
 10
220.05612494
 20
172.2094584
 10
220.05359577
 20
172.2942972
 10
220.0460116
 20
172.3751268
 10
220.03337744
 20
172.451937
 10
220.01569827
 20
172.5247176
 10
219.9929791
 20
172.5934584
 10
219.96522494
 20
172.6581492
 10
219.93244077
 20
172.7187798
 10
219.8946316
 20
172.77534
 10
219.85180244
 20
172.8278196
 10
219.80395827
 20
172.8762084
 10
219.75168832
 20
172.92034457
 10
219.69516867
 20
172.95991973
 10
219.63438462
 20
172.9949139
 10
219.56932147
 20
173.02530707
 10
219.49996452
 20
173.05107923
 10
219.42629907
 20
173.0722104
 10
219.34831042
 20
173.08868057
 10
219.26598387
 20
173.10046973
 10
219.17930472
 20
173.1075579
 10
219.08825827
 20
173.10992507
 97
        1
330
47C
 75
     0
 76
     2
 47
0.775229
 98
        1
 10
0.0
 20
0.0
  0
LWPOLYLINE
  5
47E
102
{ACAD_REACTORS
330
47F
102
}
100
AcDbEntity
  8
MST_1_1
 62
   190
100
AcDbPolyline
 90
       56
 70
     1
 43
0.0
 10
206.3764916
 20
166.36204173
 10
206.3764916
 20
175.4485584
 10
206.3764916
 20
175.4485584
 10
210.28120827
 20
175.4485584
 10
210.28120827
 20
175.4485584
 10
210.68198442
 20
175.44060973
 10
211.06063547
 20
175.41676707
 10
211.41716532
 20
175.3770354
 10
211.75157787
 20
175.32141973
 10
212.06387702
 20
175.24992507
 10
212.35406667
 20
175.1625564
 10
212.62215072
 20
175.05931873
 10
212.86813307
 20
174.94021707
 10
213.09201762
 20
174.8052564
 10
213.29380827
 20
174.65444173
 10
213.29380827
 20
174.65444173
 10
213.47486347
 20
174.4860804
 10
213.63686787
 20
174.29919307
 10
213.77981967
 20
174.09375973
 10
213.90371707
 20
173.8697604
 10
214.00855827
 20
173.62717507
 10
214.09434147
 20
173.36598373
 10
214.16106487
 20
173.0861664
 10
214.20872667
 20
172.78770307
 10
214.23732507
 20
172.47057373
 10
214.24685827
 20
172.1347584
 10
214.24685827
 20
172.1347584
 10
214.23828837
 20
171.82176638
 10
214.21258507
 20
171.52610427
 10
214.16975797
 20
171.24777795
 10
214.10981667
 20
170.98679333
 10
214.03277077
 20
170.74315632
 10
213.93862987
 20
170.5168728
 10
213.82740357
 20
170.30794868
 10
213.69910147
 20
170.11638987
 10
213.55373317
 20
169.94220225
 10
213.39130827
 20
169.78539173
 10
213.39130827
 20
169.78539173
 10
213.2095556
 20
169.64483428
 10
213.00775294
 20
169.51902013
 10
212.78589327
 20
169.40796158
 10
212.5439696
 20
169.31167093
 10
212.28197494
 20
169.23016048
 10
211.99990227
 20
169.16344253
 10
211.6977446
 20
169.11152938
 10
211.37549494
 20
169.07443333
 10
211.03314627
 20
169.05216668
 10
210.6706916
 20
169.04474173
 10
210.6706916
 20
169.04474173
 10
209.6477416
 20
169.04474173
 10
209.6477416
 20
169.04474173
 10
209.6477416
 20
166.36204173
 10
209.6477416
 20
166.36204173
 10
206.3764916
 20
166.36204173
 10
206.3764916
 20
166.36204173
 10
206.3764916
 20
166.36204173
  0
HATCH
  5
47F
100
AcDbEntity
  8
MST_1_1
 62
   190
100
AcDbHatch
 10
0.0
 20
0.0
 30
0.0
210
0.0
220
0.0
230
1.0
  2
SOLID
 70
     1
 71
     1
 91
        1
 92
        7
 72
     0
 73
     1
 93
       45
 10
206.3764916
 20
166.36204173
 10
206.3764916
 20
175.4485584
 10
210.28120827
 20
175.4485584
 10
210.68198442
 20
175.44060973
 10
211.06063547
 20
175.41676707
 10
211.41716532
 20
175.3770354
 10
211.75157787
 20
175.32141973
 10
212.06387702
 20
175.24992507
 10
212.35406667
 20
175.1625564
 10
212.62215072
 20
175.05931873
 10
212.86813307
 20
174.94021707
 10
213.09201762
 20
174.8052564
 10
213.29380827
 20
174.65444173
 10
213.47486347
 20
174.4860804
 10
213.63686787
 20
174.29919307
 10
213.77981967
 20
174.09375973
 10
213.90371707
 20
173.8697604
 10
214.00855827
 20
173.62717507
 10
214.09434147
 20
173.36598373
 10
214.16106487
 20
173.0861664
 10
214.20872667
 20
172.78770307
 10
214.23732507
 20
172.47057373
 10
214.24685827
 20
172.1347584
 10
214.23828837
 20
171.82176638
 10
214.21258507
 20
171.52610427
 10
214.16975797
 20
171.24777795
 10
214.10981667
 20
170.98679333
 10
214.03277077
 20
170.74315632
 10
213.93862987
 20
170.5168728
 10
213.82740357
 20
170.30794868
 10
213.69910147
 20
170.11638987
 10
213.55373317
 20
169.94220225
 10
213.39130827
 20
169.78539173
 10
213.2095556
 20
169.64483428
 10
213.00775294
 20
169.51902013
 10
212.78589327
 20
169.40796158
 10
212.5439696
 20
169.31167093
 10
212.28197494
 20
169.23016048
 10
211.99990227
 20
169.16344253
 10
211.6977446
 20
169.11152938
 10
211.37549494
 20
169.07443333
 10
211.03314627
 20
169.05216668
 10
210.6706916
 20
169.04474173
 10
209.6477416
 20
169.04474173
 10
209.6477416
 20
166.36204173
 97
        1
330
47E
 75
     0
 76
     2
 47
0.775229
 98
        1
 10
0.0
 20
0.0
  0
LWPOLYLINE
  5
480
102
{ACAD_REACTORS
330
481
102
}
100
AcDbEntity
  8
MST_1_1
 62
    12
100
AcDbPolyline
 90
       52
 70
     1
 43
0.0
 10
209.66050827
 20
172.9230084
 10
209.66050827
 20
171.40844173
 10
209.66050827
 20
171.40844173
 10
210.16815827
 20
171.40844173
 10
210.16815827
 20
171.40844173
 10
210.25899639
 20
171.41041003
 10
210.3456012
 20
171.41630813
 10
210.42794342
 20
171.42612583
 10
210.50599374
 20
171.43985293
 10
210.57972285
 20
171.45747923
 10
210.64910147
 20
171.47899453
 10
210.71410029
 20
171.50438863
 10
210.77469
 20
171.53365133
 10
210.83084132
 20
171.56677243
 10
210.88252494
 20
171.60374173
 10
210.88252494
 20
171.60374173
 10
210.92959369
 20
171.6445591
 10
210.97172694
 20
171.68864667
 10
211.00892019
 20
171.73601263
 10
211.04116894
 20
171.7866652
 10
211.06846869
 20
171.84061257
 10
211.09081494
 20
171.89786293
 10
211.10820319
 20
171.9584245
 10
211.12062894
 20
172.02230547
 10
211.12808769
 20
172.08951403
 10
211.13057494
 20
172.1600584
 10
211.13057494
 20
172.1600584
 10
211.12804117
 20
172.23031608
 10
211.1204328
 20
172.29743187
 10
211.10773924
 20
172.36140985
 10
211.08994987
 20
172.42225413
 10
211.0670541
 20
172.47996882
 10
211.03904134
 20
172.534558
 10
211.00590097
 20
172.58602578
 10
210.9676224
 20
172.63437627
 10
210.92419504
 20
172.67961355
 10
210.87560827
 20
172.72174173
 10
210.87560827
 20
172.72174173
 10
210.82286237
 20
172.75977315
 10
210.76613907
 20
172.79386707
 10
210.70542997
 20
172.82400798
 10
210.64072667
 20
172.8501804
 10
210.57202077
 20
172.87236882
 10
210.49930387
 20
172.89055773
 10
210.42256757
 20
172.90473165
 10
210.34180347
 20
172.91487507
 10
210.25700317
 20
172.92097248
 10
210.16815827
 20
172.9230084
 10
210.16815827
 20
172.9230084
 10
209.66050827
 20
172.9230084
 10
209.66050827
 20
172.9230084
 10
209.66050827
 20
172.9230084
  0
HATCH
  5
481
100
AcDbEntity
  8
MST_1_1
 62
    12
100
AcDbHatch
 10
0.0
 20
0.0
 30
0.0
210
0.0
220
0.0
230
1.0
  2
SOLID
 70
     1
 71
     1
 91
        1
 92
        7
 72
     0
 73
     1
 93
       43
 10
209.66050827
 20
172.9230084
 10
209.66050827
 20
171.40844173
 10
210.16815827
 20
171.40844173
 10
210.25899639
 20
171.41041003
 10
210.3456012
 20
171.41630813
 10
210.42794342
 20
171.42612583
 10
210.50599374
 20
171.43985293
 10
210.57972285
 20
171.45747923
 10
210.64910147
 20
171.47899453
 10
210.71410029
 20
171.50438863
 10
210.77469
 20
171.53365133
 10
210.83084132
 20
171.56677243
 10
210.88252494
 20
171.60374173
 10
210.92959369
 20
171.6445591
 10
210.97172694
 20
171.68864667
 10
211.00892019
 20
171.73601263
 10
211.04116894
 20
171.7866652
 10
211.06846869
 20
171.84061257
 10
211.09081494
 20
171.89786293
 10
211.10820319
 20
171.9584245
 10
211.12062894
 20
172.02230547
 10
211.12808769
 20
172.08951403
 10
211.13057494
 20
172.1600584
 10
211.12804117
 20
172.23031608
 10
211.1204328
 20
172.29743187
 10
211.10773924
 20
172.36140985
 10
211.08994987
 20
172.42225413
 10
211.0670541
 20
172.47996882
 10
211.03904134
 20
172.534558
 10
211.00590097
 20
172.58602578
 10
210.9676224
 20
172.63437627
 10
210.92419504
 20
172.67961355
 10
210.87560827
 20
172.72174173
 10
210.82286237
 20
172.75977315
 10
210.76613907
 20
172.79386707
 10
210.70542997
 20
172.82400798
 10
210.64072667
 20
172.8501804
 10
210.57202077
 20
172.87236882
 10
210.49930387
 20
172.89055773
 10
210.42256757
 20
172.90473165
 10
210.34180347
 20
172.91487507
 10
210.25700317
 20
172.92097248
 10
210.16815827
 20
172.9230084
 97
        1
330
480
 75
     0
 76
     2
 47
0.775229
 98
        1
 10
0.0
 20
0.0
  0
LWPOLYLINE
  5
482
102
{ACAD_REACTORS
330
483
102
}
100
AcDbEntity
  8
MST_1_1
 62
    12
100
AcDbPolyline
 90
       10
 70
     1
 43
0.0
 10
247.42295827
 20
166.36204173
 10
247.42295827
 20
175.4485584
 10
247.42295827
 20
175.4485584
 10
251.8907916
 20
175.4485584
 10
251.8907916
 20
175.4485584
 10
251.8907916
 20
166.36204173
 10
251.8907916
 20
166.36204173
 10
247.42295827
 20
166.36204173
 10
247.42295827
 20
166.36204173
 10
247.42295827
 20
166.36204173
  0
HATCH
  5
483
100
AcDbEntity
  8
MST_1_1
 62
    12
100
AcDbHatch
 10
0.0
 20
0.0
 30
0.0
210
0.0
220
0.0
230
1.0
  2
SOLID
 70
     1
 71
     1
 91
        1
 92
        7
 72
     0
 73
     1
 93
        4
 10
247.42295827
 20
166.36204173
 10
247.42295827
 20
175.4485584
 10
251.8907916
 20
175.4485584
 10
251.8907916
 20
166.36204173
 97
        1
330
482
 75
     0
 76
     2
 47
0.775229
 98
        1
 10
0.0
 20
0.0
  0
LWPOLYLINE
  5
484
102
{ACAD_REACTORS
330
485
102
}
100
AcDbEntity
  8
MST_1_1
 62
    12
100
AcDbPolyline
 90
      114
 70
     1
 43
0.0
 10
259.64012494
 20
168.4231584
 10
259.60577094
 20
168.47797675
 10
259.57321294
 20
168.5305272
 10
259.54245694
 20
168.58083285
 10
259.51350894
 20
168.6289168
 10
259.48637494
 20
168.67480215
 10
259.46106094
 20
168.718512
 10
259.43757294
 20
168.76006945
 10
259.41591694
 20
168.7994976
 10
259.39609894
 20
168.83681955
 10
259.37812494
 20
168.8720584
 10
259.37812494
 20
168.8720584
 10
259.36082227
 20
168.90600957
 10
259.3445036
 20
168.93921973
 10
259.32915294
 20
168.9716989
 10
259.31475427
 20
169.00345707
 10
259.3012916
 20
169.03450423
 10
259.28874894
 20
169.0648504
 10
259.27711027
 20
169.09450557
 10
259.2663596
 20
169.12347973
 10
259.25648094
 20
169.1517829
 10
259.24745827
 20
169.17942507
 10
259.24745827
 20
169.17942507
 10
259.23979394
 20
169.15322108
 10
259.2313636
 20
169.1264572
 10
259.22211127
 20
169.09913052
 10
259.21198094
 20
169.07123813
 10
259.2009166
 20
169.04277715
 10
259.18886227
 20
169.01374467
 10
259.17576194
 20
168.98413778
 10
259.1615596
 20
168.9539536
 10
259.14619927
 20
168.92318922
 10
259.12962494
 20
168.89184173
 10
259.12962494
 20
168.89184173
 10
259.1122886
 20
168.85843575
 10
259.09229427
 20
168.82199787
 10
259.06966394
 20
168.78254318
 10
259.0444196
 20
168.7400868
 10
259.01658327
 20
168.69464382
 10
258.98617694
 20
168.64622933
 10
258.9532226
 20
168.59485845
 10
258.91774227
 20
168.54054627
 10
258.87975794
 20
168.48330788
 10
258.8392916
 20
168.4231584
 10
258.8392916
 20
168.4231584
 10
257.44962494
 20
166.36204173
 10
257.44962494
 20
166.36204173
 10
252.42195827
 20
166.36204173
 10
252.42195827
 20
166.36204173
 10
256.7647916
 20
171.2020584
 10
256.7647916
 20
171.2020584
 10
252.9327916
 20
175.4485584
 10
252.9327916
 20
175.4485584
 10
257.9522916
 20
175.4485584
 10
257.9522916
 20
175.4485584
 10
258.85562494
 20
173.96547507
 10
258.85562494
 20
173.96547507
 10
258.85845094
 20
173.95996198
 10
258.86181294
 20
173.9538644
 10
258.86568694
 20
173.94718482
 10
258.87004894
 20
173.93992573
 10
258.87487494
 20
173.93208965
 10
258.88014094
 20
173.92367907
 10
258.88582294
 20
173.91469648
 10
258.89189694
 20
173.9051444
 10
258.89833894
 20
173.89502532
 10
258.90512494
 20
173.88434173
 10
258.90512494
 20
173.88434173
 10
258.95386027
 20
173.80168882
 10
258.9993676
 20
173.7224404
 10
259.04164894
 20
173.64661198
 10
259.08070627
 20
173.57421907
 10
259.1165416
 20
173.50527715
 10
259.14915694
 20
173.43980173
 10
259.17855427
 20
173.37780832
 10
259.2047356
 20
173.3193124
 10
259.22770294
 20
173.26432948
 10
259.24745827
 20
173.21287507
 10
259.24745827
 20
173.21287507
 10
259.25957194
 20
173.24551837
 10
259.2722276
 20
173.27826747
 10
259.28544727
 20
173.31113617
 10
259.29925294
 20
173.34413827
 10
259.3136666
 20
173.37728757
 10
259.32871027
 20
173.41059787
 10
259.34440594
 20
173.44408297
 10
259.3607756
 20
173.47775667
 10
259.37784127
 20
173.51163277
 10
259.39562494
 20
173.54572507
 10
259.39562494
 20
173.54572507
 10
259.41291127
 20
173.58080742
 10
259.4315356
 20
173.61744787
 10
259.45144594
 20
173.65563652
 10
259.47259027
 20
173.69536347
 10
259.4949166
 20
173.73661882
 10
259.51837294
 20
173.77939267
 10
259.54290727
 20
173.82367512
 10
259.5684676
 20
173.86945627
 10
259.59500194
 20
173.91672622
 10
259.62245827
 20
173.96547507
 10
259.62245827
 20
173.96547507
 10
260.54995827
 20
175.4485584
 10
260.54995827
 20
175.4485584
 10
265.54662494
 20
175.4485584
 10
265.54662494
 20
175.4485584
 10
261.7272916
 20
171.2020584
 10
261.7272916
 20
171.2020584
 10
266.07495827
 20
166.36204173
 10
266.07495827
 20
166.36204173
 10
261.0427916
 20
166.36204173
 10
261.0427916
 20
166.36204173
 10
259.64012494
 20
168.4231584
 10
259.64012494
 20
168.4231584
 10
259.64012494
 20
168.4231584
  0
HATCH
  5
485
100
AcDbEntity
  8
MST_1_1
 62
    12
100
AcDbHatch
 10
0.0
 20
0.0
 30
0.0
210
0.0
220
0.0
230
1.0
  2
SOLID
 70
     1
 71
     1
 91
        1
 92
        7
 72
     0
 73
     1
 93
       92
 10
259.64012494
 20
168.4231584
 10
259.60577094
 20
168.47797675
 10
259.57321294
 20
168.5305272
 10
259.54245694
 20
168.58083285
 10
259.51350894
 20
168.6289168
 10
259.48637494
 20
168.67480215
 10
259.46106094
 20
168.718512
 10
259.43757294
 20
168.76006945
 10
259.41591694
 20
168.7994976
 10
259.39609894
 20
168.83681955
 10
259.37812494
 20
168.8720584
 10
259.36082227
 20
168.90600957
 10
259.3445036
 20
168.93921973
 10
259.32915294
 20
168.9716989
 10
259.31475427
 20
169.00345707
 10
259.3012916
 20
169.03450423
 10
259.28874894
 20
169.0648504
 10
259.27711027
 20
169.09450557
 10
259.2663596
 20
169.12347973
 10
259.25648094
 20
169.1517829
 10
259.24745827
 20
169.17942507
 10
259.23979394
 20
169.15322108
 10
259.2313636
 20
169.1264572
 10
259.22211127
 20
169.09913052
 10
259.21198094
 20
169.07123813
 10
259.2009166
 20
169.04277715
 10
259.18886227
 20
169.01374467
 10
259.17576194
 20
168.98413778
 10
259.1615596
 20
168.9539536
 10
259.14619927
 20
168.92318922
 10
259.12962494
 20
168.89184173
 10
259.1122886
 20
168.85843575
 10
259.09229427
 20
168.82199787
 10
259.06966394
 20
168.78254318
 10
259.0444196
 20
168.7400868
 10
259.01658327
 20
168.69464382
 10
258.98617694
 20
168.64622933
 10
258.9532226
 20
168.59485845
 10
258.91774227
 20
168.54054627
 10
258.87975794
 20
168.48330788
 10
258.8392916
 20
168.4231584
 10
257.44962494
 20
166.36204173
 10
252.42195827
 20
166.36204173
 10
256.7647916
 20
171.2020584
 10
252.9327916
 20
175.4485584
 10
257.9522916
 20
175.4485584
 10
258.85562494
 20
173.96547507
 10
258.85845094
 20
173.95996198
 10
258.86181294
 20
173.9538644
 10
258.86568694
 20
173.94718482
 10
258.87004894
 20
173.93992573
 10
258.87487494
 20
173.93208965
 10
258.88014094
 20
173.92367907
 10
258.88582294
 20
173.91469648
 10
258.89189694
 20
173.9051444
 10
258.89833894
 20
173.89502532
 10
258.90512494
 20
173.88434173
 10
258.95386027
 20
173.80168882
 10
258.9993676
 20
173.7224404
 10
259.04164894
 20
173.64661198
 10
259.08070627
 20
173.57421907
 10
259.1165416
 20
173.50527715
 10
259.14915694
 20
173.43980173
 10
259.17855427
 20
173.37780832
 10
259.2047356
 20
173.3193124
 10
259.22770294
 20
173.26432948
 10
259.24745827
 20
173.21287507
 10
259.25957194
 20
173.24551837
 10
259.2722276
 20
173.27826747
 10
259.28544727
 20
173.31113617
 10
259.29925294
 20
173.34413827
 10
259.3136666
 20
173.37728757
 10
259.32871027
 20
173.41059787
 10
259.34440594
 20
173.44408297
 10
259.3607756
 20
173.47775667
 10
259.37784127
 20
173.51163277
 10
259.39562494
 20
173.54572507
 10
259.41291127
 20
173.58080742
 10
259.4315356
 20
173.61744787
 10
259.45144594
 20
173.65563652
 10
259.47259027
 20
173.69536347
 10
259.4949166
 20
173.73661882
 10
259.51837294
 20
173.77939267
 10
259.54290727
 20
173.82367512
 10
259.5684676
 20
173.86945627
 10
259.59500194
 20
173.91672622
 10
259.62245827
 20
173.96547507
 10
260.54995827
 20
175.4485584
 10
265.54662494
 20
175.4485584
 10
261.7272916
 20
171.2020584
 10
266.07495827
 20
166.36204173
 10
261.0427916
 20
166.36204173
 97
        1
330
484
 75
     0
 76
     2
 47
0.775229
 98
        1
 10
0.0
 20
0.0
  0
LWPOLYLINE
  5
486
102
{ACAD_REACTORS
330
487
102
}
100
AcDbEntity
  8
MST_1_1
 62
     7
100
AcDbPolyline
 90
       46
 70
     1
 43
0.0
 10
270.39012494
 20
181.5746084
 10
270.50265544
 20
181.5654949
 10
270.60956894
 20
181.5391204
 10
270.70939844
 20
181.4969339
 10
270.80067694
 20
181.4403844
 10
270.88193744
 20
181.3709209
 10
270.95171294
 20
181.2899924
 10
271.00853644
 20
181.1990479
 10
271.05094094
 20
181.0995364
 10
271.07745944
 20
180.9929069
 10
271.08662494
 20
180.8806084
 10
271.08662494
 20
180.8806084
 10
271.07745944
 20
180.76845473
 10
271.05094094
 20
180.66195907
 10
271.00853644
 20
180.5625694
 10
270.95171294
 20
180.47173373
 10
270.88193744
 20
180.39090007
 10
270.80067694
 20
180.3215164
 10
270.70939844
 20
180.26503073
 10
270.60956894
 20
180.22289107
 10
270.50265544
 20
180.1965454
 10
270.39012494
 20
180.18744173
 10
270.39012494
 20
180.18744173
 10
270.2770041
 20
180.1965454
 10
270.16969827
 20
180.22289107
 10
270.06964244
 20
180.26503073
 10
269.9782716
 20
180.3215164
 10
269.89702077
 20
180.39090007
 10
269.82732494
 20
180.47173373
 10
269.7706191
 20
180.5625694
 10
269.72833827
 20
180.66195907
 10
269.70191744
 20
180.76845473
 10
269.6927916
 20
180.8806084
 10
269.6927916
 20
180.8806084
 10
269.70191744
 20
180.9929069
 10
269.72833827
 20
181.0995364
 10
269.7706191
 20
181.1990479
 10
269.82732494
 20
181.2899924
 10
269.89702077
 20
181.3709209
 10
269.9782716
 20
181.4403844
 10
270.06964244
 20
181.4969339
 10
270.16969827
 20
181.5391204
 10
270.2770041
 20
181.5654949
 10
270.39012494
 20
181.5746084
 10
270.39012494
 20
181.5746084
 10
270.39012494
 20
181.5746084
  0
HATCH
  5
487
100
AcDbEntity
  8
MST_1_1
 62
     7
100
AcDbHatch
 10
0.0
 20
0.0
 30
0.0
210
0.0
220
0.0
230
1.0
  2
SOLID
 70
     1
 71
     1
 91
        1
 92
        7
 72
     0
 73
     1
 93
       40
 10
270.39012494
 20
181.5746084
 10
270.50265544
 20
181.5654949
 10
270.60956894
 20
181.5391204
 10
270.70939844
 20
181.4969339
 10
270.80067694
 20
181.4403844
 10
270.88193744
 20
181.3709209
 10
270.95171294
 20
181.2899924
 10
271.00853644
 20
181.1990479
 10
271.05094094
 20
181.0995364
 10
271.07745944
 20
180.9929069
 10
271.08662494
 20
180.8806084
 10
271.07745944
 20
180.76845473
 10
271.05094094
 20
180.66195907
 10
271.00853644
 20
180.5625694
 10
270.95171294
 20
180.47173373
 10
270.88193744
 20
180.39090007
 10
270.80067694
 20
180.3215164
 10
270.70939844
 20
180.26503073
 10
270.60956894
 20
180.22289107
 10
270.50265544
 20
180.1965454
 10
270.39012494
 20
180.18744173
 10
270.2770041
 20
180.1965454
 10
270.16969827
 20
180.22289107
 10
270.06964244
 20
180.26503073
 10
269.9782716
 20
180.3215164
 10
269.89702077
 20
180.39090007
 10
269.82732494
 20
180.47173373
 10
269.7706191
 20
180.5625694
 10
269.72833827
 20
180.66195907
 10
269.70191744
 20
180.76845473
 10
269.6927916
 20
180.8806084
 10
269.70191744
 20
180.9929069
 10
269.72833827
 20
181.0995364
 10
269.7706191
 20
181.1990479
 10
269.82732494
 20
181.2899924
 10
269.89702077
 20
181.3709209
 10
269.9782716
 20
181.4403844
 10
270.06964244
 20
181.4969339
 10
270.16969827
 20
181.5391204
 10
270.2770041
 20
181.5654949
 97
        1
330
486
 75
     0
 76
     2
 47
0.775229
 98
        1
 10
0.0
 20
0.0
  0
LWPOLYLINE
  5
488
102
{ACAD_REACTORS
330
489
102
}
100
AcDbEntity
  8
MST_1_1
 62
    12
100
AcDbPolyline
 90
       29
 70
     1
 43
0.0
 10
270.07045827
 20
181.3626084
 10
270.07045827
 20
180.45594173
 10
270.07045827
 20
180.45594173
 10
270.20462494
 20
180.45594173
 10
270.20462494
 20
180.45594173
 10
270.20462494
 20
180.86294173
 10
270.20462494
 20
180.86294173
 10
270.38295827
 20
180.86294173
 10
270.38295827
 20
180.86294173
 10
270.6422916
 20
180.46194173
 10
270.6422916
 20
180.46194173
 10
270.77845827
 20
180.46194173
 10
270.77845827
 20
180.46194173
 10
270.51962494
 20
180.87027507
 10
270.51962494
 20
180.87027507
 10
270.60821194
 20
180.88869673
 10
270.67788094
 20
180.9288484
 10
270.72834394
 20
180.98516007
 10
270.75931294
 20
181.05206173
 10
270.77049994
 20
181.1239834
 10
270.76161694
 20
181.19535507
 10
270.73237594
 20
181.26060673
 10
270.68248894
 20
181.3141684
 10
270.61166794
 20
181.35047007
 10
270.51962494
 20
181.36394173
 10
270.51962494
 20
181.36394173
 10
270.07045827
 20
181.3626084
 10
270.07045827
 20
181.3626084
 10
270.07045827
 20
181.3626084
  0
HATCH
  5
489
100
AcDbEntity
  8
MST_1_1
 62
    12
100
AcDbHatch
 10
0.0
 20
0.0
 30
0.0
210
0.0
220
0.0
230
1.0
  2
SOLID
 70
     1
 71
     1
 91
        1
 92
        7
 72
     0
 73
     1
 93
       18
 10
270.07045827
 20
181.3626084
 10
270.07045827
 20
180.45594173
 10
270.20462494
 20
180.45594173
 10
270.20462494
 20
180.86294173
 10
270.38295827
 20
180.86294173
 10
270.6422916
 20
180.46194173
 10
270.77845827
 20
180.46194173
 10
270.51962494
 20
180.87027507
 10
270.60821194
 20
180.88869673
 10
270.67788094
 20
180.9288484
 10
270.72834394
 20
180.98516007
 10
270.75931294
 20
181.05206173
 10
270.77049994
 20
181.1239834
 10
270.76161694
 20
181.19535507
 10
270.73237594
 20
181.26060673
 10
270.68248894
 20
181.3141684
 10
270.61166794
 20
181.35047007
 10
270.51962494
 20
181.36394173
 97
        1
330
488
 75
     0
 76
     2
 47
0.775229
 98
        1
 10
0.0
 20
0.0
  0
LWPOLYLINE
  5
48A
102
{ACAD_REACTORS
330
48B
102
}
100
AcDbEntity
  8
MST_1_1
 62
     7
100
AcDbPolyline
 90
       19
 70
     1
 43
0.0
 10
270.20462494
 20
181.25944173
 10
270.20462494
 20
180.96877507
 10
270.20462494
 20
180.96877507
 10
270.50595827
 20
180.9696084
 10
270.50595827
 20
180.9696084
 10
270.55893677
 20
180.98145873
 10
270.60040627
 20
181.00583107
 10
270.63026777
 20
181.0394574
 10
270.64842227
 20
181.07906973
 10
270.65477077
 20
181.12140007
 10
270.64921427
 20
181.1631804
 10
270.63165377
 20
181.20114273
 10
270.60199027
 20
181.23201907
 10
270.56012477
 20
181.2525414
 10
270.50595827
 20
181.25944173
 10
270.50595827
 20
181.25944173
 10
270.20462494
 20
181.25944173
 10
270.20462494
 20
181.25944173
 10
270.20462494
 20
181.25944173
  0
HATCH
  5
48B
100
AcDbEntity
  8
MST_1_1
 62
     7
100
AcDbHatch
 10
0.0
 20
0.0
 30
0.0
210
0.0
220
0.0
230
1.0
  2
SOLID
 70
     1
 71
     1
 91
        1
 92
        7
 72
     0
 73
     1
 93
       13
 10
270.20462494
 20
181.25944173
 10
270.20462494
 20
180.96877507
 10
270.50595827
 20
180.9696084
 10
270.55893677
 20
180.98145873
 10
270.60040627
 20
181.00583107
 10
270.63026777
 20
181.0394574
 10
270.64842227
 20
181.07906973
 10
270.65477077
 20
181.12140007
 10
270.64921427
 20
181.1631804
 10
270.63165377
 20
181.20114273
 10
270.60199027
 20
181.23201907
 10
270.56012477
 20
181.2525414
 10
270.50595827
 20
181.25944173
 97
        1
330
48A
 75
     0
 76
     2
 47
0.775229
 98
        1
 10
0.0
 20
0.0
  0
TEXT
  5
48C
100
AcDbEntity
  8
MST_1_1
 62
     7
100
AcDbText
 10
52.93749597
 20
28.54545025
 30
0.0
 40
5.0
  1
50
  7
ARIAL
 50
89.9999975
 41
0.8
 51
0.0
100
AcDbText
  0
TEXT
  5
48D
100
AcDbEntity
  8
MST_1_1
 62
     7
100
AcDbText
 10
42.93749597
 20
28.54545025
 30
0.0
 40
5.0
  1
40
  7
ARIAL
 50
89.9999975
 41
0.8
 51
0.0
100
AcDbText
  0
TEXT
  5
48E
100
AcDbEntity
  8
MST_1_1
 62
     7
100
AcDbText
 10
37.93749597
 20
18.54545025
 30
0.0
 40
5.0
  1
35
  7
ARIAL
 50
89.9999975
 41
0.8
 51
0.0
100
AcDbText
  0
TEXT
  5
48F
100
AcDbEntity
  8
MST_1_1
 62
     7
100
AcDbText
 10
32.93749597
 20
28.54545025
 30
0.0
 40
5.0
  1
30
  7
ARIAL
 50
89.9999975
 41
0.8
 51
0.0
100
AcDbText
  0
TEXT
  5
490
100
AcDbEntity
  8
MST_1_1
 62
     7
100
AcDbText
 10
22.93749597
 20
28.54545025
 30
0.0
 40
5.0
  1
20
  7
ARIAL
 50
89.9999975
 41
0.8
 51
0.0
100
AcDbText
  0
TEXT
  5
491
100
AcDbEntity
  8
MST_1_1
 62
     7
100
AcDbText
 10
27.93749597
 20
18.54545025
 30
0.0
 40
5.0
  1
25
  7
ARIAL
 50
89.9999975
 41
0.8
 51
0.0
100
AcDbText
  0
TEXT
  5
492
100
AcDbEntity
  8
MST_1_1
 62
     7
100
AcDbText
 10
18.93749597
 20
18.54545025
 30
0.0
 40
5.0
  1
16
  7
ARIAL
 50
89.9999975
 41
0.8
 51
0.0
100
AcDbText
  0
TEXT
  5
493
100
AcDbEntity
  8
MST_1_1
 62
     7
100
AcDbText
 10
-74.34408066
 20
6.04545025
 30
0.0
 40
5.0
  1
HECO-FIX-plus SK 4.5x16
  7
ARIAL
 50
0.0
 41
0.8
 51
0.0
100
AcDbText
  0
TEXT
  5
494
100
AcDbEntity
  8
MST_1_1
 62
     7
100
AcDbText
 10
-74.34408066
 20
-23.95454975
 30
0.0
 40
5.0
  1
HECO-FIX-plus SK 4.5x20
  7
ARIAL
 50
0.0
 41
0.8
 51
0.0
100
AcDbText
  0
TEXT
  5
495
100
AcDbEntity
  8
MST_1_1
 62
     7
100
AcDbText
 10
-74.34408066
 20
-53.95454975
 30
0.0
 40
5.0
  1
HECO-FIX-plus SK 4.5x25
  7
ARIAL
 50
0.0
 41
0.8
 51
0.0
100
AcDbText
  0
TEXT
  5
496
100
AcDbEntity
  8
MST_1_1
 62
     7
100
AcDbText
 10
-74.34408066
 20
-83.95454975
 30
0.0
 40
5.0
  1
HECO-FIX-plus SK 4.5x30
  7
ARIAL
 50
0.0
 41
0.8
 51
0.0
100
AcDbText
  0
TEXT
  5
497
100
AcDbEntity
  8
MST_1_1
 62
     7
100
AcDbText
 10
-74.34408066
 20
-113.95454975
 30
0.0
 40
5.0
  1
HECO-FIX-plus SK 4.5x35
  7
ARIAL
 50
0.0
 41
0.8
 51
0.0
100
AcDbText
  0
TEXT
  5
498
100
AcDbEntity
  8
MST_1_1
 62
     7
100
AcDbText
 10
-74.34408066
 20
-143.95454975
 30
0.0
 40
5.0
  1
HECO-FIX-plus SK 4.5x40
  7
ARIAL
 50
0.0
 41
0.8
 51
0.0
100
AcDbText
  0
TEXT
  5
499
100
AcDbEntity
  8
MST_1_1
 62
     7
100
AcDbText
 10
-74.34408066
 20
-173.95454975
 30
0.0
 40
5.0
  1
HECO-FIX-plus SK 4.5x45
  7
ARIAL
 50
0.0
 41
0.8
 51
0.0
100
AcDbText
  0
TEXT
  5
49A
100
AcDbEntity
  8
MST_1_1
 62
     7
100
AcDbText
 10
47.93749597
 20
18.54545025
 30
0.0
 40
5.0
  1
45
  7
ARIAL
 50
89.9999975
 41
0.8
 51
0.0
100
AcDbText
  0
TEXT
  5
49B
100
AcDbEntity
  8
MST_1_1
 62
     7
100
AcDbText
 10
-74.34408066
 20
-203.95454975
 30
0.0
 40
5.0
  1
HECO-FIX-plus SK 4.5x50
  7
ARIAL
 50
0.0
 41
0.8
 51
0.0
100
AcDbText
  0
TEXT
  5
49C
100
AcDbEntity
  8
MST_1_1
 62
     7
100
AcDbText
 10
57.93749597
 20
18.54545025
 30
0.0
 40
5.0
  1
55
  7
ARIAL
 50
89.9999975
 41
0.8
 51
0.0
100
AcDbText
  0
TEXT
  5
49D
100
AcDbEntity
  8
MST_1_1
 62
     7
100
AcDbText
 10
62.93749597
 20
28.54545025
 30
0.0
 40
5.0
  1
60
  7
ARIAL
 50
89.9999975
 41
0.8
 51
0.0
100
AcDbText
  0
TEXT
  5
49E
100
AcDbEntity
  8
MST_1_1
 62
     7
100
AcDbText
 10
-74.34408066
 20
-233.95454975
 30
0.0
 40
5.0
  1
HECO-FIX-plus SK 4.5x55
  7
ARIAL
 50
0.0
 41
0.8
 51
0.0
100
AcDbText
  0
TEXT
  5
49F
100
AcDbEntity
  8
MST_1_1
 62
     7
100
AcDbText
 10
-74.34408066
 20
-263.95454975
 30
0.0
 40
5.0
  1
HECO-FIX-plus SK 4.5x60
  7
ARIAL
 50
0.0
 41
0.8
 51
0.0
100
AcDbText
  0
TEXT
  5
4A0
100
AcDbEntity
  8
MST_1_1
 62
     7
100
AcDbText
 10
-129.88021404
 20
6.04545025
 30
0.0
 40
5.0
  1
T-Drive T25
  7
ARIAL
 50
0.0
 41
0.8
 51
0.0
100
AcDbText
  0
TEXT
  5
4A1
100
AcDbEntity
  8
MST_1_1
 62
     7
100
AcDbText
 10
-129.88021404
 20
-23.95454975
 30
0.0
 40
5.0
  1
T-Drive T25
  7
ARIAL
 50
0.0
 41
0.8
 51
0.0
100
AcDbText
  0
TEXT
  5
4A2
100
AcDbEntity
  8
MST_1_1
 62
     7
100
AcDbText
 10
-129.88021404
 20
-53.95454975
 30
0.0
 40
5.0
  1
T-Drive T25
  7
ARIAL
 50
0.0
 41
0.8
 51
0.0
100
AcDbText
  0
TEXT
  5
4A3
100
AcDbEntity
  8
MST_1_1
 62
     7
100
AcDbText
 10
-129.88021404
 20
-83.95454975
 30
0.0
 40
5.0
  1
T-Drive T25
  7
ARIAL
 50
0.0
 41
0.8
 51
0.0
100
AcDbText
  0
TEXT
  5
4A4
100
AcDbEntity
  8
MST_1_1
 62
     7
100
AcDbText
 10
-129.88021404
 20
-113.95454975
 30
0.0
 40
5.0
  1
T-Drive T25
  7
ARIAL
 50
0.0
 41
0.8
 51
0.0
100
AcDbText
  0
TEXT
  5
4A5
100
AcDbEntity
  8
MST_1_1
 62
     7
100
AcDbText
 10
-129.88021404
 20
-143.95454975
 30
0.0
 40
5.0
  1
T-Drive T25
  7
ARIAL
 50
0.0
 41
0.8
 51
0.0
100
AcDbText
  0
TEXT
  5
4A6
100
AcDbEntity
  8
MST_1_1
 62
     7
100
AcDbText
 10
-129.88021404
 20
-173.95454975
 30
0.0
 40
5.0
  1
T-Drive T25
  7
ARIAL
 50
0.0
 41
0.8
 51
0.0
100
AcDbText
  0
TEXT
  5
4A7
100
AcDbEntity
  8
MST_1_1
 62
     7
100
AcDbText
 10
-129.88021404
 20
-203.95454975
 30
0.0
 40
5.0
  1
T-Drive T25
  7
ARIAL
 50
0.0
 41
0.8
 51
0.0
100
AcDbText
  0
TEXT
  5
4A8
100
AcDbEntity
  8
MST_1_1
 62
     7
100
AcDbText
 10
-129.88021404
 20
-233.95454975
 30
0.0
 40
5.0
  1
T-Drive T25
  7
ARIAL
 50
0.0
 41
0.8
 51
0.0
100
AcDbText
  0
TEXT
  5
4A9
100
AcDbEntity
  8
MST_1_1
 62
     7
100
AcDbText
 10
-129.88021404
 20
-263.95454975
 30
0.0
 40
5.0
  1
T-Drive T25
  7
ARIAL
 50
0.0
 41
0.8
 51
0.0
100
AcDbText
  0
ENDSEC
  0
SECTION
  2
OBJECTS
  0
DICTIONARY
  5
1
100
AcDbDictionary
  3
ACAD_GROUP
350
2
  3
ACAD_MLINESTYLE
350
3
  0
DICTIONARY
  5
2
102
{CDWK_REACTORS
330
1
102
}
100
AcDbDictionary
  0
DICTIONARY
  5
3
102
{CDWK_REACTORS
330
1
102
}
100
AcDbDictionary
  3
STANDARD
350
4
  0
MLINESTYLE
  5
4
102
{CDWK_REACTORS
330
3
102
}
100
AcDbMlineStyle
  2
STANDARD
 70
     0
  3

 62
     0
 51
90.0
 52
90.0
 71
     2
 49
0.5
 62
   256
  6
BYLAYER
 49
-0.5
 62
   256
  6
BYLAYER
  0
ENDSEC
  0
EOF
