  0
SECTION
  2
HEADER
  9
$ACADVER
  1
AC1012
  9
$DWGCODEPAGE
  3
ANSI_1252
  9
$INSBASE
 10
0.0
 20
0.0
 30
0.0
  9
$EXTMIN
 10
-141.24265164
 20
-394.11431347
  9
$EXTMAX
 10
280.50361366
 20
186.05440682
  9
$LIMMIN
 10
-141.24265164
 20
-394.11431347
  9
$LIMMAX
 10
280.50361366
 20
186.05440682
  9
$ORTHOMODE
 70
     0
  9
$REGENMODE
 70
     1
  9
$FILLMODE
 70
     1
  9
$QTEXTMODE
 70
     0
  9
$MIRRTEXT
 70
     1
  9
$DRAGMODE
 70
     2
  9
$LTSCALE
 40
1.0
  9
$OSMODE
 70
     0
  9
$ATTMODE
 70
     1
  9
$TEXTSIZE
 40
3.5
  9
$TRACEWID
 40
1.0
  9
$TEXTSTYLE
  7
STANDARD
  9
$CLAYER
  8
0
  9
$CELTYPE
  6
BYLAYER
  9
$CECOLOR
 62
   256
  9
$DIMSCALE
 40
1.0
  9
$DIMASZ
 40
2.0
  9
$DIMEXO
 40
5.0
  9
$DIMDLI
 40
10.0
  9
$DIMRND
 40
0.0
  9
$DIMDLE
 40
2.0
  9
$DIMEXE
 40
2.0
  9
$DIMTP
 40
0.0
  9
$DIMTM
 40
0.0
  9
$DIMTXT
 40
2.5
  9
$DIMCEN
 40
1.5
  9
$DIMTSZ
 40
0.0
  9
$DIMTOL
 70
     0
  9
$DIMLIM
 70
     0
  9
$DIMTIH
 70
     1
  9
$DIMTOH
 70
     0
  9
$DIMSE1
 70
     0
  9
$DIMSE2
 70
     0
  9
$DIMTAD
 70
     1
  9
$DIMZIN
 70
     8
  9
$DIMBLK
  1

  9
$DIMASO
 70
     1
  9
$DIMSHO
 70
     1
  9
$DIMPOST
  1

  9
$DIMAPOST
  1

  9
$DIMALT
 70
     0
  9
$DIMALTD
 70
     2
  9
$DIMALTF
 40
25.4
  9
$DIMLFAC
 40
1.0
  9
$DIMTOFL
 70
     0
  9
$DIMTVP
 40
0.0
  9
$DIMTIX
 70
     0
  9
$DIMSOXD
 70
     0
  9
$DIMSAH
 70
     0
  9
$DIMBLK1
  1

  9
$DIMBLK2
  1

  9
$DIMSTYLE
  2
*UNNAMED
  9
$DIMCLRD
 70
     9
  9
$DIMCLRE
 70
     9
  9
$DIMCLRT
 70
     7
  9
$DIMTFAC
 40
1.0
  9
$DIMGAP
 40
0.09
  9
$DIMUNIT
 70
     2
  9
$LUNITS
 70
     2
  9
$LUPREC
 70
     6
  9
$AXISMODE
 70
     0
  9
$AXISUNIT
 10
0.0
 20
0.0
  9
$SKETCHINC
 40
0.1
  9
$FILLETRAD
 40
0.0
  9
$AUNITS
 70
     0
  9
$AUPREC
 70
     0
  9
$MENU
  1
ACAD
  9
$ELEVATION
 40
0.0
  9
$PELEVATION
 40
0.0
  9
$THICKNESS
 40
0.0
  9
$LIMCHECK
 70
     0
  9
$BLIPMODE
 70
     1
  9
$CHAMFERA
 40
0.0
  9
$CHAMFERB
 40
0.0
  9
$SKPOLY
 70
     1
  9
$TDCREATE
 40
2456119.0000000000
  9
$TDUPDATE
 40
2456119.0000000000
  9
$TDINDWG
 40
0.0
  9
$TDUSRTIMER
 40
0.0
  9
$USRTIMER
 70
     1
  9
$ANGBASE
 50
0.0
  9
$ANGDIR
 70
     0
  9
$PDMODE
 70
     0
  9
$PDSIZE
 40
0.0
  9
$PLINEWID
 40
0.0
  9
$COORDS
 70
     2
  9
$SPLFRAME
 70
     0
  9
$SPLINETYPE
 70
     6
  9
$SPLINESEGS
 70
     8
  9
$ATTDIA
 70
     1
  9
$ATTREQ
 70
     1
  9
$HANDLING
 70
     1
  9
$HANDSEED
  5
     3B7
  9
$SURFTAB1
 70
     6
  9
$SURFTAB2
 70
     6
  9
$SURFTYPE
 70
     6
  9
$SURFU
 70
     6
  9
$SURFV
 70
     6
  9
$UCSNAME
  2

  9
$UCSORG
 10
0.0
 20
0.0
 30
0.0
  9
$UCSXDIR
 10
1.0
 20
0.0
 30
0.0
  9
$UCSYDIR
 10
0.0
 20
1.0
 30
0.0
  9
$PUCSNAME
  2

  9
$PUCSORG
 10
0.0
 20
0.0
 30
0.0
  9
$PUCSXDIR
 10
1.0
 20
0.0
 30
0.0
  9
$PUCSYDIR
 10
0.0
 20
1.0
 30
0.0
  9
$USERI1
 70
     0
  9
$USERI2
 70
     0
  9
$USERI3
 70
     0
  9
$USERI4
 70
     0
  9
$USERI5
 70
     0
  9
$USERR1
 40
0.0
  9
$USERR2
 40
0.0
  9
$USERR3
 40
0.0
  9
$USERR4
 40
0.0
  9
$USERR5
 40
0.0
  9
$WORLDVIEW
 70
     1
  9
$SHADEDGE
 70
     3
  9
$SHADEDIF
 70
    70
  9
$TILEMODE
 70
     1
  9
$MAXACTVP
 70
    16
  9
$PINSBASE
 10
0.0
 20
0.0
 30
0.0
  9
$PLIMCHECK
 70
     0
  9
$PEXTMIN
 10
1.0000000000000E+20
 20
1.0000000000000E+20
 30
1.0000000000000E+20
  9
$PEXTMAX
 10
-1.0000000000000E+20
 20
-1.0000000000000E+20
 30
-1.0000000000000E+20
  9
$PLIMMIN
 10
0.0
 20
0.0
  9
$UNITMODE
 70
     0
  9
$VISRETAIN
 70
     0
  9
$MEASUREMENT
 70
     1
  0
ENDSEC
  0
SECTION
  2
TABLES
  0
TABLE
  2
VPORT
  5
37
100
AcDbSymbolTable
 70
     1
  0
ENDTAB
  0
TABLE
  2
STYLE
  5
38
100
AcDbSymbolTable
 70
     4
  0
STYLE
  5
39
100
AcDbSymbolTableRecord
100
AcDbTextStyleTableRecord
  2
STANDARD
 70
     0
 40
0.0
 41
1.0
 50
0.0
 71
     0
 42
3.5
  3
MONOTXT
  4

  0
STYLE
  5
3A
100
AcDbSymbolTableRecord
100
AcDbTextStyleTableRecord
  2
CADWORK1
 70
     0
 40
0.0
 41
1.0
 50
0.0
 71
     0
 42
3.5
  3
MONOTXT
  4

  0
STYLE
  5
3B
100
AcDbSymbolTableRecord
100
AcDbTextStyleTableRecord
  2
MONOTXT
 70
     0
 40
0.0
 41
1.0
 50
0.0
 71
     0
 42
3.5
  3
MONOTXT
  4

  0
STYLE
  5
3C
100
AcDbSymbolTableRecord
100
AcDbTextStyleTableRecord
  2
TAHOMA
 70
     0
 40
0.0
 41
1.0
 50
0.0
 71
     0
 42
3.5
  3

  4

1001
ACAD
1000
Tahoma
1071
        0
  0
STYLE
  5
3D
100
AcDbSymbolTableRecord
100
AcDbTextStyleTableRecord
  2
ARIAL
 70
     0
 40
0.0
 41
1.0
 50
0.0
 71
     0
 42
3.5
  3

  4

1001
ACAD
1000
Arial
1071
        0
  0
ENDTAB
  0
TABLE
  2
LTYPE
  5
3E
100
AcDbSymbolTable
 70
    12
  0
LTYPE
  5
3F
100
AcDbSymbolTableRecord
100
AcDbLinetypeTableRecord
  2
BYBLOCK
 70
    64
  3

 72
    65
 73
     0
 40
0.0
  0
LTYPE
  5
40
100
AcDbSymbolTableRecord
100
AcDbLinetypeTableRecord
  2
BYLAYER
 70
    64
  3

 72
    65
 73
     0
 40
0.0
  0
LTYPE
  5
41
100
AcDbSymbolTableRecord
100
AcDbLinetypeTableRecord
  2
CONTINUOUS
 70
    64
  3
Solid line
 72
    65
 73
     0
 40
0.0
  0
LTYPE
  5
42
100
AcDbSymbolTableRecord
100
AcDbLinetypeTableRecord
  2
DOT
 70
    64
  3
. . . . . . . . . . . . . . . . . . . . . . . .
 72
    65
 73
     2
 40
2.5
 49
0.0
 74
     0
 49
-2.5
 74
     0
  0
LTYPE
  5
43
100
AcDbSymbolTableRecord
100
AcDbLinetypeTableRecord
  2
DASHED
 70
    64
  3
__ __ __ __ __ __ __ __ __ __ __ __ __ __ __ __
 72
    65
 73
     2
 40
7.5
 49
5.0
 74
     0
 49
-2.5
 74
     0
  0
LTYPE
  5
44
100
AcDbSymbolTableRecord
100
AcDbLinetypeTableRecord
  2
BORDER
 70
    64
  3
 __ __ . __ __ . __ __ . __ __ . __ __ . __ __ .
 72
    65
 73
     6
 40
17.0
 49
5.0
 74
     0
 49
-2.0
 74
     0
 49
5.0
 74
     0
 49
-2.0
 74
     0
 49
1.0
 74
     0
 49
-2.0
 74
     0
  0
LTYPE
  5
45
100
AcDbSymbolTableRecord
100
AcDbLinetypeTableRecord
  2
DAL
 70
    64
  3
Solid line (for MAPS)
 72
    65
 73
     0
 40
0.0
  0
LTYPE
  5
46
100
AcDbSymbolTableRecord
100
AcDbLinetypeTableRecord
  2
MUR
 70
    64
  3
Solid line (for MAPS)
 72
    65
 73
     0
 40
0.0
  0
LTYPE
  5
47
100
AcDbSymbolTableRecord
100
AcDbLinetypeTableRecord
  2
SOM
 70
    64
  3
Solid line (for MAPS)
 72
    65
 73
     0
 40
0.0
  0
LTYPE
  5
48
100
AcDbSymbolTableRecord
100
AcDbLinetypeTableRecord
  2
COL
 70
    64
  3
Solid line (for MAPS)
 72
    65
 73
     0
 40
0.0
  0
LTYPE
  5
49
100
AcDbSymbolTableRecord
100
AcDbLinetypeTableRecord
  2
LGN
 70
    64
  3
Solid line (for MAPS)
 72
    65
 73
     0
 40
0.0
  0
LTYPE
  5
4A
100
AcDbSymbolTableRecord
100
AcDbLinetypeTableRecord
  2
PNT
 70
    64
  3
Solid line (for MAPS)
 72
    65
 73
     0
 40
0.0
  0
ENDTAB
  0
TABLE
  2
LAYER
  5
4B
100
AcDbSymbolTable
 70
     1
  0
LAYER
  5
4C
100
AcDbSymbolTableRecord
100
AcDbLayerTableRecord
  2
0
 70
     0
 62
     1
  6
CONTINUOUS
  0
LAYER
  5
4D
100
AcDbSymbolTableRecord
100
AcDbLayerTableRecord
  2
MST_1_1
 70
     0
 62
     7
  6
CONTINUOUS
  0
ENDTAB
  0
TABLE
  2
VIEW
  5
4E
100
AcDbSymbolTable
 70
     0
  0
ENDTAB
  0
TABLE
  2
UCS
  5
4F
100
AcDbSymbolTable
 70
     0
  0
ENDTAB
  0
TABLE
  2
APPID
  5
50
100
AcDbSymbolTable
 70
     1
  0
APPID
  5
51
100
AcDbSymbolTableRecord
100
AcDbRegAppTableRecord
  2
ACAD
 70
     0
  0
ENDTAB
  0
TABLE
  2
DIMSTYLE
  5
52
100
AcDbSymbolTable
 70
     0
  0
ENDTAB
  0
TABLE
  2
BLOCK_RECORD
  5
53
100
AcDbSymbolTable
 70
     0
  0
BLOCK_RECORD
  5
54
100
AcDbSymbolTableRecord
100
AcDbBlockTableRecord
  2
*MODEL_SPACE
  0
BLOCK_RECORD
  5
55
100
AcDbSymbolTableRecord
100
AcDbBlockTableRecord
  2
*PAPER_SPACE
  0
BLOCK_RECORD
  5
56
100
AcDbSymbolTableRecord
100
AcDbBlockTableRecord
  2
CDWK_EXTR_0
  0
BLOCK_RECORD
  5
57
100
AcDbSymbolTableRecord
100
AcDbBlockTableRecord
  2
CDWK_EXTR_1D
  0
BLOCK_RECORD
  5
58
100
AcDbSymbolTableRecord
100
AcDbBlockTableRecord
  2
CDWK_EXTR_1G
  0
BLOCK_RECORD
  5
59
100
AcDbSymbolTableRecord
100
AcDbBlockTableRecord
  2
CDWK_EXTR_2
  0
BLOCK_RECORD
  5
5A
100
AcDbSymbolTableRecord
100
AcDbBlockTableRecord
  2
CDWK_EXTR_3
  0
BLOCK_RECORD
  5
5B
100
AcDbSymbolTableRecord
100
AcDbBlockTableRecord
  2
CDWK_EXTR_4
  0
BLOCK_RECORD
  5
5C
100
AcDbSymbolTableRecord
100
AcDbBlockTableRecord
  2
CDWK_PTTYP0
  0
ENDTAB
  0
ENDSEC
  0
SECTION
  2
BLOCKS
  0
BLOCK
  5
5D
100
AcDbEntity
  8
0
100
AcDbBlockBegin
  2
*MODEL_SPACE
 70
     0
 10
0.0
 20
0.0
 30
0.0
  3
*MODEL_SPACE
  1

  0
ENDBLK
  5
5E
100
AcDbEntity
100
AcDbBlockEnd
  0
BLOCK
  5
5F
100
AcDbEntity
  8
0
100
AcDbBlockBegin
  2
*PAPER_SPACE
 70
     0
 10
0.0
 20
0.0
 30
0.0
  3
*PAPER_SPACE
  1

  0
ENDBLK
  5
60
100
AcDbEntity
100
AcDbBlockEnd
  0
BLOCK
  5
61
100
AcDbEntity
  8
0
100
AcDbBlockBegin
  2
CDWK_EXTR_0
 70
     0
 10
0.0
 20
0.0
 30
0.0
  3
CDWK_EXTR_0
  1

  4
Cadwork line-extremity
  0
LINE
  5
62
100
AcDbEntity
  8
0
 62
     0
100
AcDbLine
 10
0.0
 20
0.0
 30
0.0
 11
2.0
 21
0.5
 31
0.0
  0
LINE
  5
63
100
AcDbEntity
  8
0
 62
     0
100
AcDbLine
 10
0.0
 20
0.0
 30
0.0
 11
2.0
 21
-0.5
 31
0.0
  0
LINE
  5
64
100
AcDbEntity
  8
0
 62
     0
100
AcDbLine
 10
2.0
 20
0.5
 30
0.0
 11
2.0
 21
-0.5
 31
0.0
  0
ENDBLK
  5
65
100
AcDbEntity
100
AcDbBlockEnd
  0
BLOCK
  5
66
100
AcDbEntity
  8
0
100
AcDbBlockBegin
  2
CDWK_EXTR_1D
 70
     0
 10
0.0
 20
0.0
 30
0.0
  3
CDWK_EXTR_1D
  1

  4
Cadwork line-extremity
  0
LINE
  5
67
100
AcDbEntity
  8
0
 62
     0
100
AcDbLine
 10
0.0
 20
0.0
 30
0.0
 11
0.0
 21
1.0
 31
0.0
  0
LINE
  5
68
100
AcDbEntity
  8
0
 62
     0
100
AcDbLine
 10
0.0
 20
1.0
 30
0.0
 11
0.5
 21
1.5
 31
0.0
  0
LINE
  5
69
100
AcDbEntity
  8
0
 62
     0
100
AcDbLine
 10
0.5
 20
1.5
 30
0.0
 11
1.5
 21
1.5
 31
0.0
  0
ENDBLK
  5
6A
100
AcDbEntity
100
AcDbBlockEnd
  0
BLOCK
  5
6B
100
AcDbEntity
  8
0
100
AcDbBlockBegin
  2
CDWK_EXTR_1G
 70
     0
 10
0.0
 20
0.0
 30
0.0
  3
CDWK_EXTR_1G
  1

  4
Cadwork line-extremity
  0
LINE
  5
6C
100
AcDbEntity
  8
0
 62
     0
100
AcDbLine
 10
0.0
 20
0.0
 30
0.0
 11
0.0
 21
-1.0
 31
0.0
  0
LINE
  5
6D
100
AcDbEntity
  8
0
 62
     0
100
AcDbLine
 10
0.0
 20
-1.0
 30
0.0
 11
0.5
 21
-1.5
 31
0.0
  0
LINE
  5
6E
100
AcDbEntity
  8
0
 62
     0
100
AcDbLine
 10
0.5
 20
-1.5
 30
0.0
 11
1.5
 21
-1.5
 31
0.0
  0
ENDBLK
  5
6F
100
AcDbEntity
100
AcDbBlockEnd
  0
BLOCK
  5
70
100
AcDbEntity
  8
0
100
AcDbBlockBegin
  2
CDWK_EXTR_2
 70
     0
 10
0.0
 20
0.0
 30
0.0
  3
CDWK_EXTR_2
  1

  4
Cadwork line-extremity
  0
SOLID
  5
71
100
AcDbEntity
  8
0
 62
     0
100
AcDbTrace
 10
0.0
 20
0.0
 11
2.0
 21
0.5
 12
2.0
 22
-0.5
 13
2.0
 23
-0.5
  0
ENDBLK
  5
72
100
AcDbEntity
100
AcDbBlockEnd
  0
BLOCK
  5
73
100
AcDbEntity
  8
0
100
AcDbBlockBegin
  2
CDWK_EXTR_3
 70
     0
 10
0.0
 20
0.0
 30
0.0
  3
CDWK_EXTR_3
  1

  4
Cadwork line-extremity
  0
SOLID
  5
74
100
AcDbEntity
  8
0
 62
     0
100
AcDbTrace
 10
0.0
 20
0.0
 11
2.0
 21
0.5
 12
2.0
 22
-0.5
 13
2.0
 23
-0.5
  0
LINE
  5
75
100
AcDbEntity
  8
0
 62
     0
100
AcDbLine
 10
0.0
 20
1.0
 30
0.0
 11
0.0
 21
-1.0
 31
0.0
  0
ENDBLK
  5
76
100
AcDbEntity
100
AcDbBlockEnd
  0
BLOCK
  5
77
100
AcDbEntity
  8
0
100
AcDbBlockBegin
  2
CDWK_EXTR_4
 70
     0
 10
0.0
 20
0.0
 30
0.0
  3
CDWK_EXTR_4
  1

  4
Cadwork line-extremity
  0
POLYLINE
  5
78
100
AcDbEntity
  8
0
 62
     0
100
AcDb2dPolyline
 70
     1
 66
     1
 10
0.0
 20
0.0
 30
0.0
 40
0.5
 41
0.5
  0
VERTEX
  5
79
100
AcDbEntity
  8
0
100
AcDbVertex
100
AcDb2dVertex
 10
-0.25
 20
0.0
 30
0.0
 42
1.0
  0
VERTEX
  5
7A
100
AcDbEntity
  8
0
100
AcDbVertex
100
AcDb2dVertex
 10
0.25
 20
0.0
 30
0.0
 42
1.0
  0
SEQEND
  5
7B
100
AcDbEntity
  0
ENDBLK
  5
7C
100
AcDbEntity
100
AcDbBlockEnd
  0
BLOCK
  5
7D
100
AcDbEntity
  8
0
100
AcDbBlockBegin
  2
CDWK_PTTYP0
 70
     0
 10
0.0
 20
0.0
 30
0.0
  3
CDWK_PTTYP0
  1

  4
Cadwork point
  0
POINT
  5
7E
100
AcDbEntity
  8
0
 62
     0
100
AcDbPoint
 10
0.0
 20
0.0
 30
0.0
  0
ENDBLK
  5
7F
100
AcDbEntity
100
AcDbBlockEnd
  0
ENDSEC
  0
SECTION
  2
ENTITIES
  0
LINE
  5
80
100
AcDbEntity
  8
MST_1_1
 62
     7
  6
DASHED
100
AcDbLine
 10
-2.06250403
 20
28.54545025
 30
0.0
 11
-2.06250403
 21
-216.45454975
 31
0.0
  0
LINE
  5
81
100
AcDbEntity
  8
MST_1_1
 62
     7
  6
DASHED
100
AcDbLine
 10
47.93749597
 20
28.54545025
 30
0.0
 11
47.93749597
 21
-156.45454975
 31
0.0
  0
LINE
  5
82
100
AcDbEntity
  8
MST_1_1
 62
     7
  6
DASHED
100
AcDbLine
 10
37.93749597
 20
28.54545025
 30
0.0
 11
37.93749597
 21
-126.45454975
 31
0.0
  0
LINE
  5
83
100
AcDbEntity
  8
MST_1_1
 62
     7
  6
DASHED
100
AcDbLine
 10
32.93749597
 20
18.54545025
 30
0.0
 11
32.93749597
 21
-96.45454975
 31
0.0
  0
LINE
  5
84
100
AcDbEntity
  8
MST_1_1
 62
     7
  6
DASHED
100
AcDbLine
 10
27.93749597
 20
28.54545025
 30
0.0
 11
27.93749597
 21
-66.45454975
 31
0.0
  0
LWPOLYLINE
  5
85
100
AcDbEntity
  8
MST_1_1
 62
     1
  6
BORDER
100
AcDbPolyline
 90
        3
 70
     0
 43
0.0
 10
22.93749597
 20
-21.45454975
 10
-2.06250403
 20
-21.45454975
 10
-7.06250403
 20
-21.45454975
  0
LINE
  5
86
100
AcDbEntity
  8
MST_1_1
 62
     7
  6
DASHED
100
AcDbLine
 10
22.93749597
 20
18.54545025
 30
0.0
 11
22.93749597
 21
-36.45454975
 31
0.0
  0
LINE
  5
87
100
AcDbEntity
  8
MST_1_1
 62
     7
  6
DASHED
100
AcDbLine
 10
17.93749597
 20
28.54545025
 30
0.0
 11
17.93749597
 21
-6.45454975
 31
0.0
  0
LWPOLYLINE
  5
88
100
AcDbEntity
  8
MST_1_1
 62
     1
  6
BORDER
100
AcDbPolyline
 90
        3
 70
     0
 43
0.0
 10
17.93749597
 20
8.54545025
 10
-2.06250403
 20
8.54545025
 10
-7.06250403
 20
8.54545025
  0
LWPOLYLINE
  5
89
100
AcDbEntity
  8
MST_1_1
 62
     1
  6
BORDER
100
AcDbPolyline
 90
        3
 70
     0
 43
0.0
 10
27.93749597
 20
-51.45454975
 10
-2.06250403
 20
-51.45454975
 10
-7.06250403
 20
-51.45454975
  0
LWPOLYLINE
  5
8A
100
AcDbEntity
  8
MST_1_1
 62
     1
  6
BORDER
100
AcDbPolyline
 90
        3
 70
     0
 43
0.0
 10
32.93749597
 20
-81.45454975
 10
-2.06250403
 20
-81.45454975
 10
-7.06250403
 20
-81.45454975
  0
LWPOLYLINE
  5
8B
100
AcDbEntity
  8
MST_1_1
 62
     1
  6
BORDER
100
AcDbPolyline
 90
        3
 70
     0
 43
0.0
 10
37.93749597
 20
-111.45454975
 10
-2.06250403
 20
-111.45454975
 10
-7.06250403
 20
-111.45454975
  0
LWPOLYLINE
  5
8C
100
AcDbEntity
  8
MST_1_1
 62
     1
  6
BORDER
100
AcDbPolyline
 90
        3
 70
     0
 43
0.0
 10
47.93749597
 20
-141.45454975
 10
-2.06250403
 20
-141.45454975
 10
-7.06250403
 20
-141.45454975
  0
LINE
  5
8D
100
AcDbEntity
  8
MST_1_1
 62
     7
  6
DASHED
100
AcDbLine
 10
57.93749597
 20
28.54545025
 30
0.0
 11
57.93749597
 21
-216.45454975
 31
0.0
  0
LINE
  5
8E
100
AcDbEntity
  8
MST_1_1
 62
     7
  6
DASHED
100
AcDbLine
 10
52.93749597
 20
18.54545025
 30
0.0
 11
52.93749597
 21
-186.45454975
 31
0.0
  0
LINE
  5
8F
100
AcDbEntity
  8
MST_1_1
 62
   137
  6
CONTINUOUS
100
AcDbLine
 10
-2.06250403
 20
-111.45454975
 30
0.0
 11
-2.06250403
 21
-106.60454975
 31
0.0
  0
LINE
  5
90
100
AcDbEntity
  8
MST_1_1
 62
   137
  6
CONTINUOUS
100
AcDbLine
 10
-2.06250403
 20
-106.60454975
 30
0.0
 11
-1.95472628
 21
-106.60454975
 31
0.0
  0
LWPOLYLINE
  5
91
100
AcDbEntity
  8
MST_1_1
 62
   137
  6
CONTINUOUS
100
AcDbPolyline
 90
        6
 70
     0
 43
0.0
 38
2500.0
 10
4.73050701
 20
-108.95454958
 10
4.50892454
 20
-109.9116926
 10
6.3823362
 20
-113.95454975
 10
6.60391876
 20
-112.99740689
 10
4.73050701
 20
-108.95454958
 10
6.3823362
 20
-113.95454975
  0
LINE
  5
92
100
AcDbEntity
  8
MST_1_1
 62
   137
  6
CONTINUOUS
100
AcDbLine
 10
0.93749597
 20
-109.9116926
 30
2500.0
 11
4.50892454
 21
-109.9116926
 31
2500.0
  0
LWPOLYLINE
  5
93
100
AcDbEntity
  8
MST_1_1
 62
   137
  6
CONTINUOUS
100
AcDbPolyline
 90
        4
 70
     0
 43
0.0
 38
2500.0
 10
3.08166479
 20
-112.99740689
 10
3.52519334
 20
-113.95454975
 10
3.7467759
 20
-112.99740689
 10
3.41441802
 20
-112.28017241
  0
LINE
  5
94
100
AcDbEntity
  8
MST_1_1
 62
   137
  6
CONTINUOUS
100
AcDbLine
 10
3.15603084
 20
-112.83711424
 30
2500.0
 11
3.52519334
 21
-113.95454975
 31
2500.0
  0
LINE
  5
95
100
AcDbEntity
  8
MST_1_1
 62
   137
  6
CONTINUOUS
100
AcDbLine
 10
3.08166479
 20
-112.99740689
 30
2500.0
 11
3.41441802
 21
-112.28017241
 31
2500.0
  0
LINE
  5
96
100
AcDbEntity
  8
MST_1_1
 62
   137
  6
CONTINUOUS
100
AcDbLine
 10
5.93880764
 20
-112.99740689
 30
2500.0
 11
3.7467759
 21
-112.99740689
 31
2500.0
  0
LINE
  5
97
100
AcDbEntity
  8
MST_1_1
 62
   137
  6
CONTINUOUS
100
AcDbLine
 10
3.08166479
 20
-112.99740689
 30
2500.0
 11
0.93749597
 21
-112.99740689
 31
2500.0
  0
LINE
  5
98
100
AcDbEntity
  8
MST_1_1
 62
   137
  6
CONTINUOUS
100
AcDbLine
 10
-1.95472628
 20
-106.60454975
 30
0.0
 11
0.93749597
 21
-109.9116926
 31
0.0
  0
LINE
  5
99
100
AcDbEntity
  8
MST_1_1
 62
   137
  6
CONTINUOUS
100
AcDbLine
 10
0.93749597
 20
-112.99740689
 30
0.0
 11
-1.95472628
 21
-116.30454975
 31
0.0
  0
LINE
  5
9A
100
AcDbEntity
  8
MST_1_1
 62
   137
  6
CONTINUOUS
100
AcDbLine
 10
-1.95472628
 20
-116.30454975
 30
0.0
 11
-2.06250403
 21
-116.30454975
 31
0.0
  0
LINE
  5
9B
100
AcDbEntity
  8
MST_1_1
 62
   137
  6
CONTINUOUS
100
AcDbLine
 10
-2.06250403
 20
-116.30454975
 30
0.0
 11
-2.06250403
 21
-111.45454975
 31
0.0
  0
LWPOLYLINE
  5
9C
100
AcDbEntity
  8
MST_1_1
 62
   137
  6
CONTINUOUS
100
AcDbPolyline
 90
        6
 70
     0
 43
0.0
 38
2500.0
 10
7.58764987
 20
-108.95454958
 10
7.3660674
 20
-109.9116926
 10
9.23947906
 20
-113.95454975
 10
9.46106161
 20
-112.99740689
 10
7.58764987
 20
-108.95454958
 10
9.23947906
 20
-113.95454975
  0
LWPOLYLINE
  5
9D
100
AcDbEntity
  8
MST_1_1
 62
   137
  6
CONTINUOUS
100
AcDbPolyline
 90
        6
 70
     0
 43
0.0
 38
2500.0
 10
10.44479273
 20
-108.95454958
 10
10.22321025
 20
-109.9116926
 10
12.09662192
 20
-113.95454975
 10
12.31820447
 20
-112.99740689
 10
10.44479273
 20
-108.95454958
 10
12.09662192
 20
-113.95454975
  0
LWPOLYLINE
  5
9E
100
AcDbEntity
  8
MST_1_1
 62
   137
  6
CONTINUOUS
100
AcDbPolyline
 90
        6
 70
     0
 43
0.0
 38
2500.0
 10
27.58764987
 20
-108.95454958
 10
27.3660674
 20
-109.9116926
 10
29.23947906
 20
-113.95454975
 10
29.42730079
 20
-112.92455041
 10
27.58764987
 20
-108.95454958
 10
29.23947906
 20
-113.95454975
  0
LWPOLYLINE
  5
9F
100
AcDbEntity
  8
MST_1_1
 62
   137
  6
CONTINUOUS
100
AcDbPolyline
 90
        6
 70
     0
 43
0.0
 38
2500.0
 10
30.40269206
 20
-109.27982004
 10
30.22321025
 20
-110.0551059
 10
31.77030659
 20
-113.39376852
 10
31.9497884
 20
-112.61848267
 10
30.40269206
 20
-109.27982004
 10
31.7406737
 20
-113.32982018
  0
LINE
  5
A0
100
AcDbEntity
  8
MST_1_1
 62
   251
  6
CONTINUOUS
100
AcDbLine
 10
6.60391876
 20
-112.99740689
 30
2500.0
 11
8.7959505
 21
-112.99740689
 31
2500.0
  0
LINE
  5
A1
100
AcDbEntity
  8
MST_1_1
 62
   251
  6
CONTINUOUS
100
AcDbLine
 10
9.46106161
 20
-112.99740689
 30
2500.0
 11
11.65309336
 21
-112.99740689
 31
2500.0
  0
LINE
  5
A2
100
AcDbEntity
  8
MST_1_1
 62
   251
  6
CONTINUOUS
100
AcDbLine
 10
26.60391876
 20
-112.99740689
 30
2500.0
 11
28.03410631
 21
-112.99108865
 31
2500.0
  0
LINE
  5
A3
100
AcDbEntity
  8
MST_1_1
 62
   251
  6
CONTINUOUS
100
AcDbLine
 10
7.3660674
 20
-109.9116926
 30
2500.0
 11
5.17403565
 21
-109.9116926
 31
2500.0
  0
LINE
  5
A4
100
AcDbEntity
  8
MST_1_1
 62
   251
  6
CONTINUOUS
100
AcDbLine
 10
10.22321025
 20
-109.9116926
 30
2500.0
 11
8.03117851
 21
-109.9116926
 31
2500.0
  0
LINE
  5
A5
100
AcDbEntity
  8
MST_1_1
 62
   251
  6
CONTINUOUS
100
AcDbLine
 10
27.3660674
 20
-109.9116926
 30
2500.0
 11
25.17403565
 21
-109.9116926
 31
2500.0
  0
ARC
  5
A6
100
AcDbEntity
  8
MST_1_1
 62
   251
  6
CONTINUOUS
100
AcDbCircle
 10
27.44516457
 20
-136.86822075
 30
2500.0
 40
26.95664419
100
AcDbArc
 50
84.08482032
 51
88.74811714
  0
LWPOLYLINE
  5
A7
100
AcDbEntity
  8
MST_1_1
 62
   251
  6
CONTINUOUS
100
AcDbPolyline
 90
        3
 70
     0
 43
0.0
 38
2500.0
 10
37.93749597
 20
-111.45454975
 10
32.6270394
 20
-110.41432048
 42
0.01723995
 10
30.79209587
 20
-110.12016069
  0
ARC
  5
A8
100
AcDbEntity
  8
MST_1_1
 62
   251
  6
CONTINUOUS
100
AcDbCircle
 10
27.44516457
 20
-86.04087875
 30
2500.0
 40
26.95664419
100
AcDbArc
 50
271.25189287
 51
272.83975061
  0
LWPOLYLINE
  5
A9
100
AcDbEntity
  8
MST_1_1
 62
   251
  6
CONTINUOUS
100
AcDbPolyline
 90
        3
 70
     0
 43
0.0
 38
2500.0
 10
37.93749597
 20
-111.45454975
 10
32.6270394
 20
-112.49477901
 42
-0.0063851
 10
31.9497884
 20
-112.61848267
  0
ARC
  5
AA
100
AcDbEntity
  8
MST_1_1
 62
   251
  6
CONTINUOUS
100
AcDbCircle
 10
27.44516457
 20
-86.04087875
 30
2500.0
 40
26.95664419
100
AcDbArc
 50
274.21680449
 51
278.53995004
  0
LWPOLYLINE
  5
AB
100
AcDbEntity
  8
MST_1_1
 62
   137
  6
CONTINUOUS
100
AcDbPolyline
 90
        6
 70
     0
 43
0.0
 38
2500.0
 10
33.1988111
 20
-109.99142836
 10
33.08035311
 20
-110.50311703
 10
34.1014367
 20
-112.70663436
 10
34.21472018
 20
-112.18377901
 10
33.1988111
 20
-109.99142836
 10
34.08187899
 20
-112.66442846
  0
LWPOLYLINE
  5
AC
100
AcDbEntity
  8
MST_1_1
 62
   137
  6
CONTINUOUS
100
AcDbPolyline
 90
        6
 70
     0
 43
0.0
 38
2500.0
 10
24.73050701
 20
-108.95454958
 10
24.50892454
 20
-109.9116926
 10
26.3823362
 20
-113.95454975
 10
26.60391876
 20
-112.99740689
 10
24.73050701
 20
-108.95454958
 10
26.3823362
 20
-113.95454975
  0
LINE
  5
AD
100
AcDbEntity
  8
MST_1_1
 62
   251
  6
CONTINUOUS
100
AcDbLine
 10
23.7467759
 20
-112.99740689
 30
2500.0
 11
25.93880764
 21
-112.99740689
 31
2500.0
  0
LINE
  5
AE
100
AcDbEntity
  8
MST_1_1
 62
   251
  6
CONTINUOUS
100
AcDbLine
 10
24.50892454
 20
-109.9116926
 30
2500.0
 11
22.31689279
 21
-109.9116926
 31
2500.0
  0
LWPOLYLINE
  5
AF
100
AcDbEntity
  8
MST_1_1
 62
   137
  6
CONTINUOUS
100
AcDbPolyline
 90
        6
 70
     0
 43
0.0
 38
2500.0
 10
16.15907844
 20
-108.95454958
 10
15.93749597
 20
-109.9116926
 10
17.81090763
 20
-113.95454975
 10
18.03249018
 20
-112.99740689
 10
16.15907844
 20
-108.95454958
 10
17.81090763
 20
-113.95454975
  0
LINE
  5
B0
100
AcDbEntity
  8
MST_1_1
 62
   251
  6
CONTINUOUS
100
AcDbLine
 10
15.17534733
 20
-112.99740689
 30
2500.0
 11
17.36737907
 21
-112.99740689
 31
2500.0
  0
LINE
  5
B1
100
AcDbEntity
  8
MST_1_1
 62
   251
  6
CONTINUOUS
100
AcDbLine
 10
15.93749597
 20
-109.9116926
 30
2500.0
 11
13.74546422
 21
-109.9116926
 31
2500.0
  0
LWPOLYLINE
  5
B2
100
AcDbEntity
  8
MST_1_1
 62
   137
  6
CONTINUOUS
100
AcDbPolyline
 90
        6
 70
     0
 43
0.0
 38
2500.0
 10
21.87336416
 20
-108.95454958
 10
21.65178168
 20
-109.9116926
 10
23.52519334
 20
-113.95454975
 10
23.7467759
 20
-112.99740689
 10
21.87336416
 20
-108.95454958
 10
23.52519334
 20
-113.95454975
  0
LINE
  5
B3
100
AcDbEntity
  8
MST_1_1
 62
   251
  6
CONTINUOUS
100
AcDbLine
 10
20.88963304
 20
-112.99740689
 30
2500.0
 11
23.08166479
 21
-112.99740689
 31
2500.0
  0
LINE
  5
B4
100
AcDbEntity
  8
MST_1_1
 62
   251
  6
CONTINUOUS
100
AcDbLine
 10
21.65178168
 20
-109.9116926
 30
2500.0
 11
19.45974994
 21
-109.9116926
 31
2500.0
  0
LWPOLYLINE
  5
B5
100
AcDbEntity
  8
MST_1_1
 62
   137
  6
CONTINUOUS
100
AcDbPolyline
 90
        6
 70
     0
 43
0.0
 38
2500.0
 10
19.0162213
 20
-108.95454958
 10
18.79463883
 20
-109.9116926
 10
20.66805049
 20
-113.95454975
 10
20.88963304
 20
-112.99740689
 10
19.0162213
 20
-108.95454958
 10
20.66805049
 20
-113.95454975
  0
LINE
  5
B6
100
AcDbEntity
  8
MST_1_1
 62
   251
  6
CONTINUOUS
100
AcDbLine
 10
18.03249018
 20
-112.99740689
 30
2500.0
 11
20.22452193
 21
-112.99740689
 31
2500.0
  0
LINE
  5
B7
100
AcDbEntity
  8
MST_1_1
 62
   251
  6
CONTINUOUS
100
AcDbLine
 10
18.79463883
 20
-109.9116926
 30
2500.0
 11
16.60260708
 21
-109.9116926
 31
2500.0
  0
LWPOLYLINE
  5
B8
100
AcDbEntity
  8
MST_1_1
 62
   137
  6
CONTINUOUS
100
AcDbPolyline
 90
        6
 70
     0
 43
0.0
 38
2500.0
 10
13.30193559
 20
-108.95454958
 10
13.08035311
 20
-109.9116926
 10
14.95376477
 20
-113.95454975
 10
15.17534733
 20
-112.99740689
 10
13.30193559
 20
-108.95454958
 10
14.95376477
 20
-113.95454975
  0
LINE
  5
B9
100
AcDbEntity
  8
MST_1_1
 62
   251
  6
CONTINUOUS
100
AcDbLine
 10
12.31820447
 20
-112.99740689
 30
2500.0
 11
14.51023622
 21
-112.99740689
 31
2500.0
  0
LINE
  5
BA
100
AcDbEntity
  8
MST_1_1
 62
   251
  6
CONTINUOUS
100
AcDbLine
 10
13.08035311
 20
-109.9116926
 30
2500.0
 11
10.88832136
 21
-109.9116926
 31
2500.0
  0
LWPOLYLINE
  5
BB
100
AcDbEntity
  8
MST_1_1
 62
     1
  6
BORDER
100
AcDbPolyline
 90
        3
 70
     0
 43
0.0
 10
52.93749597
 20
-171.45454975
 10
-2.06250403
 20
-171.45454975
 10
-7.06250403
 20
-171.45454975
  0
LWPOLYLINE
  5
BC
100
AcDbEntity
  8
MST_1_1
 62
     1
  6
BORDER
100
AcDbPolyline
 90
        3
 70
     0
 43
0.0
 10
57.93749597
 20
-201.45454975
 10
-2.06250403
 20
-201.45454975
 10
-7.06250403
 20
-201.45454975
  0
LINE
  5
BD
100
AcDbEntity
  8
MST_1_1
 62
   137
  6
CONTINUOUS
100
AcDbLine
 10
-2.06250403
 20
-81.45454975
 30
0.0
 11
-2.06250403
 21
-76.60454975
 31
0.0
  0
LINE
  5
BE
100
AcDbEntity
  8
MST_1_1
 62
   137
  6
CONTINUOUS
100
AcDbLine
 10
-2.06250403
 20
-76.60454975
 30
0.0
 11
-1.95472628
 21
-76.60454975
 31
0.0
  0
LWPOLYLINE
  5
BF
100
AcDbEntity
  8
MST_1_1
 62
   137
  6
CONTINUOUS
100
AcDbPolyline
 90
        6
 70
     0
 43
0.0
 38
2500.0
 10
5.44479273
 20
-78.95454958
 10
5.22321025
 20
-79.9116926
 10
7.09662192
 20
-83.95454975
 10
7.31820447
 20
-82.99740689
 10
5.44479273
 20
-78.95454958
 10
7.09662192
 20
-83.95454975
  0
LINE
  5
C0
100
AcDbEntity
  8
MST_1_1
 62
   137
  6
CONTINUOUS
100
AcDbLine
 10
0.93749597
 20
-79.9116926
 30
2500.0
 11
2.3660674
 21
-79.9116926
 31
2500.0
  0
LINE
  5
C1
100
AcDbEntity
  8
MST_1_1
 62
   137
  6
CONTINUOUS
100
AcDbLine
 10
6.65309336
 20
-82.99740689
 30
2500.0
 11
4.46106161
 21
-82.99740689
 31
2500.0
  0
LINE
  5
C2
100
AcDbEntity
  8
MST_1_1
 62
   137
  6
CONTINUOUS
100
AcDbLine
 10
3.7959505
 20
-82.99740689
 30
2500.0
 11
0.93749597
 21
-82.99740689
 31
2500.0
  0
LINE
  5
C3
100
AcDbEntity
  8
MST_1_1
 62
   137
  6
CONTINUOUS
100
AcDbLine
 10
-1.95472628
 20
-76.60454975
 30
0.0
 11
0.93749597
 21
-79.9116926
 31
0.0
  0
LINE
  5
C4
100
AcDbEntity
  8
MST_1_1
 62
   137
  6
CONTINUOUS
100
AcDbLine
 10
0.93749597
 20
-82.99740689
 30
0.0
 11
-1.95472628
 21
-86.30454975
 31
0.0
  0
LINE
  5
C5
100
AcDbEntity
  8
MST_1_1
 62
   137
  6
CONTINUOUS
100
AcDbLine
 10
-1.95472628
 20
-86.30454975
 30
0.0
 11
-2.06250403
 21
-86.30454975
 31
0.0
  0
LINE
  5
C6
100
AcDbEntity
  8
MST_1_1
 62
   137
  6
CONTINUOUS
100
AcDbLine
 10
-2.06250403
 20
-86.30454975
 30
0.0
 11
-2.06250403
 21
-81.45454975
 31
0.0
  0
LWPOLYLINE
  5
C7
100
AcDbEntity
  8
MST_1_1
 62
   137
  6
CONTINUOUS
100
AcDbPolyline
 90
        6
 70
     0
 43
0.0
 38
2500.0
 10
8.30193559
 20
-78.95454958
 10
8.08035311
 20
-79.9116926
 10
9.95376477
 20
-83.95454975
 10
10.17534733
 20
-82.99740689
 10
8.30193559
 20
-78.95454958
 10
9.95376477
 20
-83.95454975
  0
LWPOLYLINE
  5
C8
100
AcDbEntity
  8
MST_1_1
 62
   137
  6
CONTINUOUS
100
AcDbPolyline
 90
        6
 70
     0
 43
0.0
 38
2500.0
 10
22.58764987
 20
-78.95454958
 10
22.3660674
 20
-79.9116926
 10
24.23947906
 20
-83.95454975
 10
24.42730079
 20
-82.92455041
 10
22.58764987
 20
-78.95454958
 10
24.23947906
 20
-83.95454975
  0
LWPOLYLINE
  5
C9
100
AcDbEntity
  8
MST_1_1
 62
   137
  6
CONTINUOUS
100
AcDbPolyline
 90
        6
 70
     0
 43
0.0
 38
2500.0
 10
25.40269206
 20
-79.27982004
 10
25.22321025
 20
-80.0551059
 10
26.77030659
 20
-83.39376852
 10
26.9497884
 20
-82.61848267
 10
25.40269206
 20
-79.27982004
 10
26.7406737
 20
-83.32982018
  0
LINE
  5
CA
100
AcDbEntity
  8
MST_1_1
 62
   251
  6
CONTINUOUS
100
AcDbLine
 10
7.31820447
 20
-82.99740689
 30
2500.0
 11
9.51023622
 21
-82.99740689
 31
2500.0
  0
LINE
  5
CB
100
AcDbEntity
  8
MST_1_1
 62
   251
  6
CONTINUOUS
100
AcDbLine
 10
21.60391876
 20
-82.99740689
 30
2500.0
 11
23.03410631
 21
-82.99108865
 31
2500.0
  0
LINE
  5
CC
100
AcDbEntity
  8
MST_1_1
 62
   251
  6
CONTINUOUS
100
AcDbLine
 10
8.08035311
 20
-79.9116926
 30
2500.0
 11
5.88832136
 21
-79.9116926
 31
2500.0
  0
LINE
  5
CD
100
AcDbEntity
  8
MST_1_1
 62
   251
  6
CONTINUOUS
100
AcDbLine
 10
22.3660674
 20
-79.9116926
 30
2500.0
 11
20.17403565
 21
-79.9116926
 31
2500.0
  0
ARC
  5
CE
100
AcDbEntity
  8
MST_1_1
 62
   251
  6
CONTINUOUS
100
AcDbCircle
 10
22.44516457
 20
-106.86822075
 30
2500.0
 40
26.95664419
100
AcDbArc
 50
84.08482032
 51
88.74811714
  0
LWPOLYLINE
  5
CF
100
AcDbEntity
  8
MST_1_1
 62
   251
  6
CONTINUOUS
100
AcDbPolyline
 90
        3
 70
     0
 43
0.0
 38
2500.0
 10
32.93749597
 20
-81.45454975
 10
27.6270394
 20
-80.41432048
 42
0.01723995
 10
25.79209587
 20
-80.12016069
  0
ARC
  5
D0
100
AcDbEntity
  8
MST_1_1
 62
   251
  6
CONTINUOUS
100
AcDbCircle
 10
22.44516457
 20
-56.04087875
 30
2500.0
 40
26.95664419
100
AcDbArc
 50
271.25189287
 51
272.83975061
  0
LWPOLYLINE
  5
D1
100
AcDbEntity
  8
MST_1_1
 62
   251
  6
CONTINUOUS
100
AcDbPolyline
 90
        3
 70
     0
 43
0.0
 38
2500.0
 10
32.93749597
 20
-81.45454975
 10
27.6270394
 20
-82.49477901
 42
-0.0063851
 10
26.9497884
 20
-82.61848267
  0
ARC
  5
D2
100
AcDbEntity
  8
MST_1_1
 62
   251
  6
CONTINUOUS
100
AcDbCircle
 10
22.44516457
 20
-56.04087875
 30
2500.0
 40
26.95664419
100
AcDbArc
 50
274.21680449
 51
278.53995004
  0
LWPOLYLINE
  5
D3
100
AcDbEntity
  8
MST_1_1
 62
   137
  6
CONTINUOUS
100
AcDbPolyline
 90
        6
 70
     0
 43
0.0
 38
2500.0
 10
28.1988111
 20
-79.99142836
 10
28.08035311
 20
-80.50311703
 10
29.1014367
 20
-82.70663436
 10
29.21472018
 20
-82.18377901
 10
28.1988111
 20
-79.99142836
 10
29.08187899
 20
-82.66442846
  0
LWPOLYLINE
  5
D4
100
AcDbEntity
  8
MST_1_1
 62
   137
  6
CONTINUOUS
100
AcDbPolyline
 90
        6
 70
     0
 43
0.0
 38
2500.0
 10
19.73050701
 20
-78.95454958
 10
19.50892454
 20
-79.9116926
 10
21.3823362
 20
-83.95454975
 10
21.60391876
 20
-82.99740689
 10
19.73050701
 20
-78.95454958
 10
21.3823362
 20
-83.95454975
  0
LINE
  5
D5
100
AcDbEntity
  8
MST_1_1
 62
   251
  6
CONTINUOUS
100
AcDbLine
 10
18.7467759
 20
-82.99740689
 30
2500.0
 11
20.93880764
 21
-82.99740689
 31
2500.0
  0
LINE
  5
D6
100
AcDbEntity
  8
MST_1_1
 62
   251
  6
CONTINUOUS
100
AcDbLine
 10
19.50892454
 20
-79.9116926
 30
2500.0
 11
17.31689279
 21
-79.9116926
 31
2500.0
  0
LWPOLYLINE
  5
D7
100
AcDbEntity
  8
MST_1_1
 62
   137
  6
CONTINUOUS
100
AcDbPolyline
 90
        6
 70
     0
 43
0.0
 38
2500.0
 10
11.15907844
 20
-78.95454958
 10
10.93749597
 20
-79.9116926
 10
12.81090763
 20
-83.95454975
 10
13.03249018
 20
-82.99740689
 10
11.15907844
 20
-78.95454958
 10
12.81090763
 20
-83.95454975
  0
LINE
  5
D8
100
AcDbEntity
  8
MST_1_1
 62
   251
  6
CONTINUOUS
100
AcDbLine
 10
10.17534733
 20
-82.99740689
 30
2500.0
 11
12.36737907
 21
-82.99740689
 31
2500.0
  0
LINE
  5
D9
100
AcDbEntity
  8
MST_1_1
 62
   251
  6
CONTINUOUS
100
AcDbLine
 10
10.93749597
 20
-79.9116926
 30
2500.0
 11
8.74546422
 21
-79.9116926
 31
2500.0
  0
LWPOLYLINE
  5
DA
100
AcDbEntity
  8
MST_1_1
 62
   137
  6
CONTINUOUS
100
AcDbPolyline
 90
        6
 70
     0
 43
0.0
 38
2500.0
 10
16.87336416
 20
-78.95454958
 10
16.65178168
 20
-79.9116926
 10
18.52519334
 20
-83.95454975
 10
18.7467759
 20
-82.99740689
 10
16.87336416
 20
-78.95454958
 10
18.52519334
 20
-83.95454975
  0
LINE
  5
DB
100
AcDbEntity
  8
MST_1_1
 62
   251
  6
CONTINUOUS
100
AcDbLine
 10
15.88963304
 20
-82.99740689
 30
2500.0
 11
18.08166479
 21
-82.99740689
 31
2500.0
  0
LINE
  5
DC
100
AcDbEntity
  8
MST_1_1
 62
   251
  6
CONTINUOUS
100
AcDbLine
 10
16.65178168
 20
-79.9116926
 30
2500.0
 11
14.45974994
 21
-79.9116926
 31
2500.0
  0
LWPOLYLINE
  5
DD
100
AcDbEntity
  8
MST_1_1
 62
   137
  6
CONTINUOUS
100
AcDbPolyline
 90
        6
 70
     0
 43
0.0
 38
2500.0
 10
14.0162213
 20
-78.95454958
 10
13.79463883
 20
-79.9116926
 10
15.66805049
 20
-83.95454975
 10
15.88963304
 20
-82.99740689
 10
14.0162213
 20
-78.95454958
 10
15.66805049
 20
-83.95454975
  0
LINE
  5
DE
100
AcDbEntity
  8
MST_1_1
 62
   251
  6
CONTINUOUS
100
AcDbLine
 10
13.03249018
 20
-82.99740689
 30
2500.0
 11
15.22452193
 21
-82.99740689
 31
2500.0
  0
LINE
  5
DF
100
AcDbEntity
  8
MST_1_1
 62
   251
  6
CONTINUOUS
100
AcDbLine
 10
13.79463883
 20
-79.9116926
 30
2500.0
 11
11.60260708
 21
-79.9116926
 31
2500.0
  0
LINE
  5
E0
100
AcDbEntity
  8
MST_1_1
 62
   137
  6
CONTINUOUS
100
AcDbLine
 10
-2.06250403
 20
-51.45454975
 30
0.0
 11
-2.06250403
 21
-46.60454975
 31
0.0
  0
LINE
  5
E1
100
AcDbEntity
  8
MST_1_1
 62
   137
  6
CONTINUOUS
100
AcDbLine
 10
-2.06250403
 20
-46.60454975
 30
0.0
 11
-1.95472628
 21
-46.60454975
 31
0.0
  0
LWPOLYLINE
  5
E2
100
AcDbEntity
  8
MST_1_1
 62
   137
  6
CONTINUOUS
100
AcDbPolyline
 90
        6
 70
     0
 43
0.0
 38
2500.0
 10
6.15907844
 20
-48.95454958
 10
5.93749597
 20
-49.9116926
 10
7.81090763
 20
-53.95454975
 10
8.03249018
 20
-52.99740689
 10
6.15907844
 20
-48.95454958
 10
7.81090763
 20
-53.95454975
  0
LINE
  5
E3
100
AcDbEntity
  8
MST_1_1
 62
   137
  6
CONTINUOUS
100
AcDbLine
 10
0.93749597
 20
-49.9116926
 30
2500.0
 11
3.08035311
 21
-49.9116926
 31
2500.0
  0
LINE
  5
E4
100
AcDbEntity
  8
MST_1_1
 62
   137
  6
CONTINUOUS
100
AcDbLine
 10
7.36737907
 20
-52.99740689
 30
2500.0
 11
5.17534733
 21
-52.99740689
 31
2500.0
  0
LINE
  5
E5
100
AcDbEntity
  8
MST_1_1
 62
   137
  6
CONTINUOUS
100
AcDbLine
 10
4.51023622
 20
-52.99740689
 30
2500.0
 11
0.93749597
 21
-52.99740689
 31
2500.0
  0
LINE
  5
E6
100
AcDbEntity
  8
MST_1_1
 62
   137
  6
CONTINUOUS
100
AcDbLine
 10
-1.95472628
 20
-46.60454975
 30
0.0
 11
0.93749597
 21
-49.9116926
 31
0.0
  0
LINE
  5
E7
100
AcDbEntity
  8
MST_1_1
 62
   137
  6
CONTINUOUS
100
AcDbLine
 10
0.93749597
 20
-52.99740689
 30
0.0
 11
-1.95472628
 21
-56.30454975
 31
0.0
  0
LINE
  5
E8
100
AcDbEntity
  8
MST_1_1
 62
   137
  6
CONTINUOUS
100
AcDbLine
 10
-1.95472628
 20
-56.30454975
 30
0.0
 11
-2.06250403
 21
-56.30454975
 31
0.0
  0
LINE
  5
E9
100
AcDbEntity
  8
MST_1_1
 62
   137
  6
CONTINUOUS
100
AcDbLine
 10
-2.06250403
 20
-56.30454975
 30
0.0
 11
-2.06250403
 21
-51.45454975
 31
0.0
  0
LWPOLYLINE
  5
EA
100
AcDbEntity
  8
MST_1_1
 62
   137
  6
CONTINUOUS
100
AcDbPolyline
 90
        6
 70
     0
 43
0.0
 38
2500.0
 10
17.58764987
 20
-48.95454958
 10
17.3660674
 20
-49.9116926
 10
19.23947906
 20
-53.95454975
 10
19.42730079
 20
-52.92455041
 10
17.58764987
 20
-48.95454958
 10
19.23947906
 20
-53.95454975
  0
LWPOLYLINE
  5
EB
100
AcDbEntity
  8
MST_1_1
 62
   137
  6
CONTINUOUS
100
AcDbPolyline
 90
        6
 70
     0
 43
0.0
 38
2500.0
 10
20.40269206
 20
-49.27982004
 10
20.22321025
 20
-50.0551059
 10
21.77030659
 20
-53.39376852
 10
21.9497884
 20
-52.61848267
 10
20.40269206
 20
-49.27982004
 10
21.7406737
 20
-53.32982018
  0
LINE
  5
EC
100
AcDbEntity
  8
MST_1_1
 62
   251
  6
CONTINUOUS
100
AcDbLine
 10
16.60391876
 20
-52.99740689
 30
2500.0
 11
18.03410631
 21
-52.99108865
 31
2500.0
  0
LINE
  5
ED
100
AcDbEntity
  8
MST_1_1
 62
   251
  6
CONTINUOUS
100
AcDbLine
 10
17.3660674
 20
-49.9116926
 30
2500.0
 11
15.17403565
 21
-49.9116926
 31
2500.0
  0
ARC
  5
EE
100
AcDbEntity
  8
MST_1_1
 62
   251
  6
CONTINUOUS
100
AcDbCircle
 10
17.44516457
 20
-76.86822075
 30
2500.0
 40
26.95664419
100
AcDbArc
 50
84.08482032
 51
88.74811714
  0
LWPOLYLINE
  5
EF
100
AcDbEntity
  8
MST_1_1
 62
   251
  6
CONTINUOUS
100
AcDbPolyline
 90
        3
 70
     0
 43
0.0
 38
2500.0
 10
27.93749597
 20
-51.45454975
 10
22.6270394
 20
-50.41432048
 42
0.01723995
 10
20.79209587
 20
-50.12016069
  0
ARC
  5
F0
100
AcDbEntity
  8
MST_1_1
 62
   251
  6
CONTINUOUS
100
AcDbCircle
 10
17.44516457
 20
-26.04087875
 30
2500.0
 40
26.95664419
100
AcDbArc
 50
271.25189287
 51
272.83975061
  0
LWPOLYLINE
  5
F1
100
AcDbEntity
  8
MST_1_1
 62
   251
  6
CONTINUOUS
100
AcDbPolyline
 90
        3
 70
     0
 43
0.0
 38
2500.0
 10
27.93749597
 20
-51.45454975
 10
22.6270394
 20
-52.49477901
 42
-0.0063851
 10
21.9497884
 20
-52.61848267
  0
ARC
  5
F2
100
AcDbEntity
  8
MST_1_1
 62
   251
  6
CONTINUOUS
100
AcDbCircle
 10
17.44516457
 20
-26.04087875
 30
2500.0
 40
26.95664419
100
AcDbArc
 50
274.21680449
 51
278.53995004
  0
LWPOLYLINE
  5
F3
100
AcDbEntity
  8
MST_1_1
 62
   137
  6
CONTINUOUS
100
AcDbPolyline
 90
        6
 70
     0
 43
0.0
 38
2500.0
 10
23.1988111
 20
-49.99142836
 10
23.08035311
 20
-50.50311703
 10
24.1014367
 20
-52.70663436
 10
24.21472018
 20
-52.18377901
 10
23.1988111
 20
-49.99142836
 10
24.08187899
 20
-52.66442846
  0
LWPOLYLINE
  5
F4
100
AcDbEntity
  8
MST_1_1
 62
   137
  6
CONTINUOUS
100
AcDbPolyline
 90
        6
 70
     0
 43
0.0
 38
2500.0
 10
14.73050701
 20
-48.95454958
 10
14.50892454
 20
-49.9116926
 10
16.3823362
 20
-53.95454975
 10
16.60391876
 20
-52.99740689
 10
14.73050701
 20
-48.95454958
 10
16.3823362
 20
-53.95454975
  0
LINE
  5
F5
100
AcDbEntity
  8
MST_1_1
 62
   251
  6
CONTINUOUS
100
AcDbLine
 10
13.7467759
 20
-52.99740689
 30
2500.0
 11
15.93880764
 21
-52.99740689
 31
2500.0
  0
LINE
  5
F6
100
AcDbEntity
  8
MST_1_1
 62
   251
  6
CONTINUOUS
100
AcDbLine
 10
14.50892454
 20
-49.9116926
 30
2500.0
 11
12.31689279
 21
-49.9116926
 31
2500.0
  0
LWPOLYLINE
  5
F7
100
AcDbEntity
  8
MST_1_1
 62
   137
  6
CONTINUOUS
100
AcDbPolyline
 90
        6
 70
     0
 43
0.0
 38
2500.0
 10
11.87336416
 20
-48.95454958
 10
11.65178168
 20
-49.9116926
 10
13.52519334
 20
-53.95454975
 10
13.7467759
 20
-52.99740689
 10
11.87336416
 20
-48.95454958
 10
13.52519334
 20
-53.95454975
  0
LINE
  5
F8
100
AcDbEntity
  8
MST_1_1
 62
   251
  6
CONTINUOUS
100
AcDbLine
 10
10.88963304
 20
-52.99740689
 30
2500.0
 11
13.08166479
 21
-52.99740689
 31
2500.0
  0
LINE
  5
F9
100
AcDbEntity
  8
MST_1_1
 62
   251
  6
CONTINUOUS
100
AcDbLine
 10
11.65178168
 20
-49.9116926
 30
2500.0
 11
9.45974994
 21
-49.9116926
 31
2500.0
  0
LWPOLYLINE
  5
FA
100
AcDbEntity
  8
MST_1_1
 62
   137
  6
CONTINUOUS
100
AcDbPolyline
 90
        6
 70
     0
 43
0.0
 38
2500.0
 10
9.0162213
 20
-48.95454958
 10
8.79463883
 20
-49.9116926
 10
10.66805049
 20
-53.95454975
 10
10.88963304
 20
-52.99740689
 10
9.0162213
 20
-48.95454958
 10
10.66805049
 20
-53.95454975
  0
LINE
  5
FB
100
AcDbEntity
  8
MST_1_1
 62
   251
  6
CONTINUOUS
100
AcDbLine
 10
8.03249018
 20
-52.99740689
 30
2500.0
 11
10.22452193
 21
-52.99740689
 31
2500.0
  0
LINE
  5
FC
100
AcDbEntity
  8
MST_1_1
 62
   251
  6
CONTINUOUS
100
AcDbLine
 10
8.79463883
 20
-49.9116926
 30
2500.0
 11
6.60260708
 21
-49.9116926
 31
2500.0
  0
LINE
  5
FD
100
AcDbEntity
  8
MST_1_1
 62
   137
  6
CONTINUOUS
100
AcDbLine
 10
-2.06250403
 20
-21.45454975
 30
0.0
 11
-2.06250403
 21
-16.60454975
 31
0.0
  0
LINE
  5
FE
100
AcDbEntity
  8
MST_1_1
 62
   137
  6
CONTINUOUS
100
AcDbLine
 10
-2.06250403
 20
-16.60454975
 30
0.0
 11
-1.95472628
 21
-16.60454975
 31
0.0
  0
LWPOLYLINE
  5
FF
100
AcDbEntity
  8
MST_1_1
 62
   137
  6
CONTINUOUS
100
AcDbPolyline
 90
        6
 70
     0
 43
0.0
 38
2500.0
 10
4.0162213
 20
-18.95454958
 10
3.79463883
 20
-19.9116926
 10
5.66805049
 20
-23.95454975
 10
5.88963304
 20
-22.99740689
 10
4.0162213
 20
-18.95454958
 10
5.66805049
 20
-23.95454975
  0
LINE
  5
100
100
AcDbEntity
  8
MST_1_1
 62
   137
  6
CONTINUOUS
100
AcDbLine
 10
0.93749597
 20
-19.9116926
 30
2500.0
 11
3.79463883
 21
-19.9116926
 31
2500.0
  0
LWPOLYLINE
  5
101
100
AcDbEntity
  8
MST_1_1
 62
   137
  6
CONTINUOUS
100
AcDbPolyline
 90
        4
 70
     0
 43
0.0
 38
2500.0
 10
2.36737907
 20
-22.99740689
 10
2.81090763
 20
-23.95454975
 10
3.03249018
 20
-22.99740689
 10
2.7001323
 20
-22.28017241
  0
LINE
  5
102
100
AcDbEntity
  8
MST_1_1
 62
   137
  6
CONTINUOUS
100
AcDbLine
 10
2.44174513
 20
-22.83711424
 30
2500.0
 11
2.81090763
 21
-23.95454975
 31
2500.0
  0
LINE
  5
103
100
AcDbEntity
  8
MST_1_1
 62
   137
  6
CONTINUOUS
100
AcDbLine
 10
2.36737907
 20
-22.99740689
 30
2500.0
 11
2.7001323
 21
-22.28017241
 31
2500.0
  0
LINE
  5
104
100
AcDbEntity
  8
MST_1_1
 62
   137
  6
CONTINUOUS
100
AcDbLine
 10
5.22452193
 20
-22.99740689
 30
2500.0
 11
3.03249018
 21
-22.99740689
 31
2500.0
  0
LINE
  5
105
100
AcDbEntity
  8
MST_1_1
 62
   137
  6
CONTINUOUS
100
AcDbLine
 10
2.36737907
 20
-22.99740689
 30
2500.0
 11
0.93749597
 21
-22.99740689
 31
2500.0
  0
LINE
  5
106
100
AcDbEntity
  8
MST_1_1
 62
   137
  6
CONTINUOUS
100
AcDbLine
 10
-1.95472628
 20
-16.60454975
 30
0.0
 11
0.93749597
 21
-19.9116926
 31
0.0
  0
LINE
  5
107
100
AcDbEntity
  8
MST_1_1
 62
   137
  6
CONTINUOUS
100
AcDbLine
 10
0.93749597
 20
-22.99740689
 30
0.0
 11
-1.95472628
 21
-26.30454975
 31
0.0
  0
LINE
  5
108
100
AcDbEntity
  8
MST_1_1
 62
   137
  6
CONTINUOUS
100
AcDbLine
 10
-1.95472628
 20
-26.30454975
 30
0.0
 11
-2.06250403
 21
-26.30454975
 31
0.0
  0
LINE
  5
109
100
AcDbEntity
  8
MST_1_1
 62
   137
  6
CONTINUOUS
100
AcDbLine
 10
-2.06250403
 20
-26.30454975
 30
0.0
 11
-2.06250403
 21
-21.45454975
 31
0.0
  0
LWPOLYLINE
  5
10A
100
AcDbEntity
  8
MST_1_1
 62
   137
  6
CONTINUOUS
100
AcDbPolyline
 90
        6
 70
     0
 43
0.0
 38
2500.0
 10
12.58764987
 20
-18.95454958
 10
12.3660674
 20
-19.9116926
 10
14.23947906
 20
-23.95454975
 10
14.42730079
 20
-22.92455041
 10
12.58764987
 20
-18.95454958
 10
14.23947906
 20
-23.95454975
  0
LWPOLYLINE
  5
10B
100
AcDbEntity
  8
MST_1_1
 62
   137
  6
CONTINUOUS
100
AcDbPolyline
 90
        6
 70
     0
 43
0.0
 38
2500.0
 10
15.40269206
 20
-19.27982004
 10
15.22321025
 20
-20.0551059
 10
16.77030659
 20
-23.39376852
 10
16.9497884
 20
-22.61848267
 10
15.40269206
 20
-19.27982004
 10
16.7406737
 20
-23.32982018
  0
LINE
  5
10C
100
AcDbEntity
  8
MST_1_1
 62
   251
  6
CONTINUOUS
100
AcDbLine
 10
11.60391876
 20
-22.99740689
 30
2500.0
 11
13.03410631
 21
-22.99108865
 31
2500.0
  0
LINE
  5
10D
100
AcDbEntity
  8
MST_1_1
 62
   251
  6
CONTINUOUS
100
AcDbLine
 10
12.3660674
 20
-19.9116926
 30
2500.0
 11
10.17403565
 21
-19.9116926
 31
2500.0
  0
ARC
  5
10E
100
AcDbEntity
  8
MST_1_1
 62
   251
  6
CONTINUOUS
100
AcDbCircle
 10
12.44516457
 20
-46.86822075
 30
2500.0
 40
26.95664419
100
AcDbArc
 50
84.08482032
 51
88.74811714
  0
LWPOLYLINE
  5
10F
100
AcDbEntity
  8
MST_1_1
 62
   251
  6
CONTINUOUS
100
AcDbPolyline
 90
        3
 70
     0
 43
0.0
 38
2500.0
 10
22.93749597
 20
-21.45454975
 10
17.6270394
 20
-20.41432048
 42
0.01723995
 10
15.79209587
 20
-20.12016069
  0
ARC
  5
110
100
AcDbEntity
  8
MST_1_1
 62
   251
  6
CONTINUOUS
100
AcDbCircle
 10
12.44516457
 20
3.95912125
 30
2500.0
 40
26.95664419
100
AcDbArc
 50
271.25189287
 51
272.83975061
  0
LWPOLYLINE
  5
111
100
AcDbEntity
  8
MST_1_1
 62
   251
  6
CONTINUOUS
100
AcDbPolyline
 90
        3
 70
     0
 43
0.0
 38
2500.0
 10
22.93749597
 20
-21.45454975
 10
17.6270394
 20
-22.49477901
 42
-0.0063851
 10
16.9497884
 20
-22.61848267
  0
ARC
  5
112
100
AcDbEntity
  8
MST_1_1
 62
   251
  6
CONTINUOUS
100
AcDbCircle
 10
12.44516457
 20
3.95912125
 30
2500.0
 40
26.95664419
100
AcDbArc
 50
274.21680449
 51
278.53995004
  0
LWPOLYLINE
  5
113
100
AcDbEntity
  8
MST_1_1
 62
   137
  6
CONTINUOUS
100
AcDbPolyline
 90
        6
 70
     0
 43
0.0
 38
2500.0
 10
18.1988111
 20
-19.99142836
 10
18.08035311
 20
-20.50311703
 10
19.1014367
 20
-22.70663436
 10
19.21472018
 20
-22.18377901
 10
18.1988111
 20
-19.99142836
 10
19.08187899
 20
-22.66442846
  0
LWPOLYLINE
  5
114
100
AcDbEntity
  8
MST_1_1
 62
   137
  6
CONTINUOUS
100
AcDbPolyline
 90
        6
 70
     0
 43
0.0
 38
2500.0
 10
9.73050701
 20
-18.95454958
 10
9.50892454
 20
-19.9116926
 10
11.3823362
 20
-23.95454975
 10
11.60391876
 20
-22.99740689
 10
9.73050701
 20
-18.95454958
 10
11.3823362
 20
-23.95454975
  0
LINE
  5
115
100
AcDbEntity
  8
MST_1_1
 62
   251
  6
CONTINUOUS
100
AcDbLine
 10
8.7467759
 20
-22.99740689
 30
2500.0
 11
10.93880764
 21
-22.99740689
 31
2500.0
  0
LINE
  5
116
100
AcDbEntity
  8
MST_1_1
 62
   251
  6
CONTINUOUS
100
AcDbLine
 10
9.50892454
 20
-19.9116926
 30
2500.0
 11
7.31689279
 21
-19.9116926
 31
2500.0
  0
LWPOLYLINE
  5
117
100
AcDbEntity
  8
MST_1_1
 62
   137
  6
CONTINUOUS
100
AcDbPolyline
 90
        6
 70
     0
 43
0.0
 38
2500.0
 10
6.87336416
 20
-18.95454958
 10
6.65178168
 20
-19.9116926
 10
8.52519334
 20
-23.95454975
 10
8.7467759
 20
-22.99740689
 10
6.87336416
 20
-18.95454958
 10
8.52519334
 20
-23.95454975
  0
LINE
  5
118
100
AcDbEntity
  8
MST_1_1
 62
   251
  6
CONTINUOUS
100
AcDbLine
 10
5.88963304
 20
-22.99740689
 30
2500.0
 11
8.08166479
 21
-22.99740689
 31
2500.0
  0
LINE
  5
119
100
AcDbEntity
  8
MST_1_1
 62
   251
  6
CONTINUOUS
100
AcDbLine
 10
6.65178168
 20
-19.9116926
 30
2500.0
 11
4.45974994
 21
-19.9116926
 31
2500.0
  0
LINE
  5
11A
100
AcDbEntity
  8
MST_1_1
 62
   137
  6
CONTINUOUS
100
AcDbLine
 10
-2.06250403
 20
8.54545025
 30
0.0
 11
-2.06250403
 21
13.39545025
 31
0.0
  0
LINE
  5
11B
100
AcDbEntity
  8
MST_1_1
 62
   137
  6
CONTINUOUS
100
AcDbLine
 10
-2.06250403
 20
13.39545025
 30
0.0
 11
-1.95472628
 21
13.39545025
 31
0.0
  0
LWPOLYLINE
  5
11C
100
AcDbEntity
  8
MST_1_1
 62
   137
  6
CONTINUOUS
100
AcDbPolyline
 90
        6
 70
     0
 43
0.0
 38
2500.0
 10
4.73050701
 20
11.04545042
 10
4.50892454
 20
10.0883074
 10
6.3823362
 20
6.04545025
 10
6.60391876
 20
7.00259311
 10
4.73050701
 20
11.04545042
 10
6.3823362
 20
6.04545025
  0
LINE
  5
11D
100
AcDbEntity
  8
MST_1_1
 62
   137
  6
CONTINUOUS
100
AcDbLine
 10
0.93749597
 20
10.0883074
 30
2500.0
 11
4.50892454
 21
10.0883074
 31
2500.0
  0
LWPOLYLINE
  5
11E
100
AcDbEntity
  8
MST_1_1
 62
   137
  6
CONTINUOUS
100
AcDbPolyline
 90
        4
 70
     0
 43
0.0
 38
2500.0
 10
3.08166479
 20
7.00259311
 10
3.52519334
 20
6.04545025
 10
3.7467759
 20
7.00259311
 10
3.41441802
 20
7.71982759
  0
LINE
  5
11F
100
AcDbEntity
  8
MST_1_1
 62
   137
  6
CONTINUOUS
100
AcDbLine
 10
3.15603084
 20
7.16288576
 30
2500.0
 11
3.52519334
 21
6.04545025
 31
2500.0
  0
LINE
  5
120
100
AcDbEntity
  8
MST_1_1
 62
   137
  6
CONTINUOUS
100
AcDbLine
 10
3.08166479
 20
7.00259311
 30
2500.0
 11
3.41441802
 21
7.71982759
 31
2500.0
  0
LINE
  5
121
100
AcDbEntity
  8
MST_1_1
 62
   137
  6
CONTINUOUS
100
AcDbLine
 10
5.93880764
 20
7.00259311
 30
2500.0
 11
3.7467759
 21
7.00259311
 31
2500.0
  0
LINE
  5
122
100
AcDbEntity
  8
MST_1_1
 62
   137
  6
CONTINUOUS
100
AcDbLine
 10
3.08166479
 20
7.00259311
 30
2500.0
 11
0.93749597
 21
7.00259311
 31
2500.0
  0
LINE
  5
123
100
AcDbEntity
  8
MST_1_1
 62
   137
  6
CONTINUOUS
100
AcDbLine
 10
-1.95472628
 20
13.39545025
 30
0.0
 11
0.93749597
 21
10.0883074
 31
0.0
  0
LINE
  5
124
100
AcDbEntity
  8
MST_1_1
 62
   137
  6
CONTINUOUS
100
AcDbLine
 10
0.93749597
 20
7.00259311
 30
0.0
 11
-1.95472628
 21
3.69545025
 31
0.0
  0
LINE
  5
125
100
AcDbEntity
  8
MST_1_1
 62
   137
  6
CONTINUOUS
100
AcDbLine
 10
-1.95472628
 20
3.69545025
 30
0.0
 11
-2.06250403
 21
3.69545025
 31
0.0
  0
LINE
  5
126
100
AcDbEntity
  8
MST_1_1
 62
   137
  6
CONTINUOUS
100
AcDbLine
 10
-2.06250403
 20
3.69545025
 30
0.0
 11
-2.06250403
 21
8.54545025
 31
0.0
  0
LWPOLYLINE
  5
127
100
AcDbEntity
  8
MST_1_1
 62
   137
  6
CONTINUOUS
100
AcDbPolyline
 90
        6
 70
     0
 43
0.0
 38
2500.0
 10
7.58764987
 20
11.04545042
 10
7.3660674
 20
10.0883074
 10
9.23947906
 20
6.04545025
 10
9.42730079
 20
7.07544959
 10
7.58764987
 20
11.04545042
 10
9.23947906
 20
6.04545025
  0
LWPOLYLINE
  5
128
100
AcDbEntity
  8
MST_1_1
 62
   137
  6
CONTINUOUS
100
AcDbPolyline
 90
        6
 70
     0
 43
0.0
 38
2500.0
 10
10.40269206
 20
10.72017996
 10
10.22321025
 20
9.9448941
 10
11.77030659
 20
6.60623148
 10
11.9497884
 20
7.38151733
 10
10.40269206
 20
10.72017996
 10
11.7406737
 20
6.67017982
  0
LINE
  5
129
100
AcDbEntity
  8
MST_1_1
 62
   251
  6
CONTINUOUS
100
AcDbLine
 10
6.60391876
 20
7.00259311
 30
2500.0
 11
8.03410631
 21
7.00891135
 31
2500.0
  0
LINE
  5
12A
100
AcDbEntity
  8
MST_1_1
 62
   251
  6
CONTINUOUS
100
AcDbLine
 10
7.3660674
 20
10.0883074
 30
2500.0
 11
5.17403565
 21
10.0883074
 31
2500.0
  0
ARC
  5
12B
100
AcDbEntity
  8
MST_1_1
 62
   251
  6
CONTINUOUS
100
AcDbCircle
 10
7.44516457
 20
-16.86822075
 30
2500.0
 40
26.95664419
100
AcDbArc
 50
84.08482032
 51
88.74811714
  0
LWPOLYLINE
  5
12C
100
AcDbEntity
  8
MST_1_1
 62
   251
  6
CONTINUOUS
100
AcDbPolyline
 90
        3
 70
     0
 43
0.0
 38
2500.0
 10
17.93749597
 20
8.54545025
 10
12.6270394
 20
9.58567952
 42
0.01723995
 10
10.79209587
 20
9.87983931
  0
ARC
  5
12D
100
AcDbEntity
  8
MST_1_1
 62
   251
  6
CONTINUOUS
100
AcDbCircle
 10
7.44516457
 20
33.95912125
 30
2500.0
 40
26.95664419
100
AcDbArc
 50
271.25189287
 51
272.83975061
  0
LWPOLYLINE
  5
12E
100
AcDbEntity
  8
MST_1_1
 62
   251
  6
CONTINUOUS
100
AcDbPolyline
 90
        3
 70
     0
 43
0.0
 38
2500.0
 10
17.93749597
 20
8.54545025
 10
12.6270394
 20
7.50522099
 42
-0.0063851
 10
11.9497884
 20
7.38151733
  0
ARC
  5
12F
100
AcDbEntity
  8
MST_1_1
 62
   251
  6
CONTINUOUS
100
AcDbCircle
 10
7.44516457
 20
33.95912125
 30
2500.0
 40
26.95664419
100
AcDbArc
 50
274.21680449
 51
278.53995004
  0
LWPOLYLINE
  5
130
100
AcDbEntity
  8
MST_1_1
 62
   137
  6
CONTINUOUS
100
AcDbPolyline
 90
        6
 70
     0
 43
0.0
 38
2500.0
 10
13.1988111
 20
10.00857164
 10
13.08035311
 20
9.49688297
 10
14.1014367
 20
7.29336564
 10
14.21472018
 20
7.81622099
 10
13.1988111
 20
10.00857164
 10
14.08187899
 20
7.33557154
  0
LINE
  5
131
100
AcDbEntity
  8
MST_1_1
 62
   137
  6
CONTINUOUS
100
AcDbLine
 10
-2.06250403
 20
-141.45454975
 30
0.0
 11
-2.06250403
 21
-136.60454975
 31
0.0
  0
LINE
  5
132
100
AcDbEntity
  8
MST_1_1
 62
   137
  6
CONTINUOUS
100
AcDbLine
 10
-2.06250403
 20
-136.60454975
 30
0.0
 11
-1.95472628
 21
-136.60454975
 31
0.0
  0
LWPOLYLINE
  5
133
100
AcDbEntity
  8
MST_1_1
 62
   137
  6
CONTINUOUS
100
AcDbPolyline
 90
        6
 70
     0
 43
0.0
 38
2500.0
 10
6.15907844
 20
-138.95454958
 10
5.93749597
 20
-139.9116926
 10
7.81090763
 20
-143.95454975
 10
8.03249018
 20
-142.99740689
 10
6.15907844
 20
-138.95454958
 10
7.81090763
 20
-143.95454975
  0
LINE
  5
134
100
AcDbEntity
  8
MST_1_1
 62
   137
  6
CONTINUOUS
100
AcDbLine
 10
0.93749597
 20
-139.9116926
 30
2500.0
 11
3.08035311
 21
-139.9116926
 31
2500.0
  0
LINE
  5
135
100
AcDbEntity
  8
MST_1_1
 62
   137
  6
CONTINUOUS
100
AcDbLine
 10
7.36737907
 20
-142.99740689
 30
2500.0
 11
5.17534733
 21
-142.99740689
 31
2500.0
  0
LINE
  5
136
100
AcDbEntity
  8
MST_1_1
 62
   137
  6
CONTINUOUS
100
AcDbLine
 10
4.51023622
 20
-142.99740689
 30
2500.0
 11
0.93749597
 21
-142.99740689
 31
2500.0
  0
LINE
  5
137
100
AcDbEntity
  8
MST_1_1
 62
   137
  6
CONTINUOUS
100
AcDbLine
 10
-1.95472628
 20
-136.60454975
 30
0.0
 11
0.93749597
 21
-139.9116926
 31
0.0
  0
LINE
  5
138
100
AcDbEntity
  8
MST_1_1
 62
   137
  6
CONTINUOUS
100
AcDbLine
 10
0.93749597
 20
-142.99740689
 30
0.0
 11
-1.95472628
 21
-146.30454975
 31
0.0
  0
LINE
  5
139
100
AcDbEntity
  8
MST_1_1
 62
   137
  6
CONTINUOUS
100
AcDbLine
 10
-1.95472628
 20
-146.30454975
 30
0.0
 11
-2.06250403
 21
-146.30454975
 31
0.0
  0
LINE
  5
13A
100
AcDbEntity
  8
MST_1_1
 62
   137
  6
CONTINUOUS
100
AcDbLine
 10
-2.06250403
 20
-146.30454975
 30
0.0
 11
-2.06250403
 21
-141.45454975
 31
0.0
  0
LWPOLYLINE
  5
13B
100
AcDbEntity
  8
MST_1_1
 62
   137
  6
CONTINUOUS
100
AcDbPolyline
 90
        6
 70
     0
 43
0.0
 38
2500.0
 10
9.0162213
 20
-138.95454958
 10
8.79463883
 20
-139.9116926
 10
10.66805049
 20
-143.95454975
 10
10.88963304
 20
-142.99740689
 10
9.0162213
 20
-138.95454958
 10
10.66805049
 20
-143.95454975
  0
LWPOLYLINE
  5
13C
100
AcDbEntity
  8
MST_1_1
 62
   137
  6
CONTINUOUS
100
AcDbPolyline
 90
        6
 70
     0
 43
0.0
 38
2500.0
 10
11.87336416
 20
-138.95454958
 10
11.65178168
 20
-139.9116926
 10
13.52519334
 20
-143.95454975
 10
13.7467759
 20
-142.99740689
 10
11.87336416
 20
-138.95454958
 10
13.52519334
 20
-143.95454975
  0
LWPOLYLINE
  5
13D
100
AcDbEntity
  8
MST_1_1
 62
   137
  6
CONTINUOUS
100
AcDbPolyline
 90
        6
 70
     0
 43
0.0
 38
2500.0
 10
37.58764987
 20
-138.95454958
 10
37.3660674
 20
-139.9116926
 10
39.23947906
 20
-143.95454975
 10
39.42730079
 20
-142.92455041
 10
37.58764987
 20
-138.95454958
 10
39.23947906
 20
-143.95454975
  0
LWPOLYLINE
  5
13E
100
AcDbEntity
  8
MST_1_1
 62
   137
  6
CONTINUOUS
100
AcDbPolyline
 90
        6
 70
     0
 43
0.0
 38
2500.0
 10
40.40269206
 20
-139.27982004
 10
40.22321025
 20
-140.0551059
 10
41.77030659
 20
-143.39376852
 10
41.9497884
 20
-142.61848267
 10
40.40269206
 20
-139.27982004
 10
41.7406737
 20
-143.32982018
  0
LINE
  5
13F
100
AcDbEntity
  8
MST_1_1
 62
   251
  6
CONTINUOUS
100
AcDbLine
 10
8.03249018
 20
-142.99740689
 30
2500.0
 11
10.22452193
 21
-142.99740689
 31
2500.0
  0
LINE
  5
140
100
AcDbEntity
  8
MST_1_1
 62
   251
  6
CONTINUOUS
100
AcDbLine
 10
10.88963304
 20
-142.99740689
 30
2500.0
 11
13.08166479
 21
-142.99740689
 31
2500.0
  0
LINE
  5
141
100
AcDbEntity
  8
MST_1_1
 62
   251
  6
CONTINUOUS
100
AcDbLine
 10
36.60391876
 20
-142.99740689
 30
2500.0
 11
38.03410631
 21
-142.99108865
 31
2500.0
  0
LINE
  5
142
100
AcDbEntity
  8
MST_1_1
 62
   251
  6
CONTINUOUS
100
AcDbLine
 10
8.79463883
 20
-139.9116926
 30
2500.0
 11
6.60260708
 21
-139.9116926
 31
2500.0
  0
LINE
  5
143
100
AcDbEntity
  8
MST_1_1
 62
   251
  6
CONTINUOUS
100
AcDbLine
 10
11.65178168
 20
-139.9116926
 30
2500.0
 11
9.45974994
 21
-139.9116926
 31
2500.0
  0
LINE
  5
144
100
AcDbEntity
  8
MST_1_1
 62
   251
  6
CONTINUOUS
100
AcDbLine
 10
37.3660674
 20
-139.9116926
 30
2500.0
 11
35.17403565
 21
-139.9116926
 31
2500.0
  0
ARC
  5
145
100
AcDbEntity
  8
MST_1_1
 62
   251
  6
CONTINUOUS
100
AcDbCircle
 10
37.44516457
 20
-166.86822075
 30
2500.0
 40
26.95664419
100
AcDbArc
 50
84.08482032
 51
88.74811714
  0
LWPOLYLINE
  5
146
100
AcDbEntity
  8
MST_1_1
 62
   251
  6
CONTINUOUS
100
AcDbPolyline
 90
        3
 70
     0
 43
0.0
 38
2500.0
 10
47.93749597
 20
-141.45454975
 10
42.6270394
 20
-140.41432048
 42
0.01723995
 10
40.79209587
 20
-140.12016069
  0
ARC
  5
147
100
AcDbEntity
  8
MST_1_1
 62
   251
  6
CONTINUOUS
100
AcDbCircle
 10
37.44516457
 20
-116.04087875
 30
2500.0
 40
26.95664419
100
AcDbArc
 50
271.25189287
 51
272.83975061
  0
LWPOLYLINE
  5
148
100
AcDbEntity
  8
MST_1_1
 62
   251
  6
CONTINUOUS
100
AcDbPolyline
 90
        3
 70
     0
 43
0.0
 38
2500.0
 10
47.93749597
 20
-141.45454975
 10
42.6270394
 20
-142.49477901
 42
-0.0063851
 10
41.9497884
 20
-142.61848267
  0
ARC
  5
149
100
AcDbEntity
  8
MST_1_1
 62
   251
  6
CONTINUOUS
100
AcDbCircle
 10
37.44516457
 20
-116.04087875
 30
2500.0
 40
26.95664419
100
AcDbArc
 50
274.21680449
 51
278.53995004
  0
LWPOLYLINE
  5
14A
100
AcDbEntity
  8
MST_1_1
 62
   137
  6
CONTINUOUS
100
AcDbPolyline
 90
        6
 70
     0
 43
0.0
 38
2500.0
 10
43.1988111
 20
-139.99142836
 10
43.08035311
 20
-140.50311703
 10
44.1014367
 20
-142.70663436
 10
44.21472018
 20
-142.18377901
 10
43.1988111
 20
-139.99142836
 10
44.08187899
 20
-142.66442846
  0
LWPOLYLINE
  5
14B
100
AcDbEntity
  8
MST_1_1
 62
   137
  6
CONTINUOUS
100
AcDbPolyline
 90
        6
 70
     0
 43
0.0
 38
2500.0
 10
34.73050701
 20
-138.95454958
 10
34.50892454
 20
-139.9116926
 10
36.3823362
 20
-143.95454975
 10
36.60391876
 20
-142.99740689
 10
34.73050701
 20
-138.95454958
 10
36.3823362
 20
-143.95454975
  0
LINE
  5
14C
100
AcDbEntity
  8
MST_1_1
 62
   251
  6
CONTINUOUS
100
AcDbLine
 10
33.7467759
 20
-142.99740689
 30
2500.0
 11
35.93880764
 21
-142.99740689
 31
2500.0
  0
LINE
  5
14D
100
AcDbEntity
  8
MST_1_1
 62
   251
  6
CONTINUOUS
100
AcDbLine
 10
34.50892454
 20
-139.9116926
 30
2500.0
 11
32.31689279
 21
-139.9116926
 31
2500.0
  0
LWPOLYLINE
  5
14E
100
AcDbEntity
  8
MST_1_1
 62
   137
  6
CONTINUOUS
100
AcDbPolyline
 90
        6
 70
     0
 43
0.0
 38
2500.0
 10
17.58764987
 20
-138.95454958
 10
17.3660674
 20
-139.9116926
 10
19.23947906
 20
-143.95454975
 10
19.46106161
 20
-142.99740689
 10
17.58764987
 20
-138.95454958
 10
19.23947906
 20
-143.95454975
  0
LINE
  5
14F
100
AcDbEntity
  8
MST_1_1
 62
   251
  6
CONTINUOUS
100
AcDbLine
 10
16.60391876
 20
-142.99740689
 30
2500.0
 11
18.7959505
 21
-142.99740689
 31
2500.0
  0
LINE
  5
150
100
AcDbEntity
  8
MST_1_1
 62
   251
  6
CONTINUOUS
100
AcDbLine
 10
17.3660674
 20
-139.9116926
 30
2500.0
 11
15.17403565
 21
-139.9116926
 31
2500.0
  0
LWPOLYLINE
  5
151
100
AcDbEntity
  8
MST_1_1
 62
   137
  6
CONTINUOUS
100
AcDbPolyline
 90
        6
 70
     0
 43
0.0
 38
2500.0
 10
31.87336416
 20
-138.95454958
 10
31.65178168
 20
-139.9116926
 10
33.52519334
 20
-143.95454975
 10
33.7467759
 20
-142.99740689
 10
31.87336416
 20
-138.95454958
 10
33.52519334
 20
-143.95454975
  0
LINE
  5
152
100
AcDbEntity
  8
MST_1_1
 62
   251
  6
CONTINUOUS
100
AcDbLine
 10
30.88963304
 20
-142.99740689
 30
2500.0
 11
33.08166479
 21
-142.99740689
 31
2500.0
  0
LINE
  5
153
100
AcDbEntity
  8
MST_1_1
 62
   251
  6
CONTINUOUS
100
AcDbLine
 10
31.65178168
 20
-139.9116926
 30
2500.0
 11
29.45974994
 21
-139.9116926
 31
2500.0
  0
LWPOLYLINE
  5
154
100
AcDbEntity
  8
MST_1_1
 62
   137
  6
CONTINUOUS
100
AcDbPolyline
 90
        6
 70
     0
 43
0.0
 38
2500.0
 10
29.0162213
 20
-138.95454958
 10
28.79463883
 20
-139.9116926
 10
30.66805049
 20
-143.95454975
 10
30.88963304
 20
-142.99740689
 10
29.0162213
 20
-138.95454958
 10
30.66805049
 20
-143.95454975
  0
LINE
  5
155
100
AcDbEntity
  8
MST_1_1
 62
   251
  6
CONTINUOUS
100
AcDbLine
 10
28.03249018
 20
-142.99740689
 30
2500.0
 11
30.22452193
 21
-142.99740689
 31
2500.0
  0
LINE
  5
156
100
AcDbEntity
  8
MST_1_1
 62
   251
  6
CONTINUOUS
100
AcDbLine
 10
28.79463883
 20
-139.9116926
 30
2500.0
 11
26.60260708
 21
-139.9116926
 31
2500.0
  0
LWPOLYLINE
  5
157
100
AcDbEntity
  8
MST_1_1
 62
   137
  6
CONTINUOUS
100
AcDbPolyline
 90
        6
 70
     0
 43
0.0
 38
2500.0
 10
14.73050701
 20
-138.95454958
 10
14.50892454
 20
-139.9116926
 10
16.3823362
 20
-143.95454975
 10
16.60391876
 20
-142.99740689
 10
14.73050701
 20
-138.95454958
 10
16.3823362
 20
-143.95454975
  0
LINE
  5
158
100
AcDbEntity
  8
MST_1_1
 62
   251
  6
CONTINUOUS
100
AcDbLine
 10
13.7467759
 20
-142.99740689
 30
2500.0
 11
15.93880764
 21
-142.99740689
 31
2500.0
  0
LINE
  5
159
100
AcDbEntity
  8
MST_1_1
 62
   251
  6
CONTINUOUS
100
AcDbLine
 10
14.50892454
 20
-139.9116926
 30
2500.0
 11
12.31689279
 21
-139.9116926
 31
2500.0
  0
LINE
  5
15A
100
AcDbEntity
  8
MST_1_1
 62
   137
  6
CONTINUOUS
100
AcDbLine
 10
-2.06250403
 20
-171.45454975
 30
0.0
 11
-2.06250403
 21
-166.60454975
 31
0.0
  0
LINE
  5
15B
100
AcDbEntity
  8
MST_1_1
 62
   137
  6
CONTINUOUS
100
AcDbLine
 10
-2.06250403
 20
-166.60454975
 30
0.0
 11
-1.95472628
 21
-166.60454975
 31
0.0
  0
LWPOLYLINE
  5
15C
100
AcDbEntity
  8
MST_1_1
 62
   137
  6
CONTINUOUS
100
AcDbPolyline
 90
        6
 70
     0
 43
0.0
 38
2500.0
 10
5.44479273
 20
-168.95454958
 10
5.22321025
 20
-169.9116926
 10
7.09662192
 20
-173.95454975
 10
7.31820447
 20
-172.99740689
 10
5.44479273
 20
-168.95454958
 10
7.09662192
 20
-173.95454975
  0
LINE
  5
15D
100
AcDbEntity
  8
MST_1_1
 62
   137
  6
CONTINUOUS
100
AcDbLine
 10
0.93749597
 20
-169.9116926
 30
2500.0
 11
5.22321025
 21
-169.9116926
 31
2500.0
  0
LWPOLYLINE
  5
15E
100
AcDbEntity
  8
MST_1_1
 62
   137
  6
CONTINUOUS
100
AcDbPolyline
 90
        4
 70
     0
 43
0.0
 38
2500.0
 10
3.7959505
 20
-172.99740689
 10
4.23947906
 20
-173.95454975
 10
4.46106161
 20
-172.99740689
 10
4.12870373
 20
-172.28017241
  0
LINE
  5
15F
100
AcDbEntity
  8
MST_1_1
 62
   137
  6
CONTINUOUS
100
AcDbLine
 10
3.87031655
 20
-172.83711424
 30
2500.0
 11
4.23947906
 21
-173.95454975
 31
2500.0
  0
LINE
  5
160
100
AcDbEntity
  8
MST_1_1
 62
   137
  6
CONTINUOUS
100
AcDbLine
 10
3.7959505
 20
-172.99740689
 30
2500.0
 11
4.12870373
 21
-172.28017241
 31
2500.0
  0
LINE
  5
161
100
AcDbEntity
  8
MST_1_1
 62
   137
  6
CONTINUOUS
100
AcDbLine
 10
6.65309336
 20
-172.99740689
 30
2500.0
 11
4.46106161
 21
-172.99740689
 31
2500.0
  0
LINE
  5
162
100
AcDbEntity
  8
MST_1_1
 62
   137
  6
CONTINUOUS
100
AcDbLine
 10
3.7959505
 20
-172.99740689
 30
2500.0
 11
0.93749597
 21
-172.99740689
 31
2500.0
  0
LINE
  5
163
100
AcDbEntity
  8
MST_1_1
 62
   137
  6
CONTINUOUS
100
AcDbLine
 10
-1.95472628
 20
-166.60454975
 30
0.0
 11
0.93749597
 21
-169.9116926
 31
0.0
  0
LINE
  5
164
100
AcDbEntity
  8
MST_1_1
 62
   137
  6
CONTINUOUS
100
AcDbLine
 10
0.93749597
 20
-172.99740689
 30
0.0
 11
-1.95472628
 21
-176.30454975
 31
0.0
  0
LINE
  5
165
100
AcDbEntity
  8
MST_1_1
 62
   137
  6
CONTINUOUS
100
AcDbLine
 10
-1.95472628
 20
-176.30454975
 30
0.0
 11
-2.06250403
 21
-176.30454975
 31
0.0
  0
LINE
  5
166
100
AcDbEntity
  8
MST_1_1
 62
   137
  6
CONTINUOUS
100
AcDbLine
 10
-2.06250403
 20
-176.30454975
 30
0.0
 11
-2.06250403
 21
-171.45454975
 31
0.0
  0
LWPOLYLINE
  5
167
100
AcDbEntity
  8
MST_1_1
 62
   137
  6
CONTINUOUS
100
AcDbPolyline
 90
        6
 70
     0
 43
0.0
 38
2500.0
 10
8.30193559
 20
-168.95454958
 10
8.08035311
 20
-169.9116926
 10
9.95376477
 20
-173.95454975
 10
10.17534733
 20
-172.99740689
 10
8.30193559
 20
-168.95454958
 10
9.95376477
 20
-173.95454975
  0
LWPOLYLINE
  5
168
100
AcDbEntity
  8
MST_1_1
 62
   137
  6
CONTINUOUS
100
AcDbPolyline
 90
        6
 70
     0
 43
0.0
 38
2500.0
 10
11.15907844
 20
-168.95454958
 10
10.93749597
 20
-169.9116926
 10
12.81090763
 20
-173.95454975
 10
13.03249018
 20
-172.99740689
 10
11.15907844
 20
-168.95454958
 10
12.81090763
 20
-173.95454975
  0
LWPOLYLINE
  5
169
100
AcDbEntity
  8
MST_1_1
 62
   137
  6
CONTINUOUS
100
AcDbPolyline
 90
        6
 70
     0
 43
0.0
 38
2500.0
 10
42.58764987
 20
-168.95454958
 10
42.3660674
 20
-169.9116926
 10
44.23947906
 20
-173.95454975
 10
44.42730079
 20
-172.92455041
 10
42.58764987
 20
-168.95454958
 10
44.23947906
 20
-173.95454975
  0
LWPOLYLINE
  5
16A
100
AcDbEntity
  8
MST_1_1
 62
   137
  6
CONTINUOUS
100
AcDbPolyline
 90
        6
 70
     0
 43
0.0
 38
2500.0
 10
45.40269206
 20
-169.27982004
 10
45.22321025
 20
-170.0551059
 10
46.77030659
 20
-173.39376852
 10
46.9497884
 20
-172.61848267
 10
45.40269206
 20
-169.27982004
 10
46.7406737
 20
-173.32982018
  0
LINE
  5
16B
100
AcDbEntity
  8
MST_1_1
 62
   251
  6
CONTINUOUS
100
AcDbLine
 10
7.31820447
 20
-172.99740689
 30
2500.0
 11
9.51023622
 21
-172.99740689
 31
2500.0
  0
LINE
  5
16C
100
AcDbEntity
  8
MST_1_1
 62
   251
  6
CONTINUOUS
100
AcDbLine
 10
10.17534733
 20
-172.99740689
 30
2500.0
 11
12.36737907
 21
-172.99740689
 31
2500.0
  0
LINE
  5
16D
100
AcDbEntity
  8
MST_1_1
 62
   251
  6
CONTINUOUS
100
AcDbLine
 10
41.60391876
 20
-172.99740689
 30
2500.0
 11
43.03410631
 21
-172.99108865
 31
2500.0
  0
LINE
  5
16E
100
AcDbEntity
  8
MST_1_1
 62
   251
  6
CONTINUOUS
100
AcDbLine
 10
8.08035311
 20
-169.9116926
 30
2500.0
 11
5.88832136
 21
-169.9116926
 31
2500.0
  0
LINE
  5
16F
100
AcDbEntity
  8
MST_1_1
 62
   251
  6
CONTINUOUS
100
AcDbLine
 10
10.93749597
 20
-169.9116926
 30
2500.0
 11
8.74546422
 21
-169.9116926
 31
2500.0
  0
LINE
  5
170
100
AcDbEntity
  8
MST_1_1
 62
   251
  6
CONTINUOUS
100
AcDbLine
 10
42.3660674
 20
-169.9116926
 30
2500.0
 11
40.17403565
 21
-169.9116926
 31
2500.0
  0
ARC
  5
171
100
AcDbEntity
  8
MST_1_1
 62
   251
  6
CONTINUOUS
100
AcDbCircle
 10
42.44516457
 20
-196.86822075
 30
2500.0
 40
26.95664419
100
AcDbArc
 50
84.08482032
 51
88.74811714
  0
LWPOLYLINE
  5
172
100
AcDbEntity
  8
MST_1_1
 62
   251
  6
CONTINUOUS
100
AcDbPolyline
 90
        3
 70
     0
 43
0.0
 38
2500.0
 10
52.93749597
 20
-171.45454975
 10
47.6270394
 20
-170.41432048
 42
0.01723995
 10
45.79209587
 20
-170.12016069
  0
ARC
  5
173
100
AcDbEntity
  8
MST_1_1
 62
   251
  6
CONTINUOUS
100
AcDbCircle
 10
42.44516457
 20
-146.04087875
 30
2500.0
 40
26.95664419
100
AcDbArc
 50
271.25189287
 51
272.83975061
  0
LWPOLYLINE
  5
174
100
AcDbEntity
  8
MST_1_1
 62
   251
  6
CONTINUOUS
100
AcDbPolyline
 90
        3
 70
     0
 43
0.0
 38
2500.0
 10
52.93749597
 20
-171.45454975
 10
47.6270394
 20
-172.49477901
 42
-0.0063851
 10
46.9497884
 20
-172.61848267
  0
ARC
  5
175
100
AcDbEntity
  8
MST_1_1
 62
   251
  6
CONTINUOUS
100
AcDbCircle
 10
42.44516457
 20
-146.04087875
 30
2500.0
 40
26.95664419
100
AcDbArc
 50
274.21680449
 51
278.53995004
  0
LWPOLYLINE
  5
176
100
AcDbEntity
  8
MST_1_1
 62
   137
  6
CONTINUOUS
100
AcDbPolyline
 90
        6
 70
     0
 43
0.0
 38
2500.0
 10
48.1988111
 20
-169.99142836
 10
48.08035311
 20
-170.50311703
 10
49.1014367
 20
-172.70663436
 10
49.21472018
 20
-172.18377901
 10
48.1988111
 20
-169.99142836
 10
49.08187899
 20
-172.66442846
  0
LWPOLYLINE
  5
177
100
AcDbEntity
  8
MST_1_1
 62
   137
  6
CONTINUOUS
100
AcDbPolyline
 90
        6
 70
     0
 43
0.0
 38
2500.0
 10
39.73050701
 20
-168.95454958
 10
39.50892454
 20
-169.9116926
 10
41.3823362
 20
-173.95454975
 10
41.60391876
 20
-172.99740689
 10
39.73050701
 20
-168.95454958
 10
41.3823362
 20
-173.95454975
  0
LINE
  5
178
100
AcDbEntity
  8
MST_1_1
 62
   251
  6
CONTINUOUS
100
AcDbLine
 10
38.7467759
 20
-172.99740689
 30
2500.0
 11
40.93880764
 21
-172.99740689
 31
2500.0
  0
LINE
  5
179
100
AcDbEntity
  8
MST_1_1
 62
   251
  6
CONTINUOUS
100
AcDbLine
 10
39.50892454
 20
-169.9116926
 30
2500.0
 11
37.31689279
 21
-169.9116926
 31
2500.0
  0
LWPOLYLINE
  5
17A
100
AcDbEntity
  8
MST_1_1
 62
   137
  6
CONTINUOUS
100
AcDbPolyline
 90
        6
 70
     0
 43
0.0
 38
2500.0
 10
16.87336416
 20
-168.95454958
 10
16.65178168
 20
-169.9116926
 10
18.52519334
 20
-173.95454975
 10
18.7467759
 20
-172.99740689
 10
16.87336416
 20
-168.95454958
 10
18.52519334
 20
-173.95454975
  0
LINE
  5
17B
100
AcDbEntity
  8
MST_1_1
 62
   251
  6
CONTINUOUS
100
AcDbLine
 10
15.88963304
 20
-172.99740689
 30
2500.0
 11
18.08166479
 21
-172.99740689
 31
2500.0
  0
LINE
  5
17C
100
AcDbEntity
  8
MST_1_1
 62
   251
  6
CONTINUOUS
100
AcDbLine
 10
16.65178168
 20
-169.9116926
 30
2500.0
 11
14.45974994
 21
-169.9116926
 31
2500.0
  0
LWPOLYLINE
  5
17D
100
AcDbEntity
  8
MST_1_1
 62
   137
  6
CONTINUOUS
100
AcDbPolyline
 90
        6
 70
     0
 43
0.0
 38
2500.0
 10
36.87336416
 20
-168.95454958
 10
36.65178168
 20
-169.9116926
 10
38.52519334
 20
-173.95454975
 10
38.7467759
 20
-172.99740689
 10
36.87336416
 20
-168.95454958
 10
38.52519334
 20
-173.95454975
  0
LINE
  5
17E
100
AcDbEntity
  8
MST_1_1
 62
   251
  6
CONTINUOUS
100
AcDbLine
 10
35.88963304
 20
-172.99740689
 30
2500.0
 11
38.08166479
 21
-172.99740689
 31
2500.0
  0
LINE
  5
17F
100
AcDbEntity
  8
MST_1_1
 62
   251
  6
CONTINUOUS
100
AcDbLine
 10
36.65178168
 20
-169.9116926
 30
2500.0
 11
34.45974994
 21
-169.9116926
 31
2500.0
  0
LWPOLYLINE
  5
180
100
AcDbEntity
  8
MST_1_1
 62
   137
  6
CONTINUOUS
100
AcDbPolyline
 90
        6
 70
     0
 43
0.0
 38
2500.0
 10
19.73050701
 20
-168.95454958
 10
19.50892454
 20
-169.9116926
 10
21.3823362
 20
-173.95454975
 10
21.60391876
 20
-172.99740689
 10
19.73050701
 20
-168.95454958
 10
21.3823362
 20
-173.95454975
  0
LINE
  5
181
100
AcDbEntity
  8
MST_1_1
 62
   251
  6
CONTINUOUS
100
AcDbLine
 10
18.7467759
 20
-172.99740689
 30
2500.0
 11
20.93880764
 21
-172.99740689
 31
2500.0
  0
LINE
  5
182
100
AcDbEntity
  8
MST_1_1
 62
   251
  6
CONTINUOUS
100
AcDbLine
 10
19.50892454
 20
-169.9116926
 30
2500.0
 11
17.31689279
 21
-169.9116926
 31
2500.0
  0
LWPOLYLINE
  5
183
100
AcDbEntity
  8
MST_1_1
 62
   137
  6
CONTINUOUS
100
AcDbPolyline
 90
        6
 70
     0
 43
0.0
 38
2500.0
 10
14.0162213
 20
-168.95454958
 10
13.79463883
 20
-169.9116926
 10
15.66805049
 20
-173.95454975
 10
15.88963304
 20
-172.99740689
 10
14.0162213
 20
-168.95454958
 10
15.66805049
 20
-173.95454975
  0
LINE
  5
184
100
AcDbEntity
  8
MST_1_1
 62
   251
  6
CONTINUOUS
100
AcDbLine
 10
13.03249018
 20
-172.99740689
 30
2500.0
 11
15.22452193
 21
-172.99740689
 31
2500.0
  0
LINE
  5
185
100
AcDbEntity
  8
MST_1_1
 62
   251
  6
CONTINUOUS
100
AcDbLine
 10
13.79463883
 20
-169.9116926
 30
2500.0
 11
11.60260708
 21
-169.9116926
 31
2500.0
  0
LINE
  5
186
100
AcDbEntity
  8
MST_1_1
 62
   137
  6
CONTINUOUS
100
AcDbLine
 10
-2.06250403
 20
-201.45454975
 30
0.0
 11
-2.06250403
 21
-196.60454975
 31
0.0
  0
LINE
  5
187
100
AcDbEntity
  8
MST_1_1
 62
   137
  6
CONTINUOUS
100
AcDbLine
 10
-2.06250403
 20
-196.60454975
 30
0.0
 11
-1.95472628
 21
-196.60454975
 31
0.0
  0
LWPOLYLINE
  5
188
100
AcDbEntity
  8
MST_1_1
 62
   137
  6
CONTINUOUS
100
AcDbPolyline
 90
        6
 70
     0
 43
0.0
 38
2500.0
 10
4.73050701
 20
-198.95454958
 10
4.50892454
 20
-199.9116926
 10
6.3823362
 20
-203.95454975
 10
6.60391876
 20
-202.99740689
 10
4.73050701
 20
-198.95454958
 10
6.3823362
 20
-203.95454975
  0
LINE
  5
189
100
AcDbEntity
  8
MST_1_1
 62
   137
  6
CONTINUOUS
100
AcDbLine
 10
0.93749597
 20
-199.9116926
 30
2500.0
 11
4.50892454
 21
-199.9116926
 31
2500.0
  0
LWPOLYLINE
  5
18A
100
AcDbEntity
  8
MST_1_1
 62
   137
  6
CONTINUOUS
100
AcDbPolyline
 90
        4
 70
     0
 43
0.0
 38
2500.0
 10
3.08166479
 20
-202.99740689
 10
3.52519334
 20
-203.95454975
 10
3.7467759
 20
-202.99740689
 10
3.41441802
 20
-202.28017241
  0
LINE
  5
18B
100
AcDbEntity
  8
MST_1_1
 62
   137
  6
CONTINUOUS
100
AcDbLine
 10
3.15603084
 20
-202.83711424
 30
2500.0
 11
3.52519334
 21
-203.95454975
 31
2500.0
  0
LINE
  5
18C
100
AcDbEntity
  8
MST_1_1
 62
   137
  6
CONTINUOUS
100
AcDbLine
 10
3.08166479
 20
-202.99740689
 30
2500.0
 11
3.41441802
 21
-202.28017241
 31
2500.0
  0
LINE
  5
18D
100
AcDbEntity
  8
MST_1_1
 62
   137
  6
CONTINUOUS
100
AcDbLine
 10
5.93880764
 20
-202.99740689
 30
2500.0
 11
3.7467759
 21
-202.99740689
 31
2500.0
  0
LINE
  5
18E
100
AcDbEntity
  8
MST_1_1
 62
   137
  6
CONTINUOUS
100
AcDbLine
 10
3.08166479
 20
-202.99740689
 30
2500.0
 11
0.93749597
 21
-202.99740689
 31
2500.0
  0
LINE
  5
18F
100
AcDbEntity
  8
MST_1_1
 62
   137
  6
CONTINUOUS
100
AcDbLine
 10
-1.95472628
 20
-196.60454975
 30
0.0
 11
0.93749597
 21
-199.9116926
 31
0.0
  0
LINE
  5
190
100
AcDbEntity
  8
MST_1_1
 62
   137
  6
CONTINUOUS
100
AcDbLine
 10
0.93749597
 20
-202.99740689
 30
0.0
 11
-1.95472628
 21
-206.30454975
 31
0.0
  0
LINE
  5
191
100
AcDbEntity
  8
MST_1_1
 62
   137
  6
CONTINUOUS
100
AcDbLine
 10
-1.95472628
 20
-206.30454975
 30
0.0
 11
-2.06250403
 21
-206.30454975
 31
0.0
  0
LINE
  5
192
100
AcDbEntity
  8
MST_1_1
 62
   137
  6
CONTINUOUS
100
AcDbLine
 10
-2.06250403
 20
-206.30454975
 30
0.0
 11
-2.06250403
 21
-201.45454975
 31
0.0
  0
LWPOLYLINE
  5
193
100
AcDbEntity
  8
MST_1_1
 62
   137
  6
CONTINUOUS
100
AcDbPolyline
 90
        6
 70
     0
 43
0.0
 38
2500.0
 10
7.58764987
 20
-198.95454958
 10
7.3660674
 20
-199.9116926
 10
9.23947906
 20
-203.95454975
 10
9.46106161
 20
-202.99740689
 10
7.58764987
 20
-198.95454958
 10
9.23947906
 20
-203.95454975
  0
LWPOLYLINE
  5
194
100
AcDbEntity
  8
MST_1_1
 62
   137
  6
CONTINUOUS
100
AcDbPolyline
 90
        6
 70
     0
 43
0.0
 38
2500.0
 10
10.44479273
 20
-198.95454958
 10
10.22321025
 20
-199.9116926
 10
12.09662192
 20
-203.95454975
 10
12.31820447
 20
-202.99740689
 10
10.44479273
 20
-198.95454958
 10
12.09662192
 20
-203.95454975
  0
LWPOLYLINE
  5
195
100
AcDbEntity
  8
MST_1_1
 62
   137
  6
CONTINUOUS
100
AcDbPolyline
 90
        6
 70
     0
 43
0.0
 38
2500.0
 10
47.58764987
 20
-198.95454958
 10
47.3660674
 20
-199.9116926
 10
49.23947906
 20
-203.95454975
 10
49.42730079
 20
-202.92455041
 10
47.58764987
 20
-198.95454958
 10
49.23947906
 20
-203.95454975
  0
LWPOLYLINE
  5
196
100
AcDbEntity
  8
MST_1_1
 62
   137
  6
CONTINUOUS
100
AcDbPolyline
 90
        6
 70
     0
 43
0.0
 38
2500.0
 10
50.40269206
 20
-199.27982004
 10
50.22321025
 20
-200.0551059
 10
51.77030659
 20
-203.39376852
 10
51.9497884
 20
-202.61848267
 10
50.40269206
 20
-199.27982004
 10
51.7406737
 20
-203.32982018
  0
LINE
  5
197
100
AcDbEntity
  8
MST_1_1
 62
   251
  6
CONTINUOUS
100
AcDbLine
 10
6.60391876
 20
-202.99740689
 30
2500.0
 11
8.7959505
 21
-202.99740689
 31
2500.0
  0
LINE
  5
198
100
AcDbEntity
  8
MST_1_1
 62
   251
  6
CONTINUOUS
100
AcDbLine
 10
9.46106161
 20
-202.99740689
 30
2500.0
 11
11.65309336
 21
-202.99740689
 31
2500.0
  0
LINE
  5
199
100
AcDbEntity
  8
MST_1_1
 62
   251
  6
CONTINUOUS
100
AcDbLine
 10
46.60391876
 20
-202.99740689
 30
2500.0
 11
48.03410631
 21
-202.99108865
 31
2500.0
  0
LINE
  5
19A
100
AcDbEntity
  8
MST_1_1
 62
   251
  6
CONTINUOUS
100
AcDbLine
 10
7.3660674
 20
-199.9116926
 30
2500.0
 11
5.17403565
 21
-199.9116926
 31
2500.0
  0
LINE
  5
19B
100
AcDbEntity
  8
MST_1_1
 62
   251
  6
CONTINUOUS
100
AcDbLine
 10
10.22321025
 20
-199.9116926
 30
2500.0
 11
8.03117851
 21
-199.9116926
 31
2500.0
  0
LINE
  5
19C
100
AcDbEntity
  8
MST_1_1
 62
   251
  6
CONTINUOUS
100
AcDbLine
 10
47.3660674
 20
-199.9116926
 30
2500.0
 11
45.17403565
 21
-199.9116926
 31
2500.0
  0
ARC
  5
19D
100
AcDbEntity
  8
MST_1_1
 62
   251
  6
CONTINUOUS
100
AcDbCircle
 10
47.44516457
 20
-226.86822075
 30
2500.0
 40
26.95664419
100
AcDbArc
 50
84.08482032
 51
88.74811714
  0
LWPOLYLINE
  5
19E
100
AcDbEntity
  8
MST_1_1
 62
   251
  6
CONTINUOUS
100
AcDbPolyline
 90
        3
 70
     0
 43
0.0
 38
2500.0
 10
57.93749597
 20
-201.45454975
 10
52.6270394
 20
-200.41432048
 42
0.01723995
 10
50.79209587
 20
-200.12016069
  0
ARC
  5
19F
100
AcDbEntity
  8
MST_1_1
 62
   251
  6
CONTINUOUS
100
AcDbCircle
 10
47.44516457
 20
-176.04087875
 30
2500.0
 40
26.95664419
100
AcDbArc
 50
271.25189287
 51
272.83975061
  0
LWPOLYLINE
  5
1A0
100
AcDbEntity
  8
MST_1_1
 62
   251
  6
CONTINUOUS
100
AcDbPolyline
 90
        3
 70
     0
 43
0.0
 38
2500.0
 10
57.93749597
 20
-201.45454975
 10
52.6270394
 20
-202.49477901
 42
-0.0063851
 10
51.9497884
 20
-202.61848267
  0
ARC
  5
1A1
100
AcDbEntity
  8
MST_1_1
 62
   251
  6
CONTINUOUS
100
AcDbCircle
 10
47.44516457
 20
-176.04087875
 30
2500.0
 40
26.95664419
100
AcDbArc
 50
274.21680449
 51
278.53995004
  0
LWPOLYLINE
  5
1A2
100
AcDbEntity
  8
MST_1_1
 62
   137
  6
CONTINUOUS
100
AcDbPolyline
 90
        6
 70
     0
 43
0.0
 38
2500.0
 10
53.1988111
 20
-199.99142836
 10
53.08035311
 20
-200.50311703
 10
54.1014367
 20
-202.70663436
 10
54.21472018
 20
-202.18377901
 10
53.1988111
 20
-199.99142836
 10
54.08187899
 20
-202.66442846
  0
LWPOLYLINE
  5
1A3
100
AcDbEntity
  8
MST_1_1
 62
   137
  6
CONTINUOUS
100
AcDbPolyline
 90
        6
 70
     0
 43
0.0
 38
2500.0
 10
44.73050701
 20
-198.95454958
 10
44.50892454
 20
-199.9116926
 10
46.3823362
 20
-203.95454975
 10
46.60391876
 20
-202.99740689
 10
44.73050701
 20
-198.95454958
 10
46.3823362
 20
-203.95454975
  0
LINE
  5
1A4
100
AcDbEntity
  8
MST_1_1
 62
   251
  6
CONTINUOUS
100
AcDbLine
 10
43.7467759
 20
-202.99740689
 30
2500.0
 11
45.93880764
 21
-202.99740689
 31
2500.0
  0
LINE
  5
1A5
100
AcDbEntity
  8
MST_1_1
 62
   251
  6
CONTINUOUS
100
AcDbLine
 10
44.50892454
 20
-199.9116926
 30
2500.0
 11
42.31689279
 21
-199.9116926
 31
2500.0
  0
LWPOLYLINE
  5
1A6
100
AcDbEntity
  8
MST_1_1
 62
   137
  6
CONTINUOUS
100
AcDbPolyline
 90
        6
 70
     0
 43
0.0
 38
2500.0
 10
16.15907844
 20
-198.95454958
 10
15.93749597
 20
-199.9116926
 10
17.81090763
 20
-203.95454975
 10
18.03249018
 20
-202.99740689
 10
16.15907844
 20
-198.95454958
 10
17.81090763
 20
-203.95454975
  0
LINE
  5
1A7
100
AcDbEntity
  8
MST_1_1
 62
   251
  6
CONTINUOUS
100
AcDbLine
 10
15.17534733
 20
-202.99740689
 30
2500.0
 11
17.36737907
 21
-202.99740689
 31
2500.0
  0
LINE
  5
1A8
100
AcDbEntity
  8
MST_1_1
 62
   251
  6
CONTINUOUS
100
AcDbLine
 10
15.93749597
 20
-199.9116926
 30
2500.0
 11
13.74546422
 21
-199.9116926
 31
2500.0
  0
LWPOLYLINE
  5
1A9
100
AcDbEntity
  8
MST_1_1
 62
   137
  6
CONTINUOUS
100
AcDbPolyline
 90
        6
 70
     0
 43
0.0
 38
2500.0
 10
41.87336416
 20
-198.95454958
 10
41.65178168
 20
-199.9116926
 10
43.52519334
 20
-203.95454975
 10
43.7467759
 20
-202.99740689
 10
41.87336416
 20
-198.95454958
 10
43.52519334
 20
-203.95454975
  0
LINE
  5
1AA
100
AcDbEntity
  8
MST_1_1
 62
   251
  6
CONTINUOUS
100
AcDbLine
 10
40.88963304
 20
-202.99740689
 30
2500.0
 11
43.08166479
 21
-202.99740689
 31
2500.0
  0
LINE
  5
1AB
100
AcDbEntity
  8
MST_1_1
 62
   251
  6
CONTINUOUS
100
AcDbLine
 10
41.65178168
 20
-199.9116926
 30
2500.0
 11
39.45974994
 21
-199.9116926
 31
2500.0
  0
LWPOLYLINE
  5
1AC
100
AcDbEntity
  8
MST_1_1
 62
   137
  6
CONTINUOUS
100
AcDbPolyline
 90
        6
 70
     0
 43
0.0
 38
2500.0
 10
19.0162213
 20
-198.95454958
 10
18.79463883
 20
-199.9116926
 10
20.66805049
 20
-203.95454975
 10
20.88963304
 20
-202.99740689
 10
19.0162213
 20
-198.95454958
 10
20.66805049
 20
-203.95454975
  0
LINE
  5
1AD
100
AcDbEntity
  8
MST_1_1
 62
   251
  6
CONTINUOUS
100
AcDbLine
 10
18.03249018
 20
-202.99740689
 30
2500.0
 11
20.22452193
 21
-202.99740689
 31
2500.0
  0
LINE
  5
1AE
100
AcDbEntity
  8
MST_1_1
 62
   251
  6
CONTINUOUS
100
AcDbLine
 10
18.79463883
 20
-199.9116926
 30
2500.0
 11
16.60260708
 21
-199.9116926
 31
2500.0
  0
LWPOLYLINE
  5
1AF
100
AcDbEntity
  8
MST_1_1
 62
   137
  6
CONTINUOUS
100
AcDbPolyline
 90
        6
 70
     0
 43
0.0
 38
2500.0
 10
13.30193559
 20
-198.95454958
 10
13.08035311
 20
-199.9116926
 10
14.95376477
 20
-203.95454975
 10
15.17534733
 20
-202.99740689
 10
13.30193559
 20
-198.95454958
 10
14.95376477
 20
-203.95454975
  0
LINE
  5
1B0
100
AcDbEntity
  8
MST_1_1
 62
   251
  6
CONTINUOUS
100
AcDbLine
 10
12.31820447
 20
-202.99740689
 30
2500.0
 11
14.51023622
 21
-202.99740689
 31
2500.0
  0
LINE
  5
1B1
100
AcDbEntity
  8
MST_1_1
 62
   251
  6
CONTINUOUS
100
AcDbLine
 10
13.08035311
 20
-199.9116926
 30
2500.0
 11
10.88832136
 21
-199.9116926
 31
2500.0
  0
LWPOLYLINE
  5
1B2
100
AcDbEntity
  8
MST_1_1
 62
   137
  6
CONTINUOUS
100
AcDbPolyline
 90
        6
 70
     0
 43
0.0
 38
2500.0
 10
3.30193559
 20
-48.95454958
 10
3.08035311
 20
-49.9116926
 10
4.95376477
 20
-53.95454975
 10
5.17534733
 20
-52.99740689
 10
3.30193559
 20
-48.95454958
 10
4.95376477
 20
-53.95454975
  0
LINE
  5
1B3
100
AcDbEntity
  8
MST_1_1
 62
   251
  6
CONTINUOUS
100
AcDbLine
 10
5.93749597
 20
-49.9116926
 30
2500.0
 11
3.74546422
 21
-49.9116926
 31
2500.0
  0
LWPOLYLINE
  5
1B4
100
AcDbEntity
  8
MST_1_1
 62
   137
  6
CONTINUOUS
100
AcDbPolyline
 90
        6
 70
     0
 43
0.0
 38
2500.0
 10
2.58764987
 20
-78.95454958
 10
2.3660674
 20
-79.9116926
 10
4.23947906
 20
-83.95454975
 10
4.46106161
 20
-82.99740689
 10
2.58764987
 20
-78.95454958
 10
4.23947906
 20
-83.95454975
  0
LINE
  5
1B5
100
AcDbEntity
  8
MST_1_1
 62
   251
  6
CONTINUOUS
100
AcDbLine
 10
5.22321025
 20
-79.9116926
 30
2500.0
 11
3.03117851
 21
-79.9116926
 31
2500.0
  0
LWPOLYLINE
  5
1B6
100
AcDbEntity
  8
MST_1_1
 62
   137
  6
CONTINUOUS
100
AcDbPolyline
 90
        6
 70
     0
 43
0.0
 38
2500.0
 10
20.44479273
 20
-138.95454958
 10
20.22321025
 20
-139.9116926
 10
22.09662192
 20
-143.95454975
 10
22.31820447
 20
-142.99740689
 10
20.44479273
 20
-138.95454958
 10
22.09662192
 20
-143.95454975
  0
LINE
  5
1B7
100
AcDbEntity
  8
MST_1_1
 62
   251
  6
CONTINUOUS
100
AcDbLine
 10
19.46106161
 20
-142.99740689
 30
2500.0
 11
21.65309336
 21
-142.99740689
 31
2500.0
  0
LINE
  5
1B8
100
AcDbEntity
  8
MST_1_1
 62
   251
  6
CONTINUOUS
100
AcDbLine
 10
20.22321025
 20
-139.9116926
 30
2500.0
 11
18.03117851
 21
-139.9116926
 31
2500.0
  0
LWPOLYLINE
  5
1B9
100
AcDbEntity
  8
MST_1_1
 62
   137
  6
CONTINUOUS
100
AcDbPolyline
 90
        6
 70
     0
 43
0.0
 38
2500.0
 10
26.15907844
 20
-138.95454958
 10
25.93749597
 20
-139.9116926
 10
27.81090763
 20
-143.95454975
 10
28.03249018
 20
-142.99740689
 10
26.15907844
 20
-138.95454958
 10
27.81090763
 20
-143.95454975
  0
LINE
  5
1BA
100
AcDbEntity
  8
MST_1_1
 62
   251
  6
CONTINUOUS
100
AcDbLine
 10
25.17534733
 20
-142.99740689
 30
2500.0
 11
27.36737907
 21
-142.99740689
 31
2500.0
  0
LINE
  5
1BB
100
AcDbEntity
  8
MST_1_1
 62
   251
  6
CONTINUOUS
100
AcDbLine
 10
25.93749597
 20
-139.9116926
 30
2500.0
 11
23.74546422
 21
-139.9116926
 31
2500.0
  0
LWPOLYLINE
  5
1BC
100
AcDbEntity
  8
MST_1_1
 62
   137
  6
CONTINUOUS
100
AcDbPolyline
 90
        6
 70
     0
 43
0.0
 38
2500.0
 10
23.30193559
 20
-138.95454958
 10
23.08035311
 20
-139.9116926
 10
24.95376477
 20
-143.95454975
 10
25.17534733
 20
-142.99740689
 10
23.30193559
 20
-138.95454958
 10
24.95376477
 20
-143.95454975
  0
LINE
  5
1BD
100
AcDbEntity
  8
MST_1_1
 62
   251
  6
CONTINUOUS
100
AcDbLine
 10
22.31820447
 20
-142.99740689
 30
2500.0
 11
24.51023622
 21
-142.99740689
 31
2500.0
  0
LINE
  5
1BE
100
AcDbEntity
  8
MST_1_1
 62
   251
  6
CONTINUOUS
100
AcDbLine
 10
23.08035311
 20
-139.9116926
 30
2500.0
 11
20.88832136
 21
-139.9116926
 31
2500.0
  0
LWPOLYLINE
  5
1BF
100
AcDbEntity
  8
MST_1_1
 62
   137
  6
CONTINUOUS
100
AcDbPolyline
 90
        6
 70
     0
 43
0.0
 38
2500.0
 10
3.30193559
 20
-138.95454958
 10
3.08035311
 20
-139.9116926
 10
4.95376477
 20
-143.95454975
 10
5.17534733
 20
-142.99740689
 10
3.30193559
 20
-138.95454958
 10
4.95376477
 20
-143.95454975
  0
LINE
  5
1C0
100
AcDbEntity
  8
MST_1_1
 62
   251
  6
CONTINUOUS
100
AcDbLine
 10
5.93749597
 20
-139.9116926
 30
2500.0
 11
3.74546422
 21
-139.9116926
 31
2500.0
  0
LWPOLYLINE
  5
1C1
100
AcDbEntity
  8
MST_1_1
 62
   137
  6
CONTINUOUS
100
AcDbPolyline
 90
        6
 70
     0
 43
0.0
 38
2500.0
 10
22.58764987
 20
-168.95454958
 10
22.3660674
 20
-169.9116926
 10
24.23947906
 20
-173.95454975
 10
24.46106161
 20
-172.99740689
 10
22.58764987
 20
-168.95454958
 10
24.23947906
 20
-173.95454975
  0
LWPOLYLINE
  5
1C2
100
AcDbEntity
  8
MST_1_1
 62
   137
  6
CONTINUOUS
100
AcDbPolyline
 90
        6
 70
     0
 43
0.0
 38
2500.0
 10
25.44479273
 20
-168.95454958
 10
25.22321025
 20
-169.9116926
 10
27.09662192
 20
-173.95454975
 10
27.31820447
 20
-172.99740689
 10
25.44479273
 20
-168.95454958
 10
27.09662192
 20
-173.95454975
  0
LINE
  5
1C3
100
AcDbEntity
  8
MST_1_1
 62
   251
  6
CONTINUOUS
100
AcDbLine
 10
21.60391876
 20
-172.99740689
 30
2500.0
 11
23.7959505
 21
-172.99740689
 31
2500.0
  0
LINE
  5
1C4
100
AcDbEntity
  8
MST_1_1
 62
   251
  6
CONTINUOUS
100
AcDbLine
 10
24.46106161
 20
-172.99740689
 30
2500.0
 11
26.65309336
 21
-172.99740689
 31
2500.0
  0
LINE
  5
1C5
100
AcDbEntity
  8
MST_1_1
 62
   251
  6
CONTINUOUS
100
AcDbLine
 10
22.3660674
 20
-169.9116926
 30
2500.0
 11
20.17403565
 21
-169.9116926
 31
2500.0
  0
LINE
  5
1C6
100
AcDbEntity
  8
MST_1_1
 62
   251
  6
CONTINUOUS
100
AcDbLine
 10
25.22321025
 20
-169.9116926
 30
2500.0
 11
23.03117851
 21
-169.9116926
 31
2500.0
  0
LWPOLYLINE
  5
1C7
100
AcDbEntity
  8
MST_1_1
 62
   137
  6
CONTINUOUS
100
AcDbPolyline
 90
        6
 70
     0
 43
0.0
 38
2500.0
 10
31.15907844
 20
-168.95454958
 10
30.93749597
 20
-169.9116926
 10
32.81090763
 20
-173.95454975
 10
33.03249018
 20
-172.99740689
 10
31.15907844
 20
-168.95454958
 10
32.81090763
 20
-173.95454975
  0
LINE
  5
1C8
100
AcDbEntity
  8
MST_1_1
 62
   251
  6
CONTINUOUS
100
AcDbLine
 10
30.17534733
 20
-172.99740689
 30
2500.0
 11
32.36737907
 21
-172.99740689
 31
2500.0
  0
LINE
  5
1C9
100
AcDbEntity
  8
MST_1_1
 62
   251
  6
CONTINUOUS
100
AcDbLine
 10
30.93749597
 20
-169.9116926
 30
2500.0
 11
28.74546422
 21
-169.9116926
 31
2500.0
  0
LWPOLYLINE
  5
1CA
100
AcDbEntity
  8
MST_1_1
 62
   137
  6
CONTINUOUS
100
AcDbPolyline
 90
        6
 70
     0
 43
0.0
 38
2500.0
 10
34.0162213
 20
-168.95454958
 10
33.79463883
 20
-169.9116926
 10
35.66805049
 20
-173.95454975
 10
35.88963304
 20
-172.99740689
 10
34.0162213
 20
-168.95454958
 10
35.66805049
 20
-173.95454975
  0
LINE
  5
1CB
100
AcDbEntity
  8
MST_1_1
 62
   251
  6
CONTINUOUS
100
AcDbLine
 10
33.03249018
 20
-172.99740689
 30
2500.0
 11
35.22452193
 21
-172.99740689
 31
2500.0
  0
LINE
  5
1CC
100
AcDbEntity
  8
MST_1_1
 62
   251
  6
CONTINUOUS
100
AcDbLine
 10
33.79463883
 20
-169.9116926
 30
2500.0
 11
31.60260708
 21
-169.9116926
 31
2500.0
  0
LWPOLYLINE
  5
1CD
100
AcDbEntity
  8
MST_1_1
 62
   137
  6
CONTINUOUS
100
AcDbPolyline
 90
        6
 70
     0
 43
0.0
 38
2500.0
 10
28.30193559
 20
-168.95454958
 10
28.08035311
 20
-169.9116926
 10
29.95376477
 20
-173.95454975
 10
30.17534733
 20
-172.99740689
 10
28.30193559
 20
-168.95454958
 10
29.95376477
 20
-173.95454975
  0
LINE
  5
1CE
100
AcDbEntity
  8
MST_1_1
 62
   251
  6
CONTINUOUS
100
AcDbLine
 10
27.31820447
 20
-172.99740689
 30
2500.0
 11
29.51023622
 21
-172.99740689
 31
2500.0
  0
LINE
  5
1CF
100
AcDbEntity
  8
MST_1_1
 62
   251
  6
CONTINUOUS
100
AcDbLine
 10
28.08035311
 20
-169.9116926
 30
2500.0
 11
25.88832136
 21
-169.9116926
 31
2500.0
  0
LWPOLYLINE
  5
1D0
100
AcDbEntity
  8
MST_1_1
 62
   137
  6
CONTINUOUS
100
AcDbPolyline
 90
        6
 70
     0
 43
0.0
 38
2500.0
 10
27.58764987
 20
-198.95454958
 10
27.3660674
 20
-199.9116926
 10
29.23947906
 20
-203.95454975
 10
29.46106161
 20
-202.99740689
 10
27.58764987
 20
-198.95454958
 10
29.23947906
 20
-203.95454975
  0
LWPOLYLINE
  5
1D1
100
AcDbEntity
  8
MST_1_1
 62
   137
  6
CONTINUOUS
100
AcDbPolyline
 90
        6
 70
     0
 43
0.0
 38
2500.0
 10
30.44479273
 20
-198.95454958
 10
30.22321025
 20
-199.9116926
 10
32.09662192
 20
-203.95454975
 10
32.31820447
 20
-202.99740689
 10
30.44479273
 20
-198.95454958
 10
32.09662192
 20
-203.95454975
  0
LINE
  5
1D2
100
AcDbEntity
  8
MST_1_1
 62
   251
  6
CONTINUOUS
100
AcDbLine
 10
26.60391876
 20
-202.99740689
 30
2500.0
 11
28.7959505
 21
-202.99740689
 31
2500.0
  0
LINE
  5
1D3
100
AcDbEntity
  8
MST_1_1
 62
   251
  6
CONTINUOUS
100
AcDbLine
 10
29.46106161
 20
-202.99740689
 30
2500.0
 11
31.65309336
 21
-202.99740689
 31
2500.0
  0
LINE
  5
1D4
100
AcDbEntity
  8
MST_1_1
 62
   251
  6
CONTINUOUS
100
AcDbLine
 10
27.3660674
 20
-199.9116926
 30
2500.0
 11
25.17403565
 21
-199.9116926
 31
2500.0
  0
LINE
  5
1D5
100
AcDbEntity
  8
MST_1_1
 62
   251
  6
CONTINUOUS
100
AcDbLine
 10
30.22321025
 20
-199.9116926
 30
2500.0
 11
28.03117851
 21
-199.9116926
 31
2500.0
  0
LWPOLYLINE
  5
1D6
100
AcDbEntity
  8
MST_1_1
 62
   137
  6
CONTINUOUS
100
AcDbPolyline
 90
        6
 70
     0
 43
0.0
 38
2500.0
 10
36.15907844
 20
-198.95454958
 10
35.93749597
 20
-199.9116926
 10
37.81090763
 20
-203.95454975
 10
38.03249018
 20
-202.99740689
 10
36.15907844
 20
-198.95454958
 10
37.81090763
 20
-203.95454975
  0
LINE
  5
1D7
100
AcDbEntity
  8
MST_1_1
 62
   251
  6
CONTINUOUS
100
AcDbLine
 10
35.17534733
 20
-202.99740689
 30
2500.0
 11
37.36737907
 21
-202.99740689
 31
2500.0
  0
LINE
  5
1D8
100
AcDbEntity
  8
MST_1_1
 62
   251
  6
CONTINUOUS
100
AcDbLine
 10
35.93749597
 20
-199.9116926
 30
2500.0
 11
33.74546422
 21
-199.9116926
 31
2500.0
  0
LWPOLYLINE
  5
1D9
100
AcDbEntity
  8
MST_1_1
 62
   137
  6
CONTINUOUS
100
AcDbPolyline
 90
        6
 70
     0
 43
0.0
 38
2500.0
 10
39.0162213
 20
-198.95454958
 10
38.79463883
 20
-199.9116926
 10
40.66805049
 20
-203.95454975
 10
40.88963304
 20
-202.99740689
 10
39.0162213
 20
-198.95454958
 10
40.66805049
 20
-203.95454975
  0
LINE
  5
1DA
100
AcDbEntity
  8
MST_1_1
 62
   251
  6
CONTINUOUS
100
AcDbLine
 10
38.03249018
 20
-202.99740689
 30
2500.0
 11
40.22452193
 21
-202.99740689
 31
2500.0
  0
LINE
  5
1DB
100
AcDbEntity
  8
MST_1_1
 62
   251
  6
CONTINUOUS
100
AcDbLine
 10
38.79463883
 20
-199.9116926
 30
2500.0
 11
36.60260708
 21
-199.9116926
 31
2500.0
  0
LWPOLYLINE
  5
1DC
100
AcDbEntity
  8
MST_1_1
 62
   137
  6
CONTINUOUS
100
AcDbPolyline
 90
        6
 70
     0
 43
0.0
 38
2500.0
 10
33.30193559
 20
-198.95454958
 10
33.08035311
 20
-199.9116926
 10
34.95376477
 20
-203.95454975
 10
35.17534733
 20
-202.99740689
 10
33.30193559
 20
-198.95454958
 10
34.95376477
 20
-203.95454975
  0
LINE
  5
1DD
100
AcDbEntity
  8
MST_1_1
 62
   251
  6
CONTINUOUS
100
AcDbLine
 10
32.31820447
 20
-202.99740689
 30
2500.0
 11
34.51023622
 21
-202.99740689
 31
2500.0
  0
LINE
  5
1DE
100
AcDbEntity
  8
MST_1_1
 62
   251
  6
CONTINUOUS
100
AcDbLine
 10
33.08035311
 20
-199.9116926
 30
2500.0
 11
30.88832136
 21
-199.9116926
 31
2500.0
  0
LWPOLYLINE
  5
1DF
100
AcDbEntity
  8
MST_1_1
 62
   137
  6
CONTINUOUS
100
AcDbPolyline
 90
        6
 70
     0
 43
0.0
 38
2500.0
 10
21.87336416
 20
-198.95454958
 10
21.65178168
 20
-199.9116926
 10
23.52519334
 20
-203.95454975
 10
23.7467759
 20
-202.99740689
 10
21.87336416
 20
-198.95454958
 10
23.52519334
 20
-203.95454975
  0
LINE
  5
1E0
100
AcDbEntity
  8
MST_1_1
 62
   251
  6
CONTINUOUS
100
AcDbLine
 10
20.88963304
 20
-202.99740689
 30
2500.0
 11
23.08166479
 21
-202.99740689
 31
2500.0
  0
LINE
  5
1E1
100
AcDbEntity
  8
MST_1_1
 62
   251
  6
CONTINUOUS
100
AcDbLine
 10
21.65178168
 20
-199.9116926
 30
2500.0
 11
19.45974994
 21
-199.9116926
 31
2500.0
  0
LWPOLYLINE
  5
1E2
100
AcDbEntity
  8
MST_1_1
 62
   137
  6
CONTINUOUS
100
AcDbPolyline
 90
        6
 70
     0
 43
0.0
 38
2500.0
 10
24.73050701
 20
-198.95454958
 10
24.50892454
 20
-199.9116926
 10
26.3823362
 20
-203.95454975
 10
26.60391876
 20
-202.99740689
 10
24.73050701
 20
-198.95454958
 10
26.3823362
 20
-203.95454975
  0
LINE
  5
1E3
100
AcDbEntity
  8
MST_1_1
 62
   251
  6
CONTINUOUS
100
AcDbLine
 10
23.7467759
 20
-202.99740689
 30
2500.0
 11
25.93880764
 21
-202.99740689
 31
2500.0
  0
LINE
  5
1E4
100
AcDbEntity
  8
MST_1_1
 62
   251
  6
CONTINUOUS
100
AcDbLine
 10
24.50892454
 20
-199.9116926
 30
2500.0
 11
22.31689279
 21
-199.9116926
 31
2500.0
  0
CIRCLE
  5
1E5
100
AcDbEntity
  8
MST_1_1
 62
   137
  6
CONTINUOUS
100
AcDbCircle
 10
-90.93574785
 20
8.54545025
 30
0.0
 40
2.32981333
  0
CIRCLE
  5
1E6
100
AcDbEntity
  8
MST_1_1
 62
   137
  6
CONTINUOUS
100
AcDbCircle
 10
-90.93574785
 20
8.54545025
 30
0.0
 40
1.32203389
  0
CIRCLE
  5
1E7
100
AcDbEntity
  8
MST_1_1
 62
   137
  6
CONTINUOUS
100
AcDbCircle
 10
-90.93574785
 20
8.54545025
 30
0.0
 40
2.32981333
  0
CIRCLE
  5
1E8
100
AcDbEntity
  8
MST_1_1
 62
   137
  6
CONTINUOUS
100
AcDbCircle
 10
-90.93574785
 20
8.54545025
 30
0.0
 40
2.32981333
  0
CIRCLE
  5
1E9
100
AcDbEntity
  8
MST_1_1
 62
   137
  6
CONTINUOUS
100
AcDbCircle
 10
-90.93574785
 20
8.54545025
 30
0.0
 40
4.85
  0
ARC
  5
1EA
100
AcDbEntity
  8
MST_1_1
 62
   137
  6
CONTINUOUS
100
AcDbCircle
 10
-92.8097478
 20
8.54545025
 30
0.0
 40
0.37600003
100
AcDbArc
 50
106.48878485
 51
253.51122516
  0
ARC
  5
1EB
100
AcDbEntity
  8
MST_1_1
 62
   137
  6
CONTINUOUS
100
AcDbCircle
 10
-93.19601859
 20
7.2404823
 30
0.0
 40
0.98493585
100
AcDbArc
 50
346.4887751
 51
73.5112424
  0
ARC
  5
1EC
100
AcDbEntity
  8
MST_1_1
 62
   137
  6
CONTINUOUS
100
AcDbCircle
 10
-91.87274778
 20
6.9225187
 30
0.0
 40
0.37600004
100
AcDbArc
 50
166.48877314
 51
313.51122983
  0
ARC
  5
1ED
100
AcDbEntity
  8
MST_1_1
 62
   137
  6
CONTINUOUS
100
AcDbCircle
 10
-90.93574785
 20
5.93551458
 30
0.0
 40
0.98493568
100
AcDbArc
 50
46.48875513
 51
133.51124487
  0
ARC
  5
1EE
100
AcDbEntity
  8
MST_1_1
 62
   137
  6
CONTINUOUS
100
AcDbCircle
 10
-89.99874789
 20
6.92251866
 30
0.0
 40
0.37600002
100
AcDbArc
 50
226.48878273
 51
13.51123435
  0
ARC
  5
1EF
100
AcDbEntity
  8
MST_1_1
 62
   137
  6
CONTINUOUS
100
AcDbCircle
 10
-88.67547707
 20
7.24048228
 30
0.0
 40
0.98493588
100
AcDbArc
 50
106.48875933
 51
193.51124321
  0
ARC
  5
1F0
100
AcDbEntity
  8
MST_1_1
 62
   137
  6
CONTINUOUS
100
AcDbCircle
 10
-89.0617479
 20
8.54545025
 30
0.0
 40
0.37600003
100
AcDbArc
 50
286.48879487
 51
73.51121515
  0
ARC
  5
1F1
100
AcDbEntity
  8
MST_1_1
 62
   137
  6
CONTINUOUS
100
AcDbCircle
 10
-88.6754771
 20
9.8504182
 30
0.0
 40
0.98493585
100
AcDbArc
 50
166.48876508
 51
253.51125242
  0
ARC
  5
1F2
100
AcDbEntity
  8
MST_1_1
 62
   137
  6
CONTINUOUS
100
AcDbCircle
 10
-89.99874791
 20
10.1683818
 30
0.0
 40
0.37600004
100
AcDbArc
 50
346.48878316
 51
133.51121981
  0
ARC
  5
1F3
100
AcDbEntity
  8
MST_1_1
 62
   137
  6
CONTINUOUS
100
AcDbCircle
 10
-90.93574785
 20
11.15538593
 30
0.0
 40
0.98493568
100
AcDbArc
 50
226.48876515
 51
313.51125489
  0
ARC
  5
1F4
100
AcDbEntity
  8
MST_1_1
 62
   137
  6
CONTINUOUS
100
AcDbCircle
 10
-91.87274781
 20
10.16838185
 30
0.0
 40
0.37600002
100
AcDbArc
 50
46.48877271
 51
193.51124436
  0
ARC
  5
1F5
100
AcDbEntity
  8
MST_1_1
 62
   137
  6
CONTINUOUS
100
AcDbCircle
 10
-93.19601863
 20
9.85041822
 30
0.0
 40
0.98493588
100
AcDbArc
 50
286.48876935
 51
13.51123319
  0
LWPOLYLINE
  5
1F6
100
AcDbEntity
  8
MST_1_1
 62
   137
  6
CONTINUOUS
100
AcDbPolyline
 90
        9
 70
     0
 43
0.0
 10
-92.63280408
 20
5.57560179
 10
-92.62071888
 20
5.5876871
 10
-92.60862426
 20
5.59978172
 10
-92.59652045
 20
5.61188542
 10
-92.58440743
 20
5.62399844
 10
-92.57228534
 20
5.63612053
 10
-92.56015416
 20
5.64825171
 10
-92.54801391
 20
5.66039196
 10
-92.53586457
 20
5.6725413
  0
ARC
  5
1F7
100
AcDbEntity
  8
MST_1_1
 62
   137
  6
CONTINUOUS
100
AcDbCircle
 10
-92.33299086
 20
5.84147391
 30
0.0
 40
0.26399994
100
AcDbArc
 50
50.21590624
 51
219.78410378
  0
LWPOLYLINE
  5
1F8
100
AcDbEntity
  8
MST_1_1
 62
   137
  6
CONTINUOUS
100
AcDbPolyline
 90
        9
 70
     0
 43
0.0
 10
-92.16405825
 20
6.04434762
 10
-92.15196514
 20
6.05644085
 10
-92.13986493
 20
6.06854105
 10
-92.12775774
 20
6.08064802
 10
-92.11564368
 20
6.09276219
 10
-92.10352263
 20
6.10488312
 10
-92.09139483
 20
6.11701104
 10
-92.07926016
 20
6.12914571
 10
-92.06711874
 20
6.14128713
  0
LWPOLYLINE
  5
1F9
100
AcDbEntity
  8
MST_1_1
 62
   137
  6
CONTINUOUS
100
AcDbPolyline
 90
        9
 70
     0
 43
0.0
 10
-92.06711874
 20
6.14128713
 10
-92.13956749
 20
6.21373611
 10
-92.21209249
 20
6.28626099
 10
-92.28468396
 20
6.35885246
 10
-92.3573319
 20
6.43150051
 10
-92.43002663
 20
6.50419513
 10
-92.50275838
 20
6.57692676
 10
-92.57551726
 20
6.64968576
 10
-92.64829337
 20
6.72246187
  0
LWPOLYLINE
  5
1FA
100
AcDbEntity
  8
MST_1_1
 62
   137
  6
CONTINUOUS
100
AcDbPolyline
 90
        9
 70
     0
 43
0.0
 10
-92.64829337
 20
6.72246187
 10
-92.65258956
 20
6.71816567
 10
-92.65688482
 20
6.7138703
 10
-92.66117938
 20
6.70957574
 10
-92.66547313
 20
6.70528211
 10
-92.66976594
 20
6.70098918
 10
-92.67405794
 20
6.69669718
 10
-92.67834913
 20
6.69240611
 10
-92.68263938
 20
6.68811574
  0
LWPOLYLINE
  5
1FB
100
AcDbEntity
  8
MST_1_1
 62
   137
  6
CONTINUOUS
100
AcDbPolyline
 90
       25
 70
     0
 43
0.0
 10
-92.68263938
 20
6.68811576
 10
-92.68622888
 20
6.69364466
 10
-92.68991376
 20
6.69910031
 10
-92.69369301
 20
6.70448171
 10
-92.69756563
 20
6.70978784
 10
-92.70153062
 20
6.71501772
 10
-92.70558698
 20
6.72017032
 10
-92.7097337
 20
6.72524465
 10
-92.71396978
 20
6.7302397
 10
-92.71829422
 20
6.73515447
 10
-92.72270601
 20
6.73998796
 10
-92.72720416
 20
6.74473915
 10
-92.73178767
 20
6.74940704
 10
-92.73645552
 20
6.75399062
 10
-92.74120672
 20
6.75848891
 10
-92.74604026
 20
6.76290087
 10
-92.75095515
 20
6.76722552
 10
-92.75595038
 20
6.77146185
 10
-92.76102495
 20
6.77560886
 10
-92.76617785
 20
6.77966552
 10
-92.77140809
 20
6.78363086
 10
-92.77671466
 20
6.78750385
 10
-92.78209656
 20
6.79128349
 10
-92.78755278
 20
6.79496879
 10
-92.79308234
 20
6.79855872
  0
LWPOLYLINE
  5
1FC
100
AcDbEntity
  8
MST_1_1
 62
   137
  6
CONTINUOUS
100
AcDbPolyline
 90
        9
 70
     0
 43
0.0
 10
-92.79308236
 20
6.79855872
 10
-92.78879199
 20
6.80284897
 10
-92.78450092
 20
6.80714016
 10
-92.78020892
 20
6.81143216
 10
-92.77591599
 20
6.81572497
 10
-92.77162236
 20
6.82001872
 10
-92.7673278
 20
6.82431328
 10
-92.76303242
 20
6.82860854
 10
-92.75873623
 20
6.83290473
  0
LWPOLYLINE
  5
1FD
100
AcDbEntity
  8
MST_1_1
 62
   137
  6
CONTINUOUS
100
AcDbPolyline
 90
        9
 70
     0
 43
0.0
 10
-92.75873623
 20
6.83290473
 10
-92.83151234
 20
6.90568084
 10
-92.90427133
 20
6.97843972
 10
-92.97700297
 20
7.05117147
 10
-93.04969759
 20
7.1238662
 10
-93.12234564
 20
7.19651414
 10
-93.19493711
 20
7.26910561
 10
-93.26746199
 20
7.34163061
 10
-93.33991097
 20
7.41407936
  0
LWPOLYLINE
  5
1FE
100
AcDbEntity
  8
MST_1_1
 62
   137
  6
CONTINUOUS
100
AcDbPolyline
 90
        9
 70
     0
 43
0.0
 10
-93.33991097
 20
7.41407936
 10
-93.35205239
 20
7.40193794
 10
-93.36418706
 20
7.38980327
 10
-93.37631498
 20
7.37767547
 10
-93.38843591
 20
7.36555442
 10
-93.40055008
 20
7.35344036
 10
-93.41265705
 20
7.34133317
 10
-93.42475725
 20
7.32923296
 10
-93.43685048
 20
7.31713985
  0
ARC
  5
1FF
100
AcDbEntity
  8
MST_1_1
 62
   137
  6
CONTINUOUS
100
AcDbCircle
 10
-93.63972407
 20
7.14820712
 30
0.0
 40
0.26399993
100
AcDbArc
 50
230.21587884
 51
39.78413117
  0
LWPOLYLINE
  5
200
100
AcDbEntity
  8
MST_1_1
 62
   137
  6
CONTINUOUS
100
AcDbPolyline
 90
        9
 70
     0
 43
0.0
 10
-93.8086568
 20
6.94533353
 10
-93.82080614
 20
6.93318419
 10
-93.83294639
 20
6.92104394
 10
-93.84507757
 20
6.90891276
 10
-93.85719966
 20
6.89679067
 10
-93.86931268
 20
6.88467765
 10
-93.88141638
 20
6.87257384
 10
-93.893511
 20
6.86047921
 10
-93.9055963
 20
6.84839402
  0
LWPOLYLINE
  5
201
100
AcDbEntity
  8
MST_1_1
 62
   137
  6
CONTINUOUS
100
AcDbPolyline
 90
        9
 70
     0
 43
0.0
 10
-93.9055963
 20
6.84839402
 10
-93.83316013
 20
6.77595762
 10
-93.7606427
 20
6.7034403
 10
-93.68805472
 20
6.63085244
 10
-93.61540667
 20
6.55820439
 10
-93.54270902
 20
6.48550651
 10
-93.4699718
 20
6.41276952
 10
-93.39720594
 20
6.34000366
 10
-93.32442168
 20
6.2672194
  0
LWPOLYLINE
  5
202
100
AcDbEntity
  8
MST_1_1
 62
   137
  6
CONTINUOUS
100
AcDbPolyline
 90
        9
 70
     0
 43
0.0
 10
-93.32442168
 20
6.2672194
 10
-93.32013248
 20
6.27150861
 10
-93.31584211
 20
6.27579898
 10
-93.31155057
 20
6.28009051
 10
-93.30725787
 20
6.28438321
 10
-93.30296401
 20
6.28867707
 10
-93.29866898
 20
6.29297187
 10
-93.29437302
 20
6.29726806
 10
-93.29007567
 20
6.30156541
  0
LWPOLYLINE
  5
203
100
AcDbEntity
  8
MST_1_1
 62
   137
  6
CONTINUOUS
100
AcDbPolyline
 90
       25
 70
     0
 43
0.0
 10
-93.29007565
 20
6.30156541
 10
-93.28648646
 20
6.29603703
 10
-93.2828018
 20
6.29058178
 10
-93.27902267
 20
6.28520067
 10
-93.2751501
 20
6.27989473
 10
-93.27118509
 20
6.27466497
 10
-93.26712866
 20
6.2695124
 10
-93.26298181
 20
6.26443803
 10
-93.25874556
 20
6.25944289
 10
-93.25442093
 20
6.25452798
 10
-93.25000891
 20
6.24969432
 10
-93.24551053
 20
6.24494292
 10
-93.24092679
 20
6.24027481
 10
-93.23625872
 20
6.23569098
 10
-93.23150731
 20
6.23119247
 10
-93.22667359
 20
6.22678027
 10
-93.22175855
 20
6.22245542
 10
-93.21676323
 20
6.21821891
 10
-93.21168862
 20
6.21407178
 10
-93.20653574
 20
6.21001502
 10
-93.2013056
 20
6.20604966
 10
-93.19599921
 20
6.2021767
 10
-93.19061759
 20
6.19839718
 10
-93.18516175
 20
6.19471209
 10
-93.17963269
 20
6.19112245
  0
LWPOLYLINE
  5
204
100
AcDbEntity
  8
MST_1_1
 62
   137
  6
CONTINUOUS
100
AcDbPolyline
 90
        9
 70
     0
 43
0.0
 10
-93.17963269
 20
6.19112243
 10
-93.18393004
 20
6.18682507
 10
-93.18822623
 20
6.18252912
 10
-93.19252103
 20
6.17823409
 10
-93.19681489
 20
6.17394023
 10
-93.20110759
 20
6.16964753
 10
-93.20539912
 20
6.16535599
 10
-93.20968949
 20
6.16106562
 10
-93.2139787
 20
6.15677642
  0
LWPOLYLINE
  5
205
100
AcDbEntity
  8
MST_1_1
 62
   137
  6
CONTINUOUS
100
AcDbPolyline
 90
        9
 70
     0
 43
0.0
 10
-93.2139787
 20
6.15677642
 10
-93.14119444
 20
6.08399216
 10
-93.06842858
 20
6.0112263
 10
-92.99569159
 20
5.93848907
 10
-92.92299371
 20
5.86579143
 10
-92.85034566
 20
5.79314338
 10
-92.7777578
 20
5.7205554
 10
-92.70524048
 20
5.64803797
 10
-92.63280408
 20
5.57560179
  0
CIRCLE
  5
206
100
AcDbEntity
  8
MST_1_1
 62
   137
  6
CONTINUOUS
100
AcDbCircle
 10
-90.93574785
 20
8.54545025
 30
0.0
 40
4.24799398
  0
LWPOLYLINE
  5
207
100
AcDbEntity
  8
MST_1_1
 62
   137
  6
CONTINUOUS
100
AcDbPolyline
 90
        9
 70
     0
 43
0.0
 10
-92.90774959
 20
6.84615349
 10
-92.9553893
 20
6.89379321
 10
-93.00301807
 20
6.94142209
 10
-93.05063357
 20
6.98903759
 10
-93.09823276
 20
7.03663678
 10
-93.14581287
 20
7.08421689
 10
-93.19337109
 20
7.13177523
 10
-93.24090486
 20
7.17930888
 10
-93.28841116
 20
7.22681518
  0
ARC
  5
208
100
AcDbEntity
  8
MST_1_1
 62
   137
  6
CONTINUOUS
100
AcDbCircle
 10
-92.98635777
 20
6.49484095
 30
0.0
 40
0.35999965
100
AcDbArc
 50
77.38749365
 51
127.33775307
  0
LWPOLYLINE
  5
209
100
AcDbEntity
  8
MST_1_1
 62
   137
  6
CONTINUOUS
100
AcDbPolyline
 90
        9
 70
     0
 43
0.0
 10
-92.70013078
 20
6.27649607
 10
-92.76317922
 20
6.33954451
 10
-92.82624734
 20
6.40261275
 10
-92.8893285
 20
6.46569402
 10
-92.95241629
 20
6.52878181
 10
-93.01550408
 20
6.5918696
 10
-93.07858535
 20
6.65495076
 10
-93.14165358
 20
6.71801888
 10
-93.20470203
 20
6.78106732
  0
ARC
  5
20A
100
AcDbEntity
  8
MST_1_1
 62
   137
  6
CONTINUOUS
100
AcDbCircle
 10
-92.98635787
 20
6.49484049
 30
0.0
 40
0.36000032
100
AcDbArc
 50
322.66230677
 51
12.61245653
  0
LWPOLYLINE
  5
20B
100
AcDbEntity
  8
MST_1_1
 62
   137
  6
CONTINUOUS
100
AcDbPolyline
 90
        9
 70
     0
 43
0.0
 10
-92.25438292
 20
6.19278694
 10
-92.30188922
 20
6.24029324
 10
-92.34942287
 20
6.28782701
 10
-92.39698121
 20
6.33538523
 10
-92.44456131
 20
6.38296533
 10
-92.49216051
 20
6.43056453
 10
-92.53977601
 20
6.47818003
 10
-92.58740489
 20
6.5258088
 10
-92.6350446
 20
6.57344851
  0
ARC
  5
20C
100
AcDbEntity
  8
MST_1_1
 62
   137
  6
CONTINUOUS
100
AcDbCircle
 10
-92.33299068
 20
5.84147381
 30
0.0
 40
0.36000013
100
AcDbArc
 50
77.38757789
 51
192.61246315
  0
LWPOLYLINE
  5
20D
100
AcDbEntity
  8
MST_1_1
 62
   137
  6
CONTINUOUS
100
AcDbPolyline
 90
        9
 70
     0
 43
0.0
 10
-93.06496546
 20
6.14352766
 10
-93.01732318
 20
6.09588515
 10
-92.96969186
 20
6.04825405
 10
-92.92207496
 20
6.00063716
 10
-92.87447507
 20
5.95303726
 10
-92.82689508
 20
5.90545716
 10
-92.7793379
 20
5.8579001
 10
-92.73180646
 20
5.81036866
 10
-92.68430377
 20
5.76286585
  0
ARC
  5
20E
100
AcDbEntity
  8
MST_1_1
 62
   137
  6
CONTINUOUS
100
AcDbCircle
 10
-92.98635767
 20
6.4948416
 30
0.0
 40
0.36000093
100
AcDbArc
 50
257.38761324
 51
307.3376629
  0
LWPOLYLINE
  5
20F
100
AcDbEntity
  8
MST_1_1
 62
   137
  6
CONTINUOUS
100
AcDbPolyline
 90
        9
 70
     0
 43
0.0
 10
-93.27258427
 20
6.71318496
 10
-93.20953582
 20
6.65013675
 10
-93.14646782
 20
6.58706863
 10
-93.08338655
 20
6.52398736
 10
-93.02029853
 20
6.46089957
 10
-92.95721074
 20
6.39781155
 10
-92.89412946
 20
6.33473028
 10
-92.83106135
 20
6.27166228
 10
-92.76801314
 20
6.20861383
  0
ARC
  5
210
100
AcDbEntity
  8
MST_1_1
 62
   137
  6
CONTINUOUS
100
AcDbCircle
 10
-92.98635751
 20
6.49484065
 30
0.0
 40
0.36
100
AcDbArc
 50
142.66227791
 51
192.61247599
  0
LWPOLYLINE
  5
211
100
AcDbEntity
  8
MST_1_1
 62
   137
  6
CONTINUOUS
100
AcDbPolyline
 90
        9
 70
     0
 43
0.0
 10
-93.71833225
 20
6.79689433
 10
-93.67082944
 20
6.74939164
 10
-93.623298
 20
6.7018602
 10
-93.57574094
 20
6.65430302
 10
-93.52816083
 20
6.60672303
 10
-93.48056094
 20
6.55912314
 10
-93.43294404
 20
6.51150624
 10
-93.38531295
 20
6.46387491
 10
-93.33767044
 20
6.41623264
  0
ARC
  5
212
100
AcDbEntity
  8
MST_1_1
 62
   137
  6
CONTINUOUS
100
AcDbCircle
 10
-93.63972419
 20
7.14820731
 30
0.0
 40
0.36000006
100
AcDbArc
 50
257.38753734
 51
12.61244165
  0
LWPOLYLINE
  5
213
100
AcDbEntity
  8
MST_1_1
 62
   137
  6
CONTINUOUS
100
AcDbPolyline
 90
        9
 70
     0
 43
0.0
 10
-93.09237172
 20
6.73661937
 10
-93.04890503
 20
6.69315268
 10
-93.00543206
 20
6.64967971
 10
-92.96195466
 20
6.60620231
 10
-92.91847517
 20
6.56272293
 10
-92.87499579
 20
6.51924344
 10
-92.83151839
 20
6.47576604
 10
-92.78804542
 20
6.43229307
 10
-92.74457873
 20
6.38882638
  0
ARC
  5
214
100
AcDbEntity
  8
MST_1_1
 62
   137
  6
CONTINUOUS
100
AcDbCircle
 10
-92.98635747
 20
6.49484063
 30
0.0
 40
0.26399996
100
AcDbArc
 50
336.32369791
 51
113.67631211
  0
LWPOLYLINE
  5
215
100
AcDbEntity
  8
MST_1_1
 62
   137
  6
CONTINUOUS
100
AcDbPolyline
 90
        9
 70
     0
 43
0.0
 10
-92.88034321
 20
6.2530619
 10
-92.92380978
 20
6.29652835
 10
-92.96728276
 20
6.34000133
 10
-93.01076015
 20
6.38347873
 10
-93.05423965
 20
6.42695845
 10
-93.09771937
 20
6.47043794
 10
-93.14119677
 20
6.51391534
 10
-93.18466974
 20
6.55738832
 10
-93.2281362
 20
6.60085489
  0
ARC
  5
216
100
AcDbEntity
  8
MST_1_1
 62
   137
  6
CONTINUOUS
100
AcDbCircle
 10
-92.98635755
 20
6.49484055
 30
0.0
 40
0.26399992
100
AcDbArc
 50
156.32366302
 51
293.676347
  0
CIRCLE
  5
217
100
AcDbEntity
  8
MST_1_1
 62
   137
  6
CONTINUOUS
100
AcDbCircle
 10
-90.93574785
 20
-21.45454975
 30
0.0
 40
2.32981333
  0
CIRCLE
  5
218
100
AcDbEntity
  8
MST_1_1
 62
   137
  6
CONTINUOUS
100
AcDbCircle
 10
-90.93574785
 20
-21.45454975
 30
0.0
 40
1.32203389
  0
CIRCLE
  5
219
100
AcDbEntity
  8
MST_1_1
 62
   137
  6
CONTINUOUS
100
AcDbCircle
 10
-90.93574785
 20
-21.45454975
 30
0.0
 40
2.32981333
  0
CIRCLE
  5
21A
100
AcDbEntity
  8
MST_1_1
 62
   137
  6
CONTINUOUS
100
AcDbCircle
 10
-90.93574785
 20
-21.45454975
 30
0.0
 40
2.32981333
  0
CIRCLE
  5
21B
100
AcDbEntity
  8
MST_1_1
 62
   137
  6
CONTINUOUS
100
AcDbCircle
 10
-90.93574785
 20
-21.45454975
 30
0.0
 40
4.85
  0
ARC
  5
21C
100
AcDbEntity
  8
MST_1_1
 62
   137
  6
CONTINUOUS
100
AcDbCircle
 10
-92.8097478
 20
-21.45454975
 30
0.0
 40
0.37600003
100
AcDbArc
 50
106.48878485
 51
253.51122516
  0
ARC
  5
21D
100
AcDbEntity
  8
MST_1_1
 62
   137
  6
CONTINUOUS
100
AcDbCircle
 10
-93.19601859
 20
-22.7595177
 30
0.0
 40
0.98493585
100
AcDbArc
 50
346.4887751
 51
73.5112424
  0
ARC
  5
21E
100
AcDbEntity
  8
MST_1_1
 62
   137
  6
CONTINUOUS
100
AcDbCircle
 10
-91.87274778
 20
-23.0774813
 30
0.0
 40
0.37600004
100
AcDbArc
 50
166.48877314
 51
313.51122983
  0
ARC
  5
21F
100
AcDbEntity
  8
MST_1_1
 62
   137
  6
CONTINUOUS
100
AcDbCircle
 10
-90.93574785
 20
-24.06448542
 30
0.0
 40
0.98493568
100
AcDbArc
 50
46.48875513
 51
133.51124487
  0
ARC
  5
220
100
AcDbEntity
  8
MST_1_1
 62
   137
  6
CONTINUOUS
100
AcDbCircle
 10
-89.99874789
 20
-23.07748134
 30
0.0
 40
0.37600002
100
AcDbArc
 50
226.48878273
 51
13.51123435
  0
ARC
  5
221
100
AcDbEntity
  8
MST_1_1
 62
   137
  6
CONTINUOUS
100
AcDbCircle
 10
-88.67547707
 20
-22.75951772
 30
0.0
 40
0.98493588
100
AcDbArc
 50
106.48875933
 51
193.51124321
  0
ARC
  5
222
100
AcDbEntity
  8
MST_1_1
 62
   137
  6
CONTINUOUS
100
AcDbCircle
 10
-89.0617479
 20
-21.45454975
 30
0.0
 40
0.37600003
100
AcDbArc
 50
286.48879487
 51
73.51121515
  0
ARC
  5
223
100
AcDbEntity
  8
MST_1_1
 62
   137
  6
CONTINUOUS
100
AcDbCircle
 10
-88.6754771
 20
-20.1495818
 30
0.0
 40
0.98493585
100
AcDbArc
 50
166.48876508
 51
253.51125242
  0
ARC
  5
224
100
AcDbEntity
  8
MST_1_1
 62
   137
  6
CONTINUOUS
100
AcDbCircle
 10
-89.99874791
 20
-19.8316182
 30
0.0
 40
0.37600004
100
AcDbArc
 50
346.48878316
 51
133.51121981
  0
ARC
  5
225
100
AcDbEntity
  8
MST_1_1
 62
   137
  6
CONTINUOUS
100
AcDbCircle
 10
-90.93574785
 20
-18.84461407
 30
0.0
 40
0.98493568
100
AcDbArc
 50
226.48876515
 51
313.51125489
  0
ARC
  5
226
100
AcDbEntity
  8
MST_1_1
 62
   137
  6
CONTINUOUS
100
AcDbCircle
 10
-91.87274781
 20
-19.83161815
 30
0.0
 40
0.37600002
100
AcDbArc
 50
46.48877271
 51
193.51124436
  0
ARC
  5
227
100
AcDbEntity
  8
MST_1_1
 62
   137
  6
CONTINUOUS
100
AcDbCircle
 10
-93.19601863
 20
-20.14958178
 30
0.0
 40
0.98493588
100
AcDbArc
 50
286.48876935
 51
13.51123319
  0
LWPOLYLINE
  5
228
100
AcDbEntity
  8
MST_1_1
 62
   137
  6
CONTINUOUS
100
AcDbPolyline
 90
        9
 70
     0
 43
0.0
 10
-92.63280408
 20
-24.42439821
 10
-92.62071888
 20
-24.4123129
 10
-92.60862426
 20
-24.40021828
 10
-92.59652045
 20
-24.38811458
 10
-92.58440743
 20
-24.37600156
 10
-92.57228534
 20
-24.36387947
 10
-92.56015416
 20
-24.35174829
 10
-92.54801391
 20
-24.33960804
 10
-92.53586457
 20
-24.3274587
  0
ARC
  5
229
100
AcDbEntity
  8
MST_1_1
 62
   137
  6
CONTINUOUS
100
AcDbCircle
 10
-92.33299086
 20
-24.15852609
 30
0.0
 40
0.26399994
100
AcDbArc
 50
50.21590624
 51
219.78410378
  0
LWPOLYLINE
  5
22A
100
AcDbEntity
  8
MST_1_1
 62
   137
  6
CONTINUOUS
100
AcDbPolyline
 90
        9
 70
     0
 43
0.0
 10
-92.16405825
 20
-23.95565238
 10
-92.15196514
 20
-23.94355915
 10
-92.13986493
 20
-23.93145895
 10
-92.12775774
 20
-23.91935198
 10
-92.11564368
 20
-23.90723781
 10
-92.10352263
 20
-23.89511688
 10
-92.09139483
 20
-23.88298896
 10
-92.07926016
 20
-23.87085429
 10
-92.06711874
 20
-23.85871287
  0
LWPOLYLINE
  5
22B
100
AcDbEntity
  8
MST_1_1
 62
   137
  6
CONTINUOUS
100
AcDbPolyline
 90
        9
 70
     0
 43
0.0
 10
-92.06711874
 20
-23.85871287
 10
-92.13956749
 20
-23.78626389
 10
-92.21209249
 20
-23.71373901
 10
-92.28468396
 20
-23.64114754
 10
-92.3573319
 20
-23.56849949
 10
-92.43002663
 20
-23.49580487
 10
-92.50275838
 20
-23.42307324
 10
-92.57551726
 20
-23.35031424
 10
-92.64829337
 20
-23.27753813
  0
LWPOLYLINE
  5
22C
100
AcDbEntity
  8
MST_1_1
 62
   137
  6
CONTINUOUS
100
AcDbPolyline
 90
        9
 70
     0
 43
0.0
 10
-92.64829337
 20
-23.27753813
 10
-92.65258956
 20
-23.28183433
 10
-92.65688482
 20
-23.2861297
 10
-92.66117938
 20
-23.29042426
 10
-92.66547313
 20
-23.29471789
 10
-92.66976594
 20
-23.29901082
 10
-92.67405794
 20
-23.30330282
 10
-92.67834913
 20
-23.30759389
 10
-92.68263938
 20
-23.31188426
  0
LWPOLYLINE
  5
22D
100
AcDbEntity
  8
MST_1_1
 62
   137
  6
CONTINUOUS
100
AcDbPolyline
 90
       25
 70
     0
 43
0.0
 10
-92.68263938
 20
-23.31188424
 10
-92.68622888
 20
-23.30635534
 10
-92.68991376
 20
-23.30089969
 10
-92.69369301
 20
-23.29551829
 10
-92.69756563
 20
-23.29021216
 10
-92.70153062
 20
-23.28498228
 10
-92.70558698
 20
-23.27982968
 10
-92.7097337
 20
-23.27475535
 10
-92.71396978
 20
-23.2697603
 10
-92.71829422
 20
-23.26484553
 10
-92.72270601
 20
-23.26001204
 10
-92.72720416
 20
-23.25526085
 10
-92.73178767
 20
-23.25059296
 10
-92.73645552
 20
-23.24600938
 10
-92.74120672
 20
-23.24151109
 10
-92.74604026
 20
-23.23709913
 10
-92.75095515
 20
-23.23277448
 10
-92.75595038
 20
-23.22853815
 10
-92.76102495
 20
-23.22439114
 10
-92.76617785
 20
-23.22033448
 10
-92.77140809
 20
-23.21636914
 10
-92.77671466
 20
-23.21249615
 10
-92.78209656
 20
-23.20871651
 10
-92.78755278
 20
-23.20503121
 10
-92.79308234
 20
-23.20144128
  0
LWPOLYLINE
  5
22E
100
AcDbEntity
  8
MST_1_1
 62
   137
  6
CONTINUOUS
100
AcDbPolyline
 90
        9
 70
     0
 43
0.0
 10
-92.79308236
 20
-23.20144128
 10
-92.78879199
 20
-23.19715103
 10
-92.78450092
 20
-23.19285984
 10
-92.78020892
 20
-23.18856784
 10
-92.77591599
 20
-23.18427503
 10
-92.77162236
 20
-23.17998128
 10
-92.7673278
 20
-23.17568672
 10
-92.76303242
 20
-23.17139146
 10
-92.75873623
 20
-23.16709527
  0
LWPOLYLINE
  5
22F
100
AcDbEntity
  8
MST_1_1
 62
   137
  6
CONTINUOUS
100
AcDbPolyline
 90
        9
 70
     0
 43
0.0
 10
-92.75873623
 20
-23.16709527
 10
-92.83151234
 20
-23.09431916
 10
-92.90427133
 20
-23.02156028
 10
-92.97700297
 20
-22.94882853
 10
-93.04969759
 20
-22.8761338
 10
-93.12234564
 20
-22.80348586
 10
-93.19493711
 20
-22.73089439
 10
-93.26746199
 20
-22.65836939
 10
-93.33991097
 20
-22.58592064
  0
LWPOLYLINE
  5
230
100
AcDbEntity
  8
MST_1_1
 62
   137
  6
CONTINUOUS
100
AcDbPolyline
 90
        9
 70
     0
 43
0.0
 10
-93.33991097
 20
-22.58592064
 10
-93.35205239
 20
-22.59806206
 10
-93.36418706
 20
-22.61019673
 10
-93.37631498
 20
-22.62232453
 10
-93.38843591
 20
-22.63444558
 10
-93.40055008
 20
-22.64655964
 10
-93.41265705
 20
-22.65866683
 10
-93.42475725
 20
-22.67076704
 10
-93.43685048
 20
-22.68286015
  0
ARC
  5
231
100
AcDbEntity
  8
MST_1_1
 62
   137
  6
CONTINUOUS
100
AcDbCircle
 10
-93.63972407
 20
-22.85179288
 30
0.0
 40
0.26399993
100
AcDbArc
 50
230.21587884
 51
39.78413117
  0
LWPOLYLINE
  5
232
100
AcDbEntity
  8
MST_1_1
 62
   137
  6
CONTINUOUS
100
AcDbPolyline
 90
        9
 70
     0
 43
0.0
 10
-93.8086568
 20
-23.05466647
 10
-93.82080614
 20
-23.06681581
 10
-93.83294639
 20
-23.07895606
 10
-93.84507757
 20
-23.09108724
 10
-93.85719966
 20
-23.10320933
 10
-93.86931268
 20
-23.11532235
 10
-93.88141638
 20
-23.12742616
 10
-93.893511
 20
-23.13952079
 10
-93.9055963
 20
-23.15160598
  0
LWPOLYLINE
  5
233
100
AcDbEntity
  8
MST_1_1
 62
   137
  6
CONTINUOUS
100
AcDbPolyline
 90
        9
 70
     0
 43
0.0
 10
-93.9055963
 20
-23.15160598
 10
-93.83316013
 20
-23.22404238
 10
-93.7606427
 20
-23.2965597
 10
-93.68805472
 20
-23.36914756
 10
-93.61540667
 20
-23.44179561
 10
-93.54270902
 20
-23.51449349
 10
-93.4699718
 20
-23.58723048
 10
-93.39720594
 20
-23.65999634
 10
-93.32442168
 20
-23.7327806
  0
LWPOLYLINE
  5
234
100
AcDbEntity
  8
MST_1_1
 62
   137
  6
CONTINUOUS
100
AcDbPolyline
 90
        9
 70
     0
 43
0.0
 10
-93.32442168
 20
-23.7327806
 10
-93.32013248
 20
-23.72849139
 10
-93.31584211
 20
-23.72420102
 10
-93.31155057
 20
-23.71990949
 10
-93.30725787
 20
-23.71561679
 10
-93.30296401
 20
-23.71132293
 10
-93.29866898
 20
-23.70702813
 10
-93.29437302
 20
-23.70273194
 10
-93.29007567
 20
-23.69843459
  0
LWPOLYLINE
  5
235
100
AcDbEntity
  8
MST_1_1
 62
   137
  6
CONTINUOUS
100
AcDbPolyline
 90
       25
 70
     0
 43
0.0
 10
-93.29007565
 20
-23.69843459
 10
-93.28648646
 20
-23.70396297
 10
-93.2828018
 20
-23.70941822
 10
-93.27902267
 20
-23.71479933
 10
-93.2751501
 20
-23.72010527
 10
-93.27118509
 20
-23.72533503
 10
-93.26712866
 20
-23.7304876
 10
-93.26298181
 20
-23.73556197
 10
-93.25874556
 20
-23.74055711
 10
-93.25442093
 20
-23.74547202
 10
-93.25000891
 20
-23.75030568
 10
-93.24551053
 20
-23.75505708
 10
-93.24092679
 20
-23.75972519
 10
-93.23625872
 20
-23.76430902
 10
-93.23150731
 20
-23.76880753
 10
-93.22667359
 20
-23.77321973
 10
-93.22175855
 20
-23.77754458
 10
-93.21676323
 20
-23.78178109
 10
-93.21168862
 20
-23.78592822
 10
-93.20653574
 20
-23.78998498
 10
-93.2013056
 20
-23.79395034
 10
-93.19599921
 20
-23.7978233
 10
-93.19061759
 20
-23.80160282
 10
-93.18516175
 20
-23.80528791
 10
-93.17963269
 20
-23.80887755
  0
LWPOLYLINE
  5
236
100
AcDbEntity
  8
MST_1_1
 62
   137
  6
CONTINUOUS
100
AcDbPolyline
 90
        9
 70
     0
 43
0.0
 10
-93.17963269
 20
-23.80887757
 10
-93.18393004
 20
-23.81317493
 10
-93.18822623
 20
-23.81747088
 10
-93.19252103
 20
-23.82176591
 10
-93.19681489
 20
-23.82605977
 10
-93.20110759
 20
-23.83035247
 10
-93.20539912
 20
-23.83464401
 10
-93.20968949
 20
-23.83893438
 10
-93.2139787
 20
-23.84322358
  0
LWPOLYLINE
  5
237
100
AcDbEntity
  8
MST_1_1
 62
   137
  6
CONTINUOUS
100
AcDbPolyline
 90
        9
 70
     0
 43
0.0
 10
-93.2139787
 20
-23.84322358
 10
-93.14119444
 20
-23.91600784
 10
-93.06842858
 20
-23.9887737
 10
-92.99569159
 20
-24.06151093
 10
-92.92299371
 20
-24.13420857
 10
-92.85034566
 20
-24.20685662
 10
-92.7777578
 20
-24.2794446
 10
-92.70524048
 20
-24.35196203
 10
-92.63280408
 20
-24.42439821
  0
CIRCLE
  5
238
100
AcDbEntity
  8
MST_1_1
 62
   137
  6
CONTINUOUS
100
AcDbCircle
 10
-90.93574785
 20
-21.45454975
 30
0.0
 40
4.24799398
  0
LWPOLYLINE
  5
239
100
AcDbEntity
  8
MST_1_1
 62
   137
  6
CONTINUOUS
100
AcDbPolyline
 90
        9
 70
     0
 43
0.0
 10
-92.90774959
 20
-23.15384651
 10
-92.9553893
 20
-23.10620679
 10
-93.00301807
 20
-23.05857791
 10
-93.05063357
 20
-23.01096241
 10
-93.09823276
 20
-22.96336322
 10
-93.14581287
 20
-22.91578311
 10
-93.19337109
 20
-22.86822477
 10
-93.24090486
 20
-22.82069112
 10
-93.28841116
 20
-22.77318482
  0
ARC
  5
23A
100
AcDbEntity
  8
MST_1_1
 62
   137
  6
CONTINUOUS
100
AcDbCircle
 10
-92.98635777
 20
-23.50515905
 30
0.0
 40
0.35999965
100
AcDbArc
 50
77.38749365
 51
127.33775307
  0
LWPOLYLINE
  5
23B
100
AcDbEntity
  8
MST_1_1
 62
   137
  6
CONTINUOUS
100
AcDbPolyline
 90
        9
 70
     0
 43
0.0
 10
-92.70013078
 20
-23.72350393
 10
-92.76317922
 20
-23.66045549
 10
-92.82624734
 20
-23.59738725
 10
-92.8893285
 20
-23.53430598
 10
-92.95241629
 20
-23.47121819
 10
-93.01550408
 20
-23.4081304
 10
-93.07858535
 20
-23.34504924
 10
-93.14165358
 20
-23.28198112
 10
-93.20470203
 20
-23.21893268
  0
ARC
  5
23C
100
AcDbEntity
  8
MST_1_1
 62
   137
  6
CONTINUOUS
100
AcDbCircle
 10
-92.98635787
 20
-23.50515951
 30
0.0
 40
0.36000032
100
AcDbArc
 50
322.66230677
 51
12.61245653
  0
LWPOLYLINE
  5
23D
100
AcDbEntity
  8
MST_1_1
 62
   137
  6
CONTINUOUS
100
AcDbPolyline
 90
        9
 70
     0
 43
0.0
 10
-92.25438292
 20
-23.80721306
 10
-92.30188922
 20
-23.75970676
 10
-92.34942287
 20
-23.71217299
 10
-92.39698121
 20
-23.66461477
 10
-92.44456131
 20
-23.61703467
 10
-92.49216051
 20
-23.56943547
 10
-92.53977601
 20
-23.52181997
 10
-92.58740489
 20
-23.4741912
 10
-92.6350446
 20
-23.42655149
  0
ARC
  5
23E
100
AcDbEntity
  8
MST_1_1
 62
   137
  6
CONTINUOUS
100
AcDbCircle
 10
-92.33299068
 20
-24.15852619
 30
0.0
 40
0.36000013
100
AcDbArc
 50
77.38757789
 51
192.61246315
  0
LWPOLYLINE
  5
23F
100
AcDbEntity
  8
MST_1_1
 62
   137
  6
CONTINUOUS
100
AcDbPolyline
 90
        9
 70
     0
 43
0.0
 10
-93.06496546
 20
-23.85647234
 10
-93.01732318
 20
-23.90411485
 10
-92.96969186
 20
-23.95174595
 10
-92.92207496
 20
-23.99936284
 10
-92.87447507
 20
-24.04696274
 10
-92.82689508
 20
-24.09454284
 10
-92.7793379
 20
-24.1420999
 10
-92.73180646
 20
-24.18963134
 10
-92.68430377
 20
-24.23713415
  0
ARC
  5
240
100
AcDbEntity
  8
MST_1_1
 62
   137
  6
CONTINUOUS
100
AcDbCircle
 10
-92.98635767
 20
-23.5051584
 30
0.0
 40
0.36000093
100
AcDbArc
 50
257.38761324
 51
307.3376629
  0
LWPOLYLINE
  5
241
100
AcDbEntity
  8
MST_1_1
 62
   137
  6
CONTINUOUS
100
AcDbPolyline
 90
        9
 70
     0
 43
0.0
 10
-93.27258427
 20
-23.28681504
 10
-93.20953582
 20
-23.34986325
 10
-93.14646782
 20
-23.41293137
 10
-93.08338655
 20
-23.47601264
 10
-93.02029853
 20
-23.53910043
 10
-92.95721074
 20
-23.60218845
 10
-92.89412946
 20
-23.66526972
 10
-92.83106135
 20
-23.72833772
 10
-92.76801314
 20
-23.79138617
  0
ARC
  5
242
100
AcDbEntity
  8
MST_1_1
 62
   137
  6
CONTINUOUS
100
AcDbCircle
 10
-92.98635751
 20
-23.50515935
 30
0.0
 40
0.36
100
AcDbArc
 50
142.66227791
 51
192.61247599
  0
LWPOLYLINE
  5
243
100
AcDbEntity
  8
MST_1_1
 62
   137
  6
CONTINUOUS
100
AcDbPolyline
 90
        9
 70
     0
 43
0.0
 10
-93.71833225
 20
-23.20310567
 10
-93.67082944
 20
-23.25060836
 10
-93.623298
 20
-23.2981398
 10
-93.57574094
 20
-23.34569698
 10
-93.52816083
 20
-23.39327697
 10
-93.48056094
 20
-23.44087686
 10
-93.43294404
 20
-23.48849376
 10
-93.38531295
 20
-23.53612509
 10
-93.33767044
 20
-23.58376736
  0
ARC
  5
244
100
AcDbEntity
  8
MST_1_1
 62
   137
  6
CONTINUOUS
100
AcDbCircle
 10
-93.63972419
 20
-22.85179269
 30
0.0
 40
0.36000006
100
AcDbArc
 50
257.38753734
 51
12.61244165
  0
LWPOLYLINE
  5
245
100
AcDbEntity
  8
MST_1_1
 62
   137
  6
CONTINUOUS
100
AcDbPolyline
 90
        9
 70
     0
 43
0.0
 10
-93.09237172
 20
-23.26338063
 10
-93.04890503
 20
-23.30684732
 10
-93.00543206
 20
-23.35032029
 10
-92.96195466
 20
-23.39379769
 10
-92.91847517
 20
-23.43727707
 10
-92.87499579
 20
-23.48075656
 10
-92.83151839
 20
-23.52423396
 10
-92.78804542
 20
-23.56770693
 10
-92.74457873
 20
-23.61117362
  0
ARC
  5
246
100
AcDbEntity
  8
MST_1_1
 62
   137
  6
CONTINUOUS
100
AcDbCircle
 10
-92.98635747
 20
-23.50515937
 30
0.0
 40
0.26399996
100
AcDbArc
 50
336.32369791
 51
113.67631211
  0
LWPOLYLINE
  5
247
100
AcDbEntity
  8
MST_1_1
 62
   137
  6
CONTINUOUS
100
AcDbPolyline
 90
        9
 70
     0
 43
0.0
 10
-92.88034321
 20
-23.7469381
 10
-92.92380978
 20
-23.70347165
 10
-92.96728276
 20
-23.65999867
 10
-93.01076015
 20
-23.61652127
 10
-93.05423965
 20
-23.57304155
 10
-93.09771937
 20
-23.52956206
 10
-93.14119677
 20
-23.48608466
 10
-93.18466974
 20
-23.44261168
 10
-93.2281362
 20
-23.39914511
  0
ARC
  5
248
100
AcDbEntity
  8
MST_1_1
 62
   137
  6
CONTINUOUS
100
AcDbCircle
 10
-92.98635755
 20
-23.50515945
 30
0.0
 40
0.26399992
100
AcDbArc
 50
156.32366302
 51
293.676347
  0
CIRCLE
  5
249
100
AcDbEntity
  8
MST_1_1
 62
   137
  6
CONTINUOUS
100
AcDbCircle
 10
-90.93574785
 20
-51.45454975
 30
0.0
 40
2.32981333
  0
CIRCLE
  5
24A
100
AcDbEntity
  8
MST_1_1
 62
   137
  6
CONTINUOUS
100
AcDbCircle
 10
-90.93574785
 20
-51.45454975
 30
0.0
 40
1.32203389
  0
CIRCLE
  5
24B
100
AcDbEntity
  8
MST_1_1
 62
   137
  6
CONTINUOUS
100
AcDbCircle
 10
-90.93574785
 20
-51.45454975
 30
0.0
 40
2.32981333
  0
CIRCLE
  5
24C
100
AcDbEntity
  8
MST_1_1
 62
   137
  6
CONTINUOUS
100
AcDbCircle
 10
-90.93574785
 20
-51.45454975
 30
0.0
 40
2.32981333
  0
CIRCLE
  5
24D
100
AcDbEntity
  8
MST_1_1
 62
   137
  6
CONTINUOUS
100
AcDbCircle
 10
-90.93574785
 20
-51.45454975
 30
0.0
 40
4.85
  0
ARC
  5
24E
100
AcDbEntity
  8
MST_1_1
 62
   137
  6
CONTINUOUS
100
AcDbCircle
 10
-92.8097478
 20
-51.45454975
 30
0.0
 40
0.37600003
100
AcDbArc
 50
106.48878485
 51
253.51122516
  0
ARC
  5
24F
100
AcDbEntity
  8
MST_1_1
 62
   137
  6
CONTINUOUS
100
AcDbCircle
 10
-93.19601859
 20
-52.7595177
 30
0.0
 40
0.98493585
100
AcDbArc
 50
346.4887751
 51
73.5112424
  0
ARC
  5
250
100
AcDbEntity
  8
MST_1_1
 62
   137
  6
CONTINUOUS
100
AcDbCircle
 10
-91.87274778
 20
-53.0774813
 30
0.0
 40
0.37600004
100
AcDbArc
 50
166.48877314
 51
313.51122983
  0
ARC
  5
251
100
AcDbEntity
  8
MST_1_1
 62
   137
  6
CONTINUOUS
100
AcDbCircle
 10
-90.93574785
 20
-54.06448542
 30
0.0
 40
0.98493568
100
AcDbArc
 50
46.48875513
 51
133.51124487
  0
ARC
  5
252
100
AcDbEntity
  8
MST_1_1
 62
   137
  6
CONTINUOUS
100
AcDbCircle
 10
-89.99874789
 20
-53.07748134
 30
0.0
 40
0.37600002
100
AcDbArc
 50
226.48878273
 51
13.51123435
  0
ARC
  5
253
100
AcDbEntity
  8
MST_1_1
 62
   137
  6
CONTINUOUS
100
AcDbCircle
 10
-88.67547707
 20
-52.75951772
 30
0.0
 40
0.98493588
100
AcDbArc
 50
106.48875933
 51
193.51124321
  0
ARC
  5
254
100
AcDbEntity
  8
MST_1_1
 62
   137
  6
CONTINUOUS
100
AcDbCircle
 10
-89.0617479
 20
-51.45454975
 30
0.0
 40
0.37600003
100
AcDbArc
 50
286.48879487
 51
73.51121515
  0
ARC
  5
255
100
AcDbEntity
  8
MST_1_1
 62
   137
  6
CONTINUOUS
100
AcDbCircle
 10
-88.6754771
 20
-50.1495818
 30
0.0
 40
0.98493585
100
AcDbArc
 50
166.48876508
 51
253.51125242
  0
ARC
  5
256
100
AcDbEntity
  8
MST_1_1
 62
   137
  6
CONTINUOUS
100
AcDbCircle
 10
-89.99874791
 20
-49.8316182
 30
0.0
 40
0.37600004
100
AcDbArc
 50
346.48878316
 51
133.51121981
  0
ARC
  5
257
100
AcDbEntity
  8
MST_1_1
 62
   137
  6
CONTINUOUS
100
AcDbCircle
 10
-90.93574785
 20
-48.84461407
 30
0.0
 40
0.98493568
100
AcDbArc
 50
226.48876515
 51
313.51125489
  0
ARC
  5
258
100
AcDbEntity
  8
MST_1_1
 62
   137
  6
CONTINUOUS
100
AcDbCircle
 10
-91.87274781
 20
-49.83161815
 30
0.0
 40
0.37600002
100
AcDbArc
 50
46.48877271
 51
193.51124436
  0
ARC
  5
259
100
AcDbEntity
  8
MST_1_1
 62
   137
  6
CONTINUOUS
100
AcDbCircle
 10
-93.19601863
 20
-50.14958178
 30
0.0
 40
0.98493588
100
AcDbArc
 50
286.48876935
 51
13.51123319
  0
LWPOLYLINE
  5
25A
100
AcDbEntity
  8
MST_1_1
 62
   137
  6
CONTINUOUS
100
AcDbPolyline
 90
        9
 70
     0
 43
0.0
 10
-92.63280408
 20
-54.42439821
 10
-92.62071888
 20
-54.4123129
 10
-92.60862426
 20
-54.40021828
 10
-92.59652045
 20
-54.38811458
 10
-92.58440743
 20
-54.37600156
 10
-92.57228534
 20
-54.36387947
 10
-92.56015416
 20
-54.35174829
 10
-92.54801391
 20
-54.33960804
 10
-92.53586457
 20
-54.3274587
  0
ARC
  5
25B
100
AcDbEntity
  8
MST_1_1
 62
   137
  6
CONTINUOUS
100
AcDbCircle
 10
-92.33299086
 20
-54.15852609
 30
0.0
 40
0.26399994
100
AcDbArc
 50
50.21590624
 51
219.78410378
  0
LWPOLYLINE
  5
25C
100
AcDbEntity
  8
MST_1_1
 62
   137
  6
CONTINUOUS
100
AcDbPolyline
 90
        9
 70
     0
 43
0.0
 10
-92.16405825
 20
-53.95565238
 10
-92.15196514
 20
-53.94355915
 10
-92.13986493
 20
-53.93145895
 10
-92.12775774
 20
-53.91935198
 10
-92.11564368
 20
-53.90723781
 10
-92.10352263
 20
-53.89511688
 10
-92.09139483
 20
-53.88298896
 10
-92.07926016
 20
-53.87085429
 10
-92.06711874
 20
-53.85871287
  0
LWPOLYLINE
  5
25D
100
AcDbEntity
  8
MST_1_1
 62
   137
  6
CONTINUOUS
100
AcDbPolyline
 90
        9
 70
     0
 43
0.0
 10
-92.06711874
 20
-53.85871287
 10
-92.13956749
 20
-53.78626389
 10
-92.21209249
 20
-53.71373901
 10
-92.28468396
 20
-53.64114754
 10
-92.3573319
 20
-53.56849949
 10
-92.43002663
 20
-53.49580487
 10
-92.50275838
 20
-53.42307324
 10
-92.57551726
 20
-53.35031424
 10
-92.64829337
 20
-53.27753813
  0
LWPOLYLINE
  5
25E
100
AcDbEntity
  8
MST_1_1
 62
   137
  6
CONTINUOUS
100
AcDbPolyline
 90
        9
 70
     0
 43
0.0
 10
-92.64829337
 20
-53.27753813
 10
-92.65258956
 20
-53.28183433
 10
-92.65688482
 20
-53.2861297
 10
-92.66117938
 20
-53.29042426
 10
-92.66547313
 20
-53.29471789
 10
-92.66976594
 20
-53.29901082
 10
-92.67405794
 20
-53.30330282
 10
-92.67834913
 20
-53.30759389
 10
-92.68263938
 20
-53.31188426
  0
LWPOLYLINE
  5
25F
100
AcDbEntity
  8
MST_1_1
 62
   137
  6
CONTINUOUS
100
AcDbPolyline
 90
       25
 70
     0
 43
0.0
 10
-92.68263938
 20
-53.31188424
 10
-92.68622888
 20
-53.30635534
 10
-92.68991376
 20
-53.30089969
 10
-92.69369301
 20
-53.29551829
 10
-92.69756563
 20
-53.29021216
 10
-92.70153062
 20
-53.28498228
 10
-92.70558698
 20
-53.27982968
 10
-92.7097337
 20
-53.27475535
 10
-92.71396978
 20
-53.2697603
 10
-92.71829422
 20
-53.26484553
 10
-92.72270601
 20
-53.26001204
 10
-92.72720416
 20
-53.25526085
 10
-92.73178767
 20
-53.25059296
 10
-92.73645552
 20
-53.24600938
 10
-92.74120672
 20
-53.24151109
 10
-92.74604026
 20
-53.23709913
 10
-92.75095515
 20
-53.23277448
 10
-92.75595038
 20
-53.22853815
 10
-92.76102495
 20
-53.22439114
 10
-92.76617785
 20
-53.22033448
 10
-92.77140809
 20
-53.21636914
 10
-92.77671466
 20
-53.21249615
 10
-92.78209656
 20
-53.20871651
 10
-92.78755278
 20
-53.20503121
 10
-92.79308234
 20
-53.20144128
  0
LWPOLYLINE
  5
260
100
AcDbEntity
  8
MST_1_1
 62
   137
  6
CONTINUOUS
100
AcDbPolyline
 90
        9
 70
     0
 43
0.0
 10
-92.79308236
 20
-53.20144128
 10
-92.78879199
 20
-53.19715103
 10
-92.78450092
 20
-53.19285984
 10
-92.78020892
 20
-53.18856784
 10
-92.77591599
 20
-53.18427503
 10
-92.77162236
 20
-53.17998128
 10
-92.7673278
 20
-53.17568672
 10
-92.76303242
 20
-53.17139146
 10
-92.75873623
 20
-53.16709527
  0
LWPOLYLINE
  5
261
100
AcDbEntity
  8
MST_1_1
 62
   137
  6
CONTINUOUS
100
AcDbPolyline
 90
        9
 70
     0
 43
0.0
 10
-92.75873623
 20
-53.16709527
 10
-92.83151234
 20
-53.09431916
 10
-92.90427133
 20
-53.02156028
 10
-92.97700297
 20
-52.94882853
 10
-93.04969759
 20
-52.8761338
 10
-93.12234564
 20
-52.80348586
 10
-93.19493711
 20
-52.73089439
 10
-93.26746199
 20
-52.65836939
 10
-93.33991097
 20
-52.58592064
  0
LWPOLYLINE
  5
262
100
AcDbEntity
  8
MST_1_1
 62
   137
  6
CONTINUOUS
100
AcDbPolyline
 90
        9
 70
     0
 43
0.0
 10
-93.33991097
 20
-52.58592064
 10
-93.35205239
 20
-52.59806206
 10
-93.36418706
 20
-52.61019673
 10
-93.37631498
 20
-52.62232453
 10
-93.38843591
 20
-52.63444558
 10
-93.40055008
 20
-52.64655964
 10
-93.41265705
 20
-52.65866683
 10
-93.42475725
 20
-52.67076704
 10
-93.43685048
 20
-52.68286015
  0
ARC
  5
263
100
AcDbEntity
  8
MST_1_1
 62
   137
  6
CONTINUOUS
100
AcDbCircle
 10
-93.63972407
 20
-52.85179288
 30
0.0
 40
0.26399993
100
AcDbArc
 50
230.21587884
 51
39.78413117
  0
LWPOLYLINE
  5
264
100
AcDbEntity
  8
MST_1_1
 62
   137
  6
CONTINUOUS
100
AcDbPolyline
 90
        9
 70
     0
 43
0.0
 10
-93.8086568
 20
-53.05466647
 10
-93.82080614
 20
-53.06681581
 10
-93.83294639
 20
-53.07895606
 10
-93.84507757
 20
-53.09108724
 10
-93.85719966
 20
-53.10320933
 10
-93.86931268
 20
-53.11532235
 10
-93.88141638
 20
-53.12742616
 10
-93.893511
 20
-53.13952079
 10
-93.9055963
 20
-53.15160598
  0
LWPOLYLINE
  5
265
100
AcDbEntity
  8
MST_1_1
 62
   137
  6
CONTINUOUS
100
AcDbPolyline
 90
        9
 70
     0
 43
0.0
 10
-93.9055963
 20
-53.15160598
 10
-93.83316013
 20
-53.22404238
 10
-93.7606427
 20
-53.2965597
 10
-93.68805472
 20
-53.36914756
 10
-93.61540667
 20
-53.44179561
 10
-93.54270902
 20
-53.51449349
 10
-93.4699718
 20
-53.58723048
 10
-93.39720594
 20
-53.65999634
 10
-93.32442168
 20
-53.7327806
  0
LWPOLYLINE
  5
266
100
AcDbEntity
  8
MST_1_1
 62
   137
  6
CONTINUOUS
100
AcDbPolyline
 90
        9
 70
     0
 43
0.0
 10
-93.32442168
 20
-53.7327806
 10
-93.32013248
 20
-53.72849139
 10
-93.31584211
 20
-53.72420102
 10
-93.31155057
 20
-53.71990949
 10
-93.30725787
 20
-53.71561679
 10
-93.30296401
 20
-53.71132293
 10
-93.29866898
 20
-53.70702813
 10
-93.29437302
 20
-53.70273194
 10
-93.29007567
 20
-53.69843459
  0
LWPOLYLINE
  5
267
100
AcDbEntity
  8
MST_1_1
 62
   137
  6
CONTINUOUS
100
AcDbPolyline
 90
       25
 70
     0
 43
0.0
 10
-93.29007565
 20
-53.69843459
 10
-93.28648646
 20
-53.70396297
 10
-93.2828018
 20
-53.70941822
 10
-93.27902267
 20
-53.71479933
 10
-93.2751501
 20
-53.72010527
 10
-93.27118509
 20
-53.72533503
 10
-93.26712866
 20
-53.7304876
 10
-93.26298181
 20
-53.73556197
 10
-93.25874556
 20
-53.74055711
 10
-93.25442093
 20
-53.74547202
 10
-93.25000891
 20
-53.75030568
 10
-93.24551053
 20
-53.75505708
 10
-93.24092679
 20
-53.75972519
 10
-93.23625872
 20
-53.76430902
 10
-93.23150731
 20
-53.76880753
 10
-93.22667359
 20
-53.77321973
 10
-93.22175855
 20
-53.77754458
 10
-93.21676323
 20
-53.78178109
 10
-93.21168862
 20
-53.78592822
 10
-93.20653574
 20
-53.78998498
 10
-93.2013056
 20
-53.79395034
 10
-93.19599921
 20
-53.7978233
 10
-93.19061759
 20
-53.80160282
 10
-93.18516175
 20
-53.80528791
 10
-93.17963269
 20
-53.80887755
  0
LWPOLYLINE
  5
268
100
AcDbEntity
  8
MST_1_1
 62
   137
  6
CONTINUOUS
100
AcDbPolyline
 90
        9
 70
     0
 43
0.0
 10
-93.17963269
 20
-53.80887757
 10
-93.18393004
 20
-53.81317493
 10
-93.18822623
 20
-53.81747088
 10
-93.19252103
 20
-53.82176591
 10
-93.19681489
 20
-53.82605977
 10
-93.20110759
 20
-53.83035247
 10
-93.20539912
 20
-53.83464401
 10
-93.20968949
 20
-53.83893438
 10
-93.2139787
 20
-53.84322358
  0
LWPOLYLINE
  5
269
100
AcDbEntity
  8
MST_1_1
 62
   137
  6
CONTINUOUS
100
AcDbPolyline
 90
        9
 70
     0
 43
0.0
 10
-93.2139787
 20
-53.84322358
 10
-93.14119444
 20
-53.91600784
 10
-93.06842858
 20
-53.9887737
 10
-92.99569159
 20
-54.06151093
 10
-92.92299371
 20
-54.13420857
 10
-92.85034566
 20
-54.20685662
 10
-92.7777578
 20
-54.2794446
 10
-92.70524048
 20
-54.35196203
 10
-92.63280408
 20
-54.42439821
  0
CIRCLE
  5
26A
100
AcDbEntity
  8
MST_1_1
 62
   137
  6
CONTINUOUS
100
AcDbCircle
 10
-90.93574785
 20
-51.45454975
 30
0.0
 40
4.24799398
  0
LWPOLYLINE
  5
26B
100
AcDbEntity
  8
MST_1_1
 62
   137
  6
CONTINUOUS
100
AcDbPolyline
 90
        9
 70
     0
 43
0.0
 10
-92.90774959
 20
-53.15384651
 10
-92.9553893
 20
-53.10620679
 10
-93.00301807
 20
-53.05857791
 10
-93.05063357
 20
-53.01096241
 10
-93.09823276
 20
-52.96336322
 10
-93.14581287
 20
-52.91578311
 10
-93.19337109
 20
-52.86822477
 10
-93.24090486
 20
-52.82069112
 10
-93.28841116
 20
-52.77318482
  0
ARC
  5
26C
100
AcDbEntity
  8
MST_1_1
 62
   137
  6
CONTINUOUS
100
AcDbCircle
 10
-92.98635777
 20
-53.50515905
 30
0.0
 40
0.35999965
100
AcDbArc
 50
77.38749365
 51
127.33775307
  0
LWPOLYLINE
  5
26D
100
AcDbEntity
  8
MST_1_1
 62
   137
  6
CONTINUOUS
100
AcDbPolyline
 90
        9
 70
     0
 43
0.0
 10
-92.70013078
 20
-53.72350393
 10
-92.76317922
 20
-53.66045549
 10
-92.82624734
 20
-53.59738725
 10
-92.8893285
 20
-53.53430598
 10
-92.95241629
 20
-53.47121819
 10
-93.01550408
 20
-53.4081304
 10
-93.07858535
 20
-53.34504924
 10
-93.14165358
 20
-53.28198112
 10
-93.20470203
 20
-53.21893268
  0
ARC
  5
26E
100
AcDbEntity
  8
MST_1_1
 62
   137
  6
CONTINUOUS
100
AcDbCircle
 10
-92.98635787
 20
-53.50515951
 30
0.0
 40
0.36000032
100
AcDbArc
 50
322.66230677
 51
12.61245653
  0
LWPOLYLINE
  5
26F
100
AcDbEntity
  8
MST_1_1
 62
   137
  6
CONTINUOUS
100
AcDbPolyline
 90
        9
 70
     0
 43
0.0
 10
-92.25438292
 20
-53.80721306
 10
-92.30188922
 20
-53.75970676
 10
-92.34942287
 20
-53.71217299
 10
-92.39698121
 20
-53.66461477
 10
-92.44456131
 20
-53.61703467
 10
-92.49216051
 20
-53.56943547
 10
-92.53977601
 20
-53.52181997
 10
-92.58740489
 20
-53.4741912
 10
-92.6350446
 20
-53.42655149
  0
ARC
  5
270
100
AcDbEntity
  8
MST_1_1
 62
   137
  6
CONTINUOUS
100
AcDbCircle
 10
-92.33299068
 20
-54.15852619
 30
0.0
 40
0.36000013
100
AcDbArc
 50
77.38757789
 51
192.61246315
  0
LWPOLYLINE
  5
271
100
AcDbEntity
  8
MST_1_1
 62
   137
  6
CONTINUOUS
100
AcDbPolyline
 90
        9
 70
     0
 43
0.0
 10
-93.06496546
 20
-53.85647234
 10
-93.01732318
 20
-53.90411485
 10
-92.96969186
 20
-53.95174595
 10
-92.92207496
 20
-53.99936284
 10
-92.87447507
 20
-54.04696274
 10
-92.82689508
 20
-54.09454284
 10
-92.7793379
 20
-54.1420999
 10
-92.73180646
 20
-54.18963134
 10
-92.68430377
 20
-54.23713415
  0
ARC
  5
272
100
AcDbEntity
  8
MST_1_1
 62
   137
  6
CONTINUOUS
100
AcDbCircle
 10
-92.98635767
 20
-53.5051584
 30
0.0
 40
0.36000093
100
AcDbArc
 50
257.38761324
 51
307.3376629
  0
LWPOLYLINE
  5
273
100
AcDbEntity
  8
MST_1_1
 62
   137
  6
CONTINUOUS
100
AcDbPolyline
 90
        9
 70
     0
 43
0.0
 10
-93.27258427
 20
-53.28681504
 10
-93.20953582
 20
-53.34986325
 10
-93.14646782
 20
-53.41293137
 10
-93.08338655
 20
-53.47601264
 10
-93.02029853
 20
-53.53910043
 10
-92.95721074
 20
-53.60218845
 10
-92.89412946
 20
-53.66526972
 10
-92.83106135
 20
-53.72833772
 10
-92.76801314
 20
-53.79138617
  0
ARC
  5
274
100
AcDbEntity
  8
MST_1_1
 62
   137
  6
CONTINUOUS
100
AcDbCircle
 10
-92.98635751
 20
-53.50515935
 30
0.0
 40
0.36
100
AcDbArc
 50
142.66227791
 51
192.61247599
  0
LWPOLYLINE
  5
275
100
AcDbEntity
  8
MST_1_1
 62
   137
  6
CONTINUOUS
100
AcDbPolyline
 90
        9
 70
     0
 43
0.0
 10
-93.71833225
 20
-53.20310567
 10
-93.67082944
 20
-53.25060836
 10
-93.623298
 20
-53.2981398
 10
-93.57574094
 20
-53.34569698
 10
-93.52816083
 20
-53.39327697
 10
-93.48056094
 20
-53.44087686
 10
-93.43294404
 20
-53.48849376
 10
-93.38531295
 20
-53.53612509
 10
-93.33767044
 20
-53.58376736
  0
ARC
  5
276
100
AcDbEntity
  8
MST_1_1
 62
   137
  6
CONTINUOUS
100
AcDbCircle
 10
-93.63972419
 20
-52.85179269
 30
0.0
 40
0.36000006
100
AcDbArc
 50
257.38753734
 51
12.61244165
  0
LWPOLYLINE
  5
277
100
AcDbEntity
  8
MST_1_1
 62
   137
  6
CONTINUOUS
100
AcDbPolyline
 90
        9
 70
     0
 43
0.0
 10
-93.09237172
 20
-53.26338063
 10
-93.04890503
 20
-53.30684732
 10
-93.00543206
 20
-53.35032029
 10
-92.96195466
 20
-53.39379769
 10
-92.91847517
 20
-53.43727707
 10
-92.87499579
 20
-53.48075656
 10
-92.83151839
 20
-53.52423396
 10
-92.78804542
 20
-53.56770693
 10
-92.74457873
 20
-53.61117362
  0
ARC
  5
278
100
AcDbEntity
  8
MST_1_1
 62
   137
  6
CONTINUOUS
100
AcDbCircle
 10
-92.98635747
 20
-53.50515937
 30
0.0
 40
0.26399996
100
AcDbArc
 50
336.32369791
 51
113.67631211
  0
LWPOLYLINE
  5
279
100
AcDbEntity
  8
MST_1_1
 62
   137
  6
CONTINUOUS
100
AcDbPolyline
 90
        9
 70
     0
 43
0.0
 10
-92.88034321
 20
-53.7469381
 10
-92.92380978
 20
-53.70347165
 10
-92.96728276
 20
-53.65999867
 10
-93.01076015
 20
-53.61652127
 10
-93.05423965
 20
-53.57304155
 10
-93.09771937
 20
-53.52956206
 10
-93.14119677
 20
-53.48608466
 10
-93.18466974
 20
-53.44261168
 10
-93.2281362
 20
-53.39914511
  0
ARC
  5
27A
100
AcDbEntity
  8
MST_1_1
 62
   137
  6
CONTINUOUS
100
AcDbCircle
 10
-92.98635755
 20
-53.50515945
 30
0.0
 40
0.26399992
100
AcDbArc
 50
156.32366302
 51
293.676347
  0
CIRCLE
  5
27B
100
AcDbEntity
  8
MST_1_1
 62
   137
  6
CONTINUOUS
100
AcDbCircle
 10
-90.93574785
 20
-81.45454975
 30
0.0
 40
2.32981333
  0
CIRCLE
  5
27C
100
AcDbEntity
  8
MST_1_1
 62
   137
  6
CONTINUOUS
100
AcDbCircle
 10
-90.93574785
 20
-81.45454975
 30
0.0
 40
1.32203389
  0
CIRCLE
  5
27D
100
AcDbEntity
  8
MST_1_1
 62
   137
  6
CONTINUOUS
100
AcDbCircle
 10
-90.93574785
 20
-81.45454975
 30
0.0
 40
2.32981333
  0
CIRCLE
  5
27E
100
AcDbEntity
  8
MST_1_1
 62
   137
  6
CONTINUOUS
100
AcDbCircle
 10
-90.93574785
 20
-81.45454975
 30
0.0
 40
2.32981333
  0
CIRCLE
  5
27F
100
AcDbEntity
  8
MST_1_1
 62
   137
  6
CONTINUOUS
100
AcDbCircle
 10
-90.93574785
 20
-81.45454975
 30
0.0
 40
4.85
  0
ARC
  5
280
100
AcDbEntity
  8
MST_1_1
 62
   137
  6
CONTINUOUS
100
AcDbCircle
 10
-92.8097478
 20
-81.45454975
 30
0.0
 40
0.37600003
100
AcDbArc
 50
106.48878485
 51
253.51122516
  0
ARC
  5
281
100
AcDbEntity
  8
MST_1_1
 62
   137
  6
CONTINUOUS
100
AcDbCircle
 10
-93.19601859
 20
-82.7595177
 30
0.0
 40
0.98493585
100
AcDbArc
 50
346.4887751
 51
73.5112424
  0
ARC
  5
282
100
AcDbEntity
  8
MST_1_1
 62
   137
  6
CONTINUOUS
100
AcDbCircle
 10
-91.87274778
 20
-83.0774813
 30
0.0
 40
0.37600004
100
AcDbArc
 50
166.48877314
 51
313.51122983
  0
ARC
  5
283
100
AcDbEntity
  8
MST_1_1
 62
   137
  6
CONTINUOUS
100
AcDbCircle
 10
-90.93574785
 20
-84.06448542
 30
0.0
 40
0.98493568
100
AcDbArc
 50
46.48875513
 51
133.51124487
  0
ARC
  5
284
100
AcDbEntity
  8
MST_1_1
 62
   137
  6
CONTINUOUS
100
AcDbCircle
 10
-89.99874789
 20
-83.07748134
 30
0.0
 40
0.37600002
100
AcDbArc
 50
226.48878273
 51
13.51123435
  0
ARC
  5
285
100
AcDbEntity
  8
MST_1_1
 62
   137
  6
CONTINUOUS
100
AcDbCircle
 10
-88.67547707
 20
-82.75951772
 30
0.0
 40
0.98493588
100
AcDbArc
 50
106.48875933
 51
193.51124321
  0
ARC
  5
286
100
AcDbEntity
  8
MST_1_1
 62
   137
  6
CONTINUOUS
100
AcDbCircle
 10
-89.0617479
 20
-81.45454975
 30
0.0
 40
0.37600003
100
AcDbArc
 50
286.48879487
 51
73.51121515
  0
ARC
  5
287
100
AcDbEntity
  8
MST_1_1
 62
   137
  6
CONTINUOUS
100
AcDbCircle
 10
-88.6754771
 20
-80.1495818
 30
0.0
 40
0.98493585
100
AcDbArc
 50
166.48876508
 51
253.51125242
  0
ARC
  5
288
100
AcDbEntity
  8
MST_1_1
 62
   137
  6
CONTINUOUS
100
AcDbCircle
 10
-89.99874791
 20
-79.8316182
 30
0.0
 40
0.37600004
100
AcDbArc
 50
346.48878316
 51
133.51121981
  0
ARC
  5
289
100
AcDbEntity
  8
MST_1_1
 62
   137
  6
CONTINUOUS
100
AcDbCircle
 10
-90.93574785
 20
-78.84461407
 30
0.0
 40
0.98493568
100
AcDbArc
 50
226.48876515
 51
313.51125489
  0
ARC
  5
28A
100
AcDbEntity
  8
MST_1_1
 62
   137
  6
CONTINUOUS
100
AcDbCircle
 10
-91.87274781
 20
-79.83161815
 30
0.0
 40
0.37600002
100
AcDbArc
 50
46.48877271
 51
193.51124436
  0
ARC
  5
28B
100
AcDbEntity
  8
MST_1_1
 62
   137
  6
CONTINUOUS
100
AcDbCircle
 10
-93.19601863
 20
-80.14958178
 30
0.0
 40
0.98493588
100
AcDbArc
 50
286.48876935
 51
13.51123319
  0
LWPOLYLINE
  5
28C
100
AcDbEntity
  8
MST_1_1
 62
   137
  6
CONTINUOUS
100
AcDbPolyline
 90
        9
 70
     0
 43
0.0
 10
-92.63280408
 20
-84.42439821
 10
-92.62071888
 20
-84.4123129
 10
-92.60862426
 20
-84.40021828
 10
-92.59652045
 20
-84.38811458
 10
-92.58440743
 20
-84.37600156
 10
-92.57228534
 20
-84.36387947
 10
-92.56015416
 20
-84.35174829
 10
-92.54801391
 20
-84.33960804
 10
-92.53586457
 20
-84.3274587
  0
ARC
  5
28D
100
AcDbEntity
  8
MST_1_1
 62
   137
  6
CONTINUOUS
100
AcDbCircle
 10
-92.33299086
 20
-84.15852609
 30
0.0
 40
0.26399994
100
AcDbArc
 50
50.21590624
 51
219.78410378
  0
LWPOLYLINE
  5
28E
100
AcDbEntity
  8
MST_1_1
 62
   137
  6
CONTINUOUS
100
AcDbPolyline
 90
        9
 70
     0
 43
0.0
 10
-92.16405825
 20
-83.95565238
 10
-92.15196514
 20
-83.94355915
 10
-92.13986493
 20
-83.93145895
 10
-92.12775774
 20
-83.91935198
 10
-92.11564368
 20
-83.90723781
 10
-92.10352263
 20
-83.89511688
 10
-92.09139483
 20
-83.88298896
 10
-92.07926016
 20
-83.87085429
 10
-92.06711874
 20
-83.85871287
  0
LWPOLYLINE
  5
28F
100
AcDbEntity
  8
MST_1_1
 62
   137
  6
CONTINUOUS
100
AcDbPolyline
 90
        9
 70
     0
 43
0.0
 10
-92.06711874
 20
-83.85871287
 10
-92.13956749
 20
-83.78626389
 10
-92.21209249
 20
-83.71373901
 10
-92.28468396
 20
-83.64114754
 10
-92.3573319
 20
-83.56849949
 10
-92.43002663
 20
-83.49580487
 10
-92.50275838
 20
-83.42307324
 10
-92.57551726
 20
-83.35031424
 10
-92.64829337
 20
-83.27753813
  0
LWPOLYLINE
  5
290
100
AcDbEntity
  8
MST_1_1
 62
   137
  6
CONTINUOUS
100
AcDbPolyline
 90
        9
 70
     0
 43
0.0
 10
-92.64829337
 20
-83.27753813
 10
-92.65258956
 20
-83.28183433
 10
-92.65688482
 20
-83.2861297
 10
-92.66117938
 20
-83.29042426
 10
-92.66547313
 20
-83.29471789
 10
-92.66976594
 20
-83.29901082
 10
-92.67405794
 20
-83.30330282
 10
-92.67834913
 20
-83.30759389
 10
-92.68263938
 20
-83.31188426
  0
LWPOLYLINE
  5
291
100
AcDbEntity
  8
MST_1_1
 62
   137
  6
CONTINUOUS
100
AcDbPolyline
 90
       25
 70
     0
 43
0.0
 10
-92.68263938
 20
-83.31188424
 10
-92.68622888
 20
-83.30635534
 10
-92.68991376
 20
-83.30089969
 10
-92.69369301
 20
-83.29551829
 10
-92.69756563
 20
-83.29021216
 10
-92.70153062
 20
-83.28498228
 10
-92.70558698
 20
-83.27982968
 10
-92.7097337
 20
-83.27475535
 10
-92.71396978
 20
-83.2697603
 10
-92.71829422
 20
-83.26484553
 10
-92.72270601
 20
-83.26001204
 10
-92.72720416
 20
-83.25526085
 10
-92.73178767
 20
-83.25059296
 10
-92.73645552
 20
-83.24600938
 10
-92.74120672
 20
-83.24151109
 10
-92.74604026
 20
-83.23709913
 10
-92.75095515
 20
-83.23277448
 10
-92.75595038
 20
-83.22853815
 10
-92.76102495
 20
-83.22439114
 10
-92.76617785
 20
-83.22033448
 10
-92.77140809
 20
-83.21636914
 10
-92.77671466
 20
-83.21249615
 10
-92.78209656
 20
-83.20871651
 10
-92.78755278
 20
-83.20503121
 10
-92.79308234
 20
-83.20144128
  0
LWPOLYLINE
  5
292
100
AcDbEntity
  8
MST_1_1
 62
   137
  6
CONTINUOUS
100
AcDbPolyline
 90
        9
 70
     0
 43
0.0
 10
-92.79308236
 20
-83.20144128
 10
-92.78879199
 20
-83.19715103
 10
-92.78450092
 20
-83.19285984
 10
-92.78020892
 20
-83.18856784
 10
-92.77591599
 20
-83.18427503
 10
-92.77162236
 20
-83.17998128
 10
-92.7673278
 20
-83.17568672
 10
-92.76303242
 20
-83.17139146
 10
-92.75873623
 20
-83.16709527
  0
LWPOLYLINE
  5
293
100
AcDbEntity
  8
MST_1_1
 62
   137
  6
CONTINUOUS
100
AcDbPolyline
 90
        9
 70
     0
 43
0.0
 10
-92.75873623
 20
-83.16709527
 10
-92.83151234
 20
-83.09431916
 10
-92.90427133
 20
-83.02156028
 10
-92.97700297
 20
-82.94882853
 10
-93.04969759
 20
-82.8761338
 10
-93.12234564
 20
-82.80348586
 10
-93.19493711
 20
-82.73089439
 10
-93.26746199
 20
-82.65836939
 10
-93.33991097
 20
-82.58592064
  0
LWPOLYLINE
  5
294
100
AcDbEntity
  8
MST_1_1
 62
   137
  6
CONTINUOUS
100
AcDbPolyline
 90
        9
 70
     0
 43
0.0
 10
-93.33991097
 20
-82.58592064
 10
-93.35205239
 20
-82.59806206
 10
-93.36418706
 20
-82.61019673
 10
-93.37631498
 20
-82.62232453
 10
-93.38843591
 20
-82.63444558
 10
-93.40055008
 20
-82.64655964
 10
-93.41265705
 20
-82.65866683
 10
-93.42475725
 20
-82.67076704
 10
-93.43685048
 20
-82.68286015
  0
ARC
  5
295
100
AcDbEntity
  8
MST_1_1
 62
   137
  6
CONTINUOUS
100
AcDbCircle
 10
-93.63972407
 20
-82.85179288
 30
0.0
 40
0.26399993
100
AcDbArc
 50
230.21587884
 51
39.78413117
  0
LWPOLYLINE
  5
296
100
AcDbEntity
  8
MST_1_1
 62
   137
  6
CONTINUOUS
100
AcDbPolyline
 90
        9
 70
     0
 43
0.0
 10
-93.8086568
 20
-83.05466647
 10
-93.82080614
 20
-83.06681581
 10
-93.83294639
 20
-83.07895606
 10
-93.84507757
 20
-83.09108724
 10
-93.85719966
 20
-83.10320933
 10
-93.86931268
 20
-83.11532235
 10
-93.88141638
 20
-83.12742616
 10
-93.893511
 20
-83.13952079
 10
-93.9055963
 20
-83.15160598
  0
LWPOLYLINE
  5
297
100
AcDbEntity
  8
MST_1_1
 62
   137
  6
CONTINUOUS
100
AcDbPolyline
 90
        9
 70
     0
 43
0.0
 10
-93.9055963
 20
-83.15160598
 10
-93.83316013
 20
-83.22404238
 10
-93.7606427
 20
-83.2965597
 10
-93.68805472
 20
-83.36914756
 10
-93.61540667
 20
-83.44179561
 10
-93.54270902
 20
-83.51449349
 10
-93.4699718
 20
-83.58723048
 10
-93.39720594
 20
-83.65999634
 10
-93.32442168
 20
-83.7327806
  0
LWPOLYLINE
  5
298
100
AcDbEntity
  8
MST_1_1
 62
   137
  6
CONTINUOUS
100
AcDbPolyline
 90
        9
 70
     0
 43
0.0
 10
-93.32442168
 20
-83.7327806
 10
-93.32013248
 20
-83.72849139
 10
-93.31584211
 20
-83.72420102
 10
-93.31155057
 20
-83.71990949
 10
-93.30725787
 20
-83.71561679
 10
-93.30296401
 20
-83.71132293
 10
-93.29866898
 20
-83.70702813
 10
-93.29437302
 20
-83.70273194
 10
-93.29007567
 20
-83.69843459
  0
LWPOLYLINE
  5
299
100
AcDbEntity
  8
MST_1_1
 62
   137
  6
CONTINUOUS
100
AcDbPolyline
 90
       25
 70
     0
 43
0.0
 10
-93.29007565
 20
-83.69843459
 10
-93.28648646
 20
-83.70396297
 10
-93.2828018
 20
-83.70941822
 10
-93.27902267
 20
-83.71479933
 10
-93.2751501
 20
-83.72010527
 10
-93.27118509
 20
-83.72533503
 10
-93.26712866
 20
-83.7304876
 10
-93.26298181
 20
-83.73556197
 10
-93.25874556
 20
-83.74055711
 10
-93.25442093
 20
-83.74547202
 10
-93.25000891
 20
-83.75030568
 10
-93.24551053
 20
-83.75505708
 10
-93.24092679
 20
-83.75972519
 10
-93.23625872
 20
-83.76430902
 10
-93.23150731
 20
-83.76880753
 10
-93.22667359
 20
-83.77321973
 10
-93.22175855
 20
-83.77754458
 10
-93.21676323
 20
-83.78178109
 10
-93.21168862
 20
-83.78592822
 10
-93.20653574
 20
-83.78998498
 10
-93.2013056
 20
-83.79395034
 10
-93.19599921
 20
-83.7978233
 10
-93.19061759
 20
-83.80160282
 10
-93.18516175
 20
-83.80528791
 10
-93.17963269
 20
-83.80887755
  0
LWPOLYLINE
  5
29A
100
AcDbEntity
  8
MST_1_1
 62
   137
  6
CONTINUOUS
100
AcDbPolyline
 90
        9
 70
     0
 43
0.0
 10
-93.17963269
 20
-83.80887757
 10
-93.18393004
 20
-83.81317493
 10
-93.18822623
 20
-83.81747088
 10
-93.19252103
 20
-83.82176591
 10
-93.19681489
 20
-83.82605977
 10
-93.20110759
 20
-83.83035247
 10
-93.20539912
 20
-83.83464401
 10
-93.20968949
 20
-83.83893438
 10
-93.2139787
 20
-83.84322358
  0
LWPOLYLINE
  5
29B
100
AcDbEntity
  8
MST_1_1
 62
   137
  6
CONTINUOUS
100
AcDbPolyline
 90
        9
 70
     0
 43
0.0
 10
-93.2139787
 20
-83.84322358
 10
-93.14119444
 20
-83.91600784
 10
-93.06842858
 20
-83.9887737
 10
-92.99569159
 20
-84.06151093
 10
-92.92299371
 20
-84.13420857
 10
-92.85034566
 20
-84.20685662
 10
-92.7777578
 20
-84.2794446
 10
-92.70524048
 20
-84.35196203
 10
-92.63280408
 20
-84.42439821
  0
CIRCLE
  5
29C
100
AcDbEntity
  8
MST_1_1
 62
   137
  6
CONTINUOUS
100
AcDbCircle
 10
-90.93574785
 20
-81.45454975
 30
0.0
 40
4.24799398
  0
LWPOLYLINE
  5
29D
100
AcDbEntity
  8
MST_1_1
 62
   137
  6
CONTINUOUS
100
AcDbPolyline
 90
        9
 70
     0
 43
0.0
 10
-92.90774959
 20
-83.15384651
 10
-92.9553893
 20
-83.10620679
 10
-93.00301807
 20
-83.05857791
 10
-93.05063357
 20
-83.01096241
 10
-93.09823276
 20
-82.96336322
 10
-93.14581287
 20
-82.91578311
 10
-93.19337109
 20
-82.86822477
 10
-93.24090486
 20
-82.82069112
 10
-93.28841116
 20
-82.77318482
  0
ARC
  5
29E
100
AcDbEntity
  8
MST_1_1
 62
   137
  6
CONTINUOUS
100
AcDbCircle
 10
-92.98635777
 20
-83.50515905
 30
0.0
 40
0.35999965
100
AcDbArc
 50
77.38749365
 51
127.33775307
  0
LWPOLYLINE
  5
29F
100
AcDbEntity
  8
MST_1_1
 62
   137
  6
CONTINUOUS
100
AcDbPolyline
 90
        9
 70
     0
 43
0.0
 10
-92.70013078
 20
-83.72350393
 10
-92.76317922
 20
-83.66045549
 10
-92.82624734
 20
-83.59738725
 10
-92.8893285
 20
-83.53430598
 10
-92.95241629
 20
-83.47121819
 10
-93.01550408
 20
-83.4081304
 10
-93.07858535
 20
-83.34504924
 10
-93.14165358
 20
-83.28198112
 10
-93.20470203
 20
-83.21893268
  0
ARC
  5
2A0
100
AcDbEntity
  8
MST_1_1
 62
   137
  6
CONTINUOUS
100
AcDbCircle
 10
-92.98635787
 20
-83.50515951
 30
0.0
 40
0.36000032
100
AcDbArc
 50
322.66230677
 51
12.61245653
  0
LWPOLYLINE
  5
2A1
100
AcDbEntity
  8
MST_1_1
 62
   137
  6
CONTINUOUS
100
AcDbPolyline
 90
        9
 70
     0
 43
0.0
 10
-92.25438292
 20
-83.80721306
 10
-92.30188922
 20
-83.75970676
 10
-92.34942287
 20
-83.71217299
 10
-92.39698121
 20
-83.66461477
 10
-92.44456131
 20
-83.61703467
 10
-92.49216051
 20
-83.56943547
 10
-92.53977601
 20
-83.52181997
 10
-92.58740489
 20
-83.4741912
 10
-92.6350446
 20
-83.42655149
  0
ARC
  5
2A2
100
AcDbEntity
  8
MST_1_1
 62
   137
  6
CONTINUOUS
100
AcDbCircle
 10
-92.33299068
 20
-84.15852619
 30
0.0
 40
0.36000013
100
AcDbArc
 50
77.38757789
 51
192.61246315
  0
LWPOLYLINE
  5
2A3
100
AcDbEntity
  8
MST_1_1
 62
   137
  6
CONTINUOUS
100
AcDbPolyline
 90
        9
 70
     0
 43
0.0
 10
-93.06496546
 20
-83.85647234
 10
-93.01732318
 20
-83.90411485
 10
-92.96969186
 20
-83.95174595
 10
-92.92207496
 20
-83.99936284
 10
-92.87447507
 20
-84.04696274
 10
-92.82689508
 20
-84.09454284
 10
-92.7793379
 20
-84.1420999
 10
-92.73180646
 20
-84.18963134
 10
-92.68430377
 20
-84.23713415
  0
ARC
  5
2A4
100
AcDbEntity
  8
MST_1_1
 62
   137
  6
CONTINUOUS
100
AcDbCircle
 10
-92.98635767
 20
-83.5051584
 30
0.0
 40
0.36000093
100
AcDbArc
 50
257.38761324
 51
307.3376629
  0
LWPOLYLINE
  5
2A5
100
AcDbEntity
  8
MST_1_1
 62
   137
  6
CONTINUOUS
100
AcDbPolyline
 90
        9
 70
     0
 43
0.0
 10
-93.27258427
 20
-83.28681504
 10
-93.20953582
 20
-83.34986325
 10
-93.14646782
 20
-83.41293137
 10
-93.08338655
 20
-83.47601264
 10
-93.02029853
 20
-83.53910043
 10
-92.95721074
 20
-83.60218845
 10
-92.89412946
 20
-83.66526972
 10
-92.83106135
 20
-83.72833772
 10
-92.76801314
 20
-83.79138617
  0
ARC
  5
2A6
100
AcDbEntity
  8
MST_1_1
 62
   137
  6
CONTINUOUS
100
AcDbCircle
 10
-92.98635751
 20
-83.50515935
 30
0.0
 40
0.36
100
AcDbArc
 50
142.66227791
 51
192.61247599
  0
LWPOLYLINE
  5
2A7
100
AcDbEntity
  8
MST_1_1
 62
   137
  6
CONTINUOUS
100
AcDbPolyline
 90
        9
 70
     0
 43
0.0
 10
-93.71833225
 20
-83.20310567
 10
-93.67082944
 20
-83.25060836
 10
-93.623298
 20
-83.2981398
 10
-93.57574094
 20
-83.34569698
 10
-93.52816083
 20
-83.39327697
 10
-93.48056094
 20
-83.44087686
 10
-93.43294404
 20
-83.48849376
 10
-93.38531295
 20
-83.53612509
 10
-93.33767044
 20
-83.58376736
  0
ARC
  5
2A8
100
AcDbEntity
  8
MST_1_1
 62
   137
  6
CONTINUOUS
100
AcDbCircle
 10
-93.63972419
 20
-82.85179269
 30
0.0
 40
0.36000006
100
AcDbArc
 50
257.38753734
 51
12.61244165
  0
LWPOLYLINE
  5
2A9
100
AcDbEntity
  8
MST_1_1
 62
   137
  6
CONTINUOUS
100
AcDbPolyline
 90
        9
 70
     0
 43
0.0
 10
-93.09237172
 20
-83.26338063
 10
-93.04890503
 20
-83.30684732
 10
-93.00543206
 20
-83.35032029
 10
-92.96195466
 20
-83.39379769
 10
-92.91847517
 20
-83.43727707
 10
-92.87499579
 20
-83.48075656
 10
-92.83151839
 20
-83.52423396
 10
-92.78804542
 20
-83.56770693
 10
-92.74457873
 20
-83.61117362
  0
ARC
  5
2AA
100
AcDbEntity
  8
MST_1_1
 62
   137
  6
CONTINUOUS
100
AcDbCircle
 10
-92.98635747
 20
-83.50515937
 30
0.0
 40
0.26399996
100
AcDbArc
 50
336.32369791
 51
113.67631211
  0
LWPOLYLINE
  5
2AB
100
AcDbEntity
  8
MST_1_1
 62
   137
  6
CONTINUOUS
100
AcDbPolyline
 90
        9
 70
     0
 43
0.0
 10
-92.88034321
 20
-83.7469381
 10
-92.92380978
 20
-83.70347165
 10
-92.96728276
 20
-83.65999867
 10
-93.01076015
 20
-83.61652127
 10
-93.05423965
 20
-83.57304155
 10
-93.09771937
 20
-83.52956206
 10
-93.14119677
 20
-83.48608466
 10
-93.18466974
 20
-83.44261168
 10
-93.2281362
 20
-83.39914511
  0
ARC
  5
2AC
100
AcDbEntity
  8
MST_1_1
 62
   137
  6
CONTINUOUS
100
AcDbCircle
 10
-92.98635755
 20
-83.50515945
 30
0.0
 40
0.26399992
100
AcDbArc
 50
156.32366302
 51
293.676347
  0
CIRCLE
  5
2AD
100
AcDbEntity
  8
MST_1_1
 62
   137
  6
CONTINUOUS
100
AcDbCircle
 10
-90.93574785
 20
-111.45454975
 30
0.0
 40
2.32981333
  0
CIRCLE
  5
2AE
100
AcDbEntity
  8
MST_1_1
 62
   137
  6
CONTINUOUS
100
AcDbCircle
 10
-90.93574785
 20
-111.45454975
 30
0.0
 40
1.32203389
  0
CIRCLE
  5
2AF
100
AcDbEntity
  8
MST_1_1
 62
   137
  6
CONTINUOUS
100
AcDbCircle
 10
-90.93574785
 20
-111.45454975
 30
0.0
 40
2.32981333
  0
CIRCLE
  5
2B0
100
AcDbEntity
  8
MST_1_1
 62
   137
  6
CONTINUOUS
100
AcDbCircle
 10
-90.93574785
 20
-111.45454975
 30
0.0
 40
2.32981333
  0
CIRCLE
  5
2B1
100
AcDbEntity
  8
MST_1_1
 62
   137
  6
CONTINUOUS
100
AcDbCircle
 10
-90.93574785
 20
-111.45454975
 30
0.0
 40
4.85
  0
ARC
  5
2B2
100
AcDbEntity
  8
MST_1_1
 62
   137
  6
CONTINUOUS
100
AcDbCircle
 10
-92.8097478
 20
-111.45454975
 30
0.0
 40
0.37600003
100
AcDbArc
 50
106.48878485
 51
253.51122516
  0
ARC
  5
2B3
100
AcDbEntity
  8
MST_1_1
 62
   137
  6
CONTINUOUS
100
AcDbCircle
 10
-93.19601859
 20
-112.7595177
 30
0.0
 40
0.98493585
100
AcDbArc
 50
346.4887751
 51
73.5112424
  0
ARC
  5
2B4
100
AcDbEntity
  8
MST_1_1
 62
   137
  6
CONTINUOUS
100
AcDbCircle
 10
-91.87274778
 20
-113.0774813
 30
0.0
 40
0.37600004
100
AcDbArc
 50
166.48877314
 51
313.51122983
  0
ARC
  5
2B5
100
AcDbEntity
  8
MST_1_1
 62
   137
  6
CONTINUOUS
100
AcDbCircle
 10
-90.93574785
 20
-114.06448542
 30
0.0
 40
0.98493568
100
AcDbArc
 50
46.48875513
 51
133.51124487
  0
ARC
  5
2B6
100
AcDbEntity
  8
MST_1_1
 62
   137
  6
CONTINUOUS
100
AcDbCircle
 10
-89.99874789
 20
-113.07748134
 30
0.0
 40
0.37600002
100
AcDbArc
 50
226.48878273
 51
13.51123435
  0
ARC
  5
2B7
100
AcDbEntity
  8
MST_1_1
 62
   137
  6
CONTINUOUS
100
AcDbCircle
 10
-88.67547707
 20
-112.75951772
 30
0.0
 40
0.98493588
100
AcDbArc
 50
106.48875933
 51
193.51124321
  0
ARC
  5
2B8
100
AcDbEntity
  8
MST_1_1
 62
   137
  6
CONTINUOUS
100
AcDbCircle
 10
-89.0617479
 20
-111.45454975
 30
0.0
 40
0.37600003
100
AcDbArc
 50
286.48879487
 51
73.51121515
  0
ARC
  5
2B9
100
AcDbEntity
  8
MST_1_1
 62
   137
  6
CONTINUOUS
100
AcDbCircle
 10
-88.6754771
 20
-110.1495818
 30
0.0
 40
0.98493585
100
AcDbArc
 50
166.48876508
 51
253.51125242
  0
ARC
  5
2BA
100
AcDbEntity
  8
MST_1_1
 62
   137
  6
CONTINUOUS
100
AcDbCircle
 10
-89.99874791
 20
-109.8316182
 30
0.0
 40
0.37600004
100
AcDbArc
 50
346.48878316
 51
133.51121981
  0
ARC
  5
2BB
100
AcDbEntity
  8
MST_1_1
 62
   137
  6
CONTINUOUS
100
AcDbCircle
 10
-90.93574785
 20
-108.84461407
 30
0.0
 40
0.98493568
100
AcDbArc
 50
226.48876515
 51
313.51125489
  0
ARC
  5
2BC
100
AcDbEntity
  8
MST_1_1
 62
   137
  6
CONTINUOUS
100
AcDbCircle
 10
-91.87274781
 20
-109.83161815
 30
0.0
 40
0.37600002
100
AcDbArc
 50
46.48877271
 51
193.51124436
  0
ARC
  5
2BD
100
AcDbEntity
  8
MST_1_1
 62
   137
  6
CONTINUOUS
100
AcDbCircle
 10
-93.19601863
 20
-110.14958178
 30
0.0
 40
0.98493588
100
AcDbArc
 50
286.48876935
 51
13.51123319
  0
LWPOLYLINE
  5
2BE
100
AcDbEntity
  8
MST_1_1
 62
   137
  6
CONTINUOUS
100
AcDbPolyline
 90
        9
 70
     0
 43
0.0
 10
-92.63280408
 20
-114.42439821
 10
-92.62071888
 20
-114.4123129
 10
-92.60862426
 20
-114.40021828
 10
-92.59652045
 20
-114.38811458
 10
-92.58440743
 20
-114.37600156
 10
-92.57228534
 20
-114.36387947
 10
-92.56015416
 20
-114.35174829
 10
-92.54801391
 20
-114.33960804
 10
-92.53586457
 20
-114.3274587
  0
ARC
  5
2BF
100
AcDbEntity
  8
MST_1_1
 62
   137
  6
CONTINUOUS
100
AcDbCircle
 10
-92.33299086
 20
-114.15852609
 30
0.0
 40
0.26399994
100
AcDbArc
 50
50.21590624
 51
219.78410378
  0
LWPOLYLINE
  5
2C0
100
AcDbEntity
  8
MST_1_1
 62
   137
  6
CONTINUOUS
100
AcDbPolyline
 90
        9
 70
     0
 43
0.0
 10
-92.16405825
 20
-113.95565238
 10
-92.15196514
 20
-113.94355915
 10
-92.13986493
 20
-113.93145895
 10
-92.12775774
 20
-113.91935198
 10
-92.11564368
 20
-113.90723781
 10
-92.10352263
 20
-113.89511688
 10
-92.09139483
 20
-113.88298896
 10
-92.07926016
 20
-113.87085429
 10
-92.06711874
 20
-113.85871287
  0
LWPOLYLINE
  5
2C1
100
AcDbEntity
  8
MST_1_1
 62
   137
  6
CONTINUOUS
100
AcDbPolyline
 90
        9
 70
     0
 43
0.0
 10
-92.06711874
 20
-113.85871287
 10
-92.13956749
 20
-113.78626389
 10
-92.21209249
 20
-113.71373901
 10
-92.28468396
 20
-113.64114754
 10
-92.3573319
 20
-113.56849949
 10
-92.43002663
 20
-113.49580487
 10
-92.50275838
 20
-113.42307324
 10
-92.57551726
 20
-113.35031424
 10
-92.64829337
 20
-113.27753813
  0
LWPOLYLINE
  5
2C2
100
AcDbEntity
  8
MST_1_1
 62
   137
  6
CONTINUOUS
100
AcDbPolyline
 90
        9
 70
     0
 43
0.0
 10
-92.64829337
 20
-113.27753813
 10
-92.65258956
 20
-113.28183433
 10
-92.65688482
 20
-113.2861297
 10
-92.66117938
 20
-113.29042426
 10
-92.66547313
 20
-113.29471789
 10
-92.66976594
 20
-113.29901082
 10
-92.67405794
 20
-113.30330282
 10
-92.67834913
 20
-113.30759389
 10
-92.68263938
 20
-113.31188426
  0
LWPOLYLINE
  5
2C3
100
AcDbEntity
  8
MST_1_1
 62
   137
  6
CONTINUOUS
100
AcDbPolyline
 90
       25
 70
     0
 43
0.0
 10
-92.68263938
 20
-113.31188424
 10
-92.68622888
 20
-113.30635534
 10
-92.68991376
 20
-113.30089969
 10
-92.69369301
 20
-113.29551829
 10
-92.69756563
 20
-113.29021216
 10
-92.70153062
 20
-113.28498228
 10
-92.70558698
 20
-113.27982968
 10
-92.7097337
 20
-113.27475535
 10
-92.71396978
 20
-113.2697603
 10
-92.71829422
 20
-113.26484553
 10
-92.72270601
 20
-113.26001204
 10
-92.72720416
 20
-113.25526085
 10
-92.73178767
 20
-113.25059296
 10
-92.73645552
 20
-113.24600938
 10
-92.74120672
 20
-113.24151109
 10
-92.74604026
 20
-113.23709913
 10
-92.75095515
 20
-113.23277448
 10
-92.75595038
 20
-113.22853815
 10
-92.76102495
 20
-113.22439114
 10
-92.76617785
 20
-113.22033448
 10
-92.77140809
 20
-113.21636914
 10
-92.77671466
 20
-113.21249615
 10
-92.78209656
 20
-113.20871651
 10
-92.78755278
 20
-113.20503121
 10
-92.79308234
 20
-113.20144128
  0
LWPOLYLINE
  5
2C4
100
AcDbEntity
  8
MST_1_1
 62
   137
  6
CONTINUOUS
100
AcDbPolyline
 90
        9
 70
     0
 43
0.0
 10
-92.79308236
 20
-113.20144128
 10
-92.78879199
 20
-113.19715103
 10
-92.78450092
 20
-113.19285984
 10
-92.78020892
 20
-113.18856784
 10
-92.77591599
 20
-113.18427503
 10
-92.77162236
 20
-113.17998128
 10
-92.7673278
 20
-113.17568672
 10
-92.76303242
 20
-113.17139146
 10
-92.75873623
 20
-113.16709527
  0
LWPOLYLINE
  5
2C5
100
AcDbEntity
  8
MST_1_1
 62
   137
  6
CONTINUOUS
100
AcDbPolyline
 90
        9
 70
     0
 43
0.0
 10
-92.75873623
 20
-113.16709527
 10
-92.83151234
 20
-113.09431916
 10
-92.90427133
 20
-113.02156028
 10
-92.97700297
 20
-112.94882853
 10
-93.04969759
 20
-112.8761338
 10
-93.12234564
 20
-112.80348586
 10
-93.19493711
 20
-112.73089439
 10
-93.26746199
 20
-112.65836939
 10
-93.33991097
 20
-112.58592064
  0
LWPOLYLINE
  5
2C6
100
AcDbEntity
  8
MST_1_1
 62
   137
  6
CONTINUOUS
100
AcDbPolyline
 90
        9
 70
     0
 43
0.0
 10
-93.33991097
 20
-112.58592064
 10
-93.35205239
 20
-112.59806206
 10
-93.36418706
 20
-112.61019673
 10
-93.37631498
 20
-112.62232453
 10
-93.38843591
 20
-112.63444558
 10
-93.40055008
 20
-112.64655964
 10
-93.41265705
 20
-112.65866683
 10
-93.42475725
 20
-112.67076704
 10
-93.43685048
 20
-112.68286015
  0
ARC
  5
2C7
100
AcDbEntity
  8
MST_1_1
 62
   137
  6
CONTINUOUS
100
AcDbCircle
 10
-93.63972407
 20
-112.85179288
 30
0.0
 40
0.26399993
100
AcDbArc
 50
230.21587884
 51
39.78413117
  0
LWPOLYLINE
  5
2C8
100
AcDbEntity
  8
MST_1_1
 62
   137
  6
CONTINUOUS
100
AcDbPolyline
 90
        9
 70
     0
 43
0.0
 10
-93.8086568
 20
-113.05466647
 10
-93.82080614
 20
-113.06681581
 10
-93.83294639
 20
-113.07895606
 10
-93.84507757
 20
-113.09108724
 10
-93.85719966
 20
-113.10320933
 10
-93.86931268
 20
-113.11532235
 10
-93.88141638
 20
-113.12742616
 10
-93.893511
 20
-113.13952079
 10
-93.9055963
 20
-113.15160598
  0
LWPOLYLINE
  5
2C9
100
AcDbEntity
  8
MST_1_1
 62
   137
  6
CONTINUOUS
100
AcDbPolyline
 90
        9
 70
     0
 43
0.0
 10
-93.9055963
 20
-113.15160598
 10
-93.83316013
 20
-113.22404238
 10
-93.7606427
 20
-113.2965597
 10
-93.68805472
 20
-113.36914756
 10
-93.61540667
 20
-113.44179561
 10
-93.54270902
 20
-113.51449349
 10
-93.4699718
 20
-113.58723048
 10
-93.39720594
 20
-113.65999634
 10
-93.32442168
 20
-113.7327806
  0
LWPOLYLINE
  5
2CA
100
AcDbEntity
  8
MST_1_1
 62
   137
  6
CONTINUOUS
100
AcDbPolyline
 90
        9
 70
     0
 43
0.0
 10
-93.32442168
 20
-113.7327806
 10
-93.32013248
 20
-113.72849139
 10
-93.31584211
 20
-113.72420102
 10
-93.31155057
 20
-113.71990949
 10
-93.30725787
 20
-113.71561679
 10
-93.30296401
 20
-113.71132293
 10
-93.29866898
 20
-113.70702813
 10
-93.29437302
 20
-113.70273194
 10
-93.29007567
 20
-113.69843459
  0
LWPOLYLINE
  5
2CB
100
AcDbEntity
  8
MST_1_1
 62
   137
  6
CONTINUOUS
100
AcDbPolyline
 90
       25
 70
     0
 43
0.0
 10
-93.29007565
 20
-113.69843459
 10
-93.28648646
 20
-113.70396297
 10
-93.2828018
 20
-113.70941822
 10
-93.27902267
 20
-113.71479933
 10
-93.2751501
 20
-113.72010527
 10
-93.27118509
 20
-113.72533503
 10
-93.26712866
 20
-113.7304876
 10
-93.26298181
 20
-113.73556197
 10
-93.25874556
 20
-113.74055711
 10
-93.25442093
 20
-113.74547202
 10
-93.25000891
 20
-113.75030568
 10
-93.24551053
 20
-113.75505708
 10
-93.24092679
 20
-113.75972519
 10
-93.23625872
 20
-113.76430902
 10
-93.23150731
 20
-113.76880753
 10
-93.22667359
 20
-113.77321973
 10
-93.22175855
 20
-113.77754458
 10
-93.21676323
 20
-113.78178109
 10
-93.21168862
 20
-113.78592822
 10
-93.20653574
 20
-113.78998498
 10
-93.2013056
 20
-113.79395034
 10
-93.19599921
 20
-113.7978233
 10
-93.19061759
 20
-113.80160282
 10
-93.18516175
 20
-113.80528791
 10
-93.17963269
 20
-113.80887755
  0
LWPOLYLINE
  5
2CC
100
AcDbEntity
  8
MST_1_1
 62
   137
  6
CONTINUOUS
100
AcDbPolyline
 90
        9
 70
     0
 43
0.0
 10
-93.17963269
 20
-113.80887757
 10
-93.18393004
 20
-113.81317493
 10
-93.18822623
 20
-113.81747088
 10
-93.19252103
 20
-113.82176591
 10
-93.19681489
 20
-113.82605977
 10
-93.20110759
 20
-113.83035247
 10
-93.20539912
 20
-113.83464401
 10
-93.20968949
 20
-113.83893438
 10
-93.2139787
 20
-113.84322358
  0
LWPOLYLINE
  5
2CD
100
AcDbEntity
  8
MST_1_1
 62
   137
  6
CONTINUOUS
100
AcDbPolyline
 90
        9
 70
     0
 43
0.0
 10
-93.2139787
 20
-113.84322358
 10
-93.14119444
 20
-113.91600784
 10
-93.06842858
 20
-113.9887737
 10
-92.99569159
 20
-114.06151093
 10
-92.92299371
 20
-114.13420857
 10
-92.85034566
 20
-114.20685662
 10
-92.7777578
 20
-114.2794446
 10
-92.70524048
 20
-114.35196203
 10
-92.63280408
 20
-114.42439821
  0
CIRCLE
  5
2CE
100
AcDbEntity
  8
MST_1_1
 62
   137
  6
CONTINUOUS
100
AcDbCircle
 10
-90.93574785
 20
-111.45454975
 30
0.0
 40
4.24799398
  0
LWPOLYLINE
  5
2CF
100
AcDbEntity
  8
MST_1_1
 62
   137
  6
CONTINUOUS
100
AcDbPolyline
 90
        9
 70
     0
 43
0.0
 10
-92.90774959
 20
-113.15384651
 10
-92.9553893
 20
-113.10620679
 10
-93.00301807
 20
-113.05857791
 10
-93.05063357
 20
-113.01096241
 10
-93.09823276
 20
-112.96336322
 10
-93.14581287
 20
-112.91578311
 10
-93.19337109
 20
-112.86822477
 10
-93.24090486
 20
-112.82069112
 10
-93.28841116
 20
-112.77318482
  0
ARC
  5
2D0
100
AcDbEntity
  8
MST_1_1
 62
   137
  6
CONTINUOUS
100
AcDbCircle
 10
-92.98635777
 20
-113.50515905
 30
0.0
 40
0.35999965
100
AcDbArc
 50
77.38749365
 51
127.33775307
  0
LWPOLYLINE
  5
2D1
100
AcDbEntity
  8
MST_1_1
 62
   137
  6
CONTINUOUS
100
AcDbPolyline
 90
        9
 70
     0
 43
0.0
 10
-92.70013078
 20
-113.72350393
 10
-92.76317922
 20
-113.66045549
 10
-92.82624734
 20
-113.59738725
 10
-92.8893285
 20
-113.53430598
 10
-92.95241629
 20
-113.47121819
 10
-93.01550408
 20
-113.4081304
 10
-93.07858535
 20
-113.34504924
 10
-93.14165358
 20
-113.28198112
 10
-93.20470203
 20
-113.21893268
  0
ARC
  5
2D2
100
AcDbEntity
  8
MST_1_1
 62
   137
  6
CONTINUOUS
100
AcDbCircle
 10
-92.98635787
 20
-113.50515951
 30
0.0
 40
0.36000032
100
AcDbArc
 50
322.66230677
 51
12.61245653
  0
LWPOLYLINE
  5
2D3
100
AcDbEntity
  8
MST_1_1
 62
   137
  6
CONTINUOUS
100
AcDbPolyline
 90
        9
 70
     0
 43
0.0
 10
-92.25438292
 20
-113.80721306
 10
-92.30188922
 20
-113.75970676
 10
-92.34942287
 20
-113.71217299
 10
-92.39698121
 20
-113.66461477
 10
-92.44456131
 20
-113.61703467
 10
-92.49216051
 20
-113.56943547
 10
-92.53977601
 20
-113.52181997
 10
-92.58740489
 20
-113.4741912
 10
-92.6350446
 20
-113.42655149
  0
ARC
  5
2D4
100
AcDbEntity
  8
MST_1_1
 62
   137
  6
CONTINUOUS
100
AcDbCircle
 10
-92.33299068
 20
-114.15852619
 30
0.0
 40
0.36000013
100
AcDbArc
 50
77.38757789
 51
192.61246315
  0
LWPOLYLINE
  5
2D5
100
AcDbEntity
  8
MST_1_1
 62
   137
  6
CONTINUOUS
100
AcDbPolyline
 90
        9
 70
     0
 43
0.0
 10
-93.06496546
 20
-113.85647234
 10
-93.01732318
 20
-113.90411485
 10
-92.96969186
 20
-113.95174595
 10
-92.92207496
 20
-113.99936284
 10
-92.87447507
 20
-114.04696274
 10
-92.82689508
 20
-114.09454284
 10
-92.7793379
 20
-114.1420999
 10
-92.73180646
 20
-114.18963134
 10
-92.68430377
 20
-114.23713415
  0
ARC
  5
2D6
100
AcDbEntity
  8
MST_1_1
 62
   137
  6
CONTINUOUS
100
AcDbCircle
 10
-92.98635767
 20
-113.5051584
 30
0.0
 40
0.36000093
100
AcDbArc
 50
257.38761324
 51
307.3376629
  0
LWPOLYLINE
  5
2D7
100
AcDbEntity
  8
MST_1_1
 62
   137
  6
CONTINUOUS
100
AcDbPolyline
 90
        9
 70
     0
 43
0.0
 10
-93.27258427
 20
-113.28681504
 10
-93.20953582
 20
-113.34986325
 10
-93.14646782
 20
-113.41293137
 10
-93.08338655
 20
-113.47601264
 10
-93.02029853
 20
-113.53910043
 10
-92.95721074
 20
-113.60218845
 10
-92.89412946
 20
-113.66526972
 10
-92.83106135
 20
-113.72833772
 10
-92.76801314
 20
-113.79138617
  0
ARC
  5
2D8
100
AcDbEntity
  8
MST_1_1
 62
   137
  6
CONTINUOUS
100
AcDbCircle
 10
-92.98635751
 20
-113.50515935
 30
0.0
 40
0.36
100
AcDbArc
 50
142.66227791
 51
192.61247599
  0
LWPOLYLINE
  5
2D9
100
AcDbEntity
  8
MST_1_1
 62
   137
  6
CONTINUOUS
100
AcDbPolyline
 90
        9
 70
     0
 43
0.0
 10
-93.71833225
 20
-113.20310567
 10
-93.67082944
 20
-113.25060836
 10
-93.623298
 20
-113.2981398
 10
-93.57574094
 20
-113.34569698
 10
-93.52816083
 20
-113.39327697
 10
-93.48056094
 20
-113.44087686
 10
-93.43294404
 20
-113.48849376
 10
-93.38531295
 20
-113.53612509
 10
-93.33767044
 20
-113.58376736
  0
ARC
  5
2DA
100
AcDbEntity
  8
MST_1_1
 62
   137
  6
CONTINUOUS
100
AcDbCircle
 10
-93.63972419
 20
-112.85179269
 30
0.0
 40
0.36000006
100
AcDbArc
 50
257.38753734
 51
12.61244165
  0
LWPOLYLINE
  5
2DB
100
AcDbEntity
  8
MST_1_1
 62
   137
  6
CONTINUOUS
100
AcDbPolyline
 90
        9
 70
     0
 43
0.0
 10
-93.09237172
 20
-113.26338063
 10
-93.04890503
 20
-113.30684732
 10
-93.00543206
 20
-113.35032029
 10
-92.96195466
 20
-113.39379769
 10
-92.91847517
 20
-113.43727707
 10
-92.87499579
 20
-113.48075656
 10
-92.83151839
 20
-113.52423396
 10
-92.78804542
 20
-113.56770693
 10
-92.74457873
 20
-113.61117362
  0
ARC
  5
2DC
100
AcDbEntity
  8
MST_1_1
 62
   137
  6
CONTINUOUS
100
AcDbCircle
 10
-92.98635747
 20
-113.50515937
 30
0.0
 40
0.26399996
100
AcDbArc
 50
336.32369791
 51
113.67631211
  0
LWPOLYLINE
  5
2DD
100
AcDbEntity
  8
MST_1_1
 62
   137
  6
CONTINUOUS
100
AcDbPolyline
 90
        9
 70
     0
 43
0.0
 10
-92.88034321
 20
-113.7469381
 10
-92.92380978
 20
-113.70347165
 10
-92.96728276
 20
-113.65999867
 10
-93.01076015
 20
-113.61652127
 10
-93.05423965
 20
-113.57304155
 10
-93.09771937
 20
-113.52956206
 10
-93.14119677
 20
-113.48608466
 10
-93.18466974
 20
-113.44261168
 10
-93.2281362
 20
-113.39914511
  0
ARC
  5
2DE
100
AcDbEntity
  8
MST_1_1
 62
   137
  6
CONTINUOUS
100
AcDbCircle
 10
-92.98635755
 20
-113.50515945
 30
0.0
 40
0.26399992
100
AcDbArc
 50
156.32366302
 51
293.676347
  0
CIRCLE
  5
2DF
100
AcDbEntity
  8
MST_1_1
 62
   137
  6
CONTINUOUS
100
AcDbCircle
 10
-90.93574785
 20
-141.45454975
 30
0.0
 40
2.32981333
  0
CIRCLE
  5
2E0
100
AcDbEntity
  8
MST_1_1
 62
   137
  6
CONTINUOUS
100
AcDbCircle
 10
-90.93574785
 20
-141.45454975
 30
0.0
 40
1.32203389
  0
CIRCLE
  5
2E1
100
AcDbEntity
  8
MST_1_1
 62
   137
  6
CONTINUOUS
100
AcDbCircle
 10
-90.93574785
 20
-141.45454975
 30
0.0
 40
2.32981333
  0
CIRCLE
  5
2E2
100
AcDbEntity
  8
MST_1_1
 62
   137
  6
CONTINUOUS
100
AcDbCircle
 10
-90.93574785
 20
-141.45454975
 30
0.0
 40
2.32981333
  0
CIRCLE
  5
2E3
100
AcDbEntity
  8
MST_1_1
 62
   137
  6
CONTINUOUS
100
AcDbCircle
 10
-90.93574785
 20
-141.45454975
 30
0.0
 40
4.85
  0
ARC
  5
2E4
100
AcDbEntity
  8
MST_1_1
 62
   137
  6
CONTINUOUS
100
AcDbCircle
 10
-92.8097478
 20
-141.45454975
 30
0.0
 40
0.37600003
100
AcDbArc
 50
106.48878485
 51
253.51122516
  0
ARC
  5
2E5
100
AcDbEntity
  8
MST_1_1
 62
   137
  6
CONTINUOUS
100
AcDbCircle
 10
-93.19601859
 20
-142.7595177
 30
0.0
 40
0.98493585
100
AcDbArc
 50
346.4887751
 51
73.5112424
  0
ARC
  5
2E6
100
AcDbEntity
  8
MST_1_1
 62
   137
  6
CONTINUOUS
100
AcDbCircle
 10
-91.87274778
 20
-143.0774813
 30
0.0
 40
0.37600004
100
AcDbArc
 50
166.48877314
 51
313.51122983
  0
ARC
  5
2E7
100
AcDbEntity
  8
MST_1_1
 62
   137
  6
CONTINUOUS
100
AcDbCircle
 10
-90.93574785
 20
-144.06448542
 30
0.0
 40
0.98493568
100
AcDbArc
 50
46.48875513
 51
133.51124487
  0
ARC
  5
2E8
100
AcDbEntity
  8
MST_1_1
 62
   137
  6
CONTINUOUS
100
AcDbCircle
 10
-89.99874789
 20
-143.07748134
 30
0.0
 40
0.37600002
100
AcDbArc
 50
226.48878273
 51
13.51123435
  0
ARC
  5
2E9
100
AcDbEntity
  8
MST_1_1
 62
   137
  6
CONTINUOUS
100
AcDbCircle
 10
-88.67547707
 20
-142.75951772
 30
0.0
 40
0.98493588
100
AcDbArc
 50
106.48875933
 51
193.51124321
  0
ARC
  5
2EA
100
AcDbEntity
  8
MST_1_1
 62
   137
  6
CONTINUOUS
100
AcDbCircle
 10
-89.0617479
 20
-141.45454975
 30
0.0
 40
0.37600003
100
AcDbArc
 50
286.48879487
 51
73.51121515
  0
ARC
  5
2EB
100
AcDbEntity
  8
MST_1_1
 62
   137
  6
CONTINUOUS
100
AcDbCircle
 10
-88.6754771
 20
-140.1495818
 30
0.0
 40
0.98493585
100
AcDbArc
 50
166.48876508
 51
253.51125242
  0
ARC
  5
2EC
100
AcDbEntity
  8
MST_1_1
 62
   137
  6
CONTINUOUS
100
AcDbCircle
 10
-89.99874791
 20
-139.8316182
 30
0.0
 40
0.37600004
100
AcDbArc
 50
346.48878316
 51
133.51121981
  0
ARC
  5
2ED
100
AcDbEntity
  8
MST_1_1
 62
   137
  6
CONTINUOUS
100
AcDbCircle
 10
-90.93574785
 20
-138.84461407
 30
0.0
 40
0.98493568
100
AcDbArc
 50
226.48876515
 51
313.51125489
  0
ARC
  5
2EE
100
AcDbEntity
  8
MST_1_1
 62
   137
  6
CONTINUOUS
100
AcDbCircle
 10
-91.87274781
 20
-139.83161815
 30
0.0
 40
0.37600002
100
AcDbArc
 50
46.48877271
 51
193.51124436
  0
ARC
  5
2EF
100
AcDbEntity
  8
MST_1_1
 62
   137
  6
CONTINUOUS
100
AcDbCircle
 10
-93.19601863
 20
-140.14958178
 30
0.0
 40
0.98493588
100
AcDbArc
 50
286.48876935
 51
13.51123319
  0
LWPOLYLINE
  5
2F0
100
AcDbEntity
  8
MST_1_1
 62
   137
  6
CONTINUOUS
100
AcDbPolyline
 90
        9
 70
     0
 43
0.0
 10
-92.63280408
 20
-144.42439821
 10
-92.62071888
 20
-144.4123129
 10
-92.60862426
 20
-144.40021828
 10
-92.59652045
 20
-144.38811458
 10
-92.58440743
 20
-144.37600156
 10
-92.57228534
 20
-144.36387947
 10
-92.56015416
 20
-144.35174829
 10
-92.54801391
 20
-144.33960804
 10
-92.53586457
 20
-144.3274587
  0
ARC
  5
2F1
100
AcDbEntity
  8
MST_1_1
 62
   137
  6
CONTINUOUS
100
AcDbCircle
 10
-92.33299086
 20
-144.15852609
 30
0.0
 40
0.26399994
100
AcDbArc
 50
50.21590624
 51
219.78410378
  0
LWPOLYLINE
  5
2F2
100
AcDbEntity
  8
MST_1_1
 62
   137
  6
CONTINUOUS
100
AcDbPolyline
 90
        9
 70
     0
 43
0.0
 10
-92.16405825
 20
-143.95565238
 10
-92.15196514
 20
-143.94355915
 10
-92.13986493
 20
-143.93145895
 10
-92.12775774
 20
-143.91935198
 10
-92.11564368
 20
-143.90723781
 10
-92.10352263
 20
-143.89511688
 10
-92.09139483
 20
-143.88298896
 10
-92.07926016
 20
-143.87085429
 10
-92.06711874
 20
-143.85871287
  0
LWPOLYLINE
  5
2F3
100
AcDbEntity
  8
MST_1_1
 62
   137
  6
CONTINUOUS
100
AcDbPolyline
 90
        9
 70
     0
 43
0.0
 10
-92.06711874
 20
-143.85871287
 10
-92.13956749
 20
-143.78626389
 10
-92.21209249
 20
-143.71373901
 10
-92.28468396
 20
-143.64114754
 10
-92.3573319
 20
-143.56849949
 10
-92.43002663
 20
-143.49580487
 10
-92.50275838
 20
-143.42307324
 10
-92.57551726
 20
-143.35031424
 10
-92.64829337
 20
-143.27753813
  0
LWPOLYLINE
  5
2F4
100
AcDbEntity
  8
MST_1_1
 62
   137
  6
CONTINUOUS
100
AcDbPolyline
 90
        9
 70
     0
 43
0.0
 10
-92.64829337
 20
-143.27753813
 10
-92.65258956
 20
-143.28183433
 10
-92.65688482
 20
-143.2861297
 10
-92.66117938
 20
-143.29042426
 10
-92.66547313
 20
-143.29471789
 10
-92.66976594
 20
-143.29901082
 10
-92.67405794
 20
-143.30330282
 10
-92.67834913
 20
-143.30759389
 10
-92.68263938
 20
-143.31188426
  0
LWPOLYLINE
  5
2F5
100
AcDbEntity
  8
MST_1_1
 62
   137
  6
CONTINUOUS
100
AcDbPolyline
 90
       25
 70
     0
 43
0.0
 10
-92.68263938
 20
-143.31188424
 10
-92.68622888
 20
-143.30635534
 10
-92.68991376
 20
-143.30089969
 10
-92.69369301
 20
-143.29551829
 10
-92.69756563
 20
-143.29021216
 10
-92.70153062
 20
-143.28498228
 10
-92.70558698
 20
-143.27982968
 10
-92.7097337
 20
-143.27475535
 10
-92.71396978
 20
-143.2697603
 10
-92.71829422
 20
-143.26484553
 10
-92.72270601
 20
-143.26001204
 10
-92.72720416
 20
-143.25526085
 10
-92.73178767
 20
-143.25059296
 10
-92.73645552
 20
-143.24600938
 10
-92.74120672
 20
-143.24151109
 10
-92.74604026
 20
-143.23709913
 10
-92.75095515
 20
-143.23277448
 10
-92.75595038
 20
-143.22853815
 10
-92.76102495
 20
-143.22439114
 10
-92.76617785
 20
-143.22033448
 10
-92.77140809
 20
-143.21636914
 10
-92.77671466
 20
-143.21249615
 10
-92.78209656
 20
-143.20871651
 10
-92.78755278
 20
-143.20503121
 10
-92.79308234
 20
-143.20144128
  0
LWPOLYLINE
  5
2F6
100
AcDbEntity
  8
MST_1_1
 62
   137
  6
CONTINUOUS
100
AcDbPolyline
 90
        9
 70
     0
 43
0.0
 10
-92.79308236
 20
-143.20144128
 10
-92.78879199
 20
-143.19715103
 10
-92.78450092
 20
-143.19285984
 10
-92.78020892
 20
-143.18856784
 10
-92.77591599
 20
-143.18427503
 10
-92.77162236
 20
-143.17998128
 10
-92.7673278
 20
-143.17568672
 10
-92.76303242
 20
-143.17139146
 10
-92.75873623
 20
-143.16709527
  0
LWPOLYLINE
  5
2F7
100
AcDbEntity
  8
MST_1_1
 62
   137
  6
CONTINUOUS
100
AcDbPolyline
 90
        9
 70
     0
 43
0.0
 10
-92.75873623
 20
-143.16709527
 10
-92.83151234
 20
-143.09431916
 10
-92.90427133
 20
-143.02156028
 10
-92.97700297
 20
-142.94882853
 10
-93.04969759
 20
-142.8761338
 10
-93.12234564
 20
-142.80348586
 10
-93.19493711
 20
-142.73089439
 10
-93.26746199
 20
-142.65836939
 10
-93.33991097
 20
-142.58592064
  0
LWPOLYLINE
  5
2F8
100
AcDbEntity
  8
MST_1_1
 62
   137
  6
CONTINUOUS
100
AcDbPolyline
 90
        9
 70
     0
 43
0.0
 10
-93.33991097
 20
-142.58592064
 10
-93.35205239
 20
-142.59806206
 10
-93.36418706
 20
-142.61019673
 10
-93.37631498
 20
-142.62232453
 10
-93.38843591
 20
-142.63444558
 10
-93.40055008
 20
-142.64655964
 10
-93.41265705
 20
-142.65866683
 10
-93.42475725
 20
-142.67076704
 10
-93.43685048
 20
-142.68286015
  0
ARC
  5
2F9
100
AcDbEntity
  8
MST_1_1
 62
   137
  6
CONTINUOUS
100
AcDbCircle
 10
-93.63972407
 20
-142.85179288
 30
0.0
 40
0.26399993
100
AcDbArc
 50
230.21587884
 51
39.78413117
  0
LWPOLYLINE
  5
2FA
100
AcDbEntity
  8
MST_1_1
 62
   137
  6
CONTINUOUS
100
AcDbPolyline
 90
        9
 70
     0
 43
0.0
 10
-93.8086568
 20
-143.05466647
 10
-93.82080614
 20
-143.06681581
 10
-93.83294639
 20
-143.07895606
 10
-93.84507757
 20
-143.09108724
 10
-93.85719966
 20
-143.10320933
 10
-93.86931268
 20
-143.11532235
 10
-93.88141638
 20
-143.12742616
 10
-93.893511
 20
-143.13952079
 10
-93.9055963
 20
-143.15160598
  0
LWPOLYLINE
  5
2FB
100
AcDbEntity
  8
MST_1_1
 62
   137
  6
CONTINUOUS
100
AcDbPolyline
 90
        9
 70
     0
 43
0.0
 10
-93.9055963
 20
-143.15160598
 10
-93.83316013
 20
-143.22404238
 10
-93.7606427
 20
-143.2965597
 10
-93.68805472
 20
-143.36914756
 10
-93.61540667
 20
-143.44179561
 10
-93.54270902
 20
-143.51449349
 10
-93.4699718
 20
-143.58723048
 10
-93.39720594
 20
-143.65999634
 10
-93.32442168
 20
-143.7327806
  0
LWPOLYLINE
  5
2FC
100
AcDbEntity
  8
MST_1_1
 62
   137
  6
CONTINUOUS
100
AcDbPolyline
 90
        9
 70
     0
 43
0.0
 10
-93.32442168
 20
-143.7327806
 10
-93.32013248
 20
-143.72849139
 10
-93.31584211
 20
-143.72420102
 10
-93.31155057
 20
-143.71990949
 10
-93.30725787
 20
-143.71561679
 10
-93.30296401
 20
-143.71132293
 10
-93.29866898
 20
-143.70702813
 10
-93.29437302
 20
-143.70273194
 10
-93.29007567
 20
-143.69843459
  0
LWPOLYLINE
  5
2FD
100
AcDbEntity
  8
MST_1_1
 62
   137
  6
CONTINUOUS
100
AcDbPolyline
 90
       25
 70
     0
 43
0.0
 10
-93.29007565
 20
-143.69843459
 10
-93.28648646
 20
-143.70396297
 10
-93.2828018
 20
-143.70941822
 10
-93.27902267
 20
-143.71479933
 10
-93.2751501
 20
-143.72010527
 10
-93.27118509
 20
-143.72533503
 10
-93.26712866
 20
-143.7304876
 10
-93.26298181
 20
-143.73556197
 10
-93.25874556
 20
-143.74055711
 10
-93.25442093
 20
-143.74547202
 10
-93.25000891
 20
-143.75030568
 10
-93.24551053
 20
-143.75505708
 10
-93.24092679
 20
-143.75972519
 10
-93.23625872
 20
-143.76430902
 10
-93.23150731
 20
-143.76880753
 10
-93.22667359
 20
-143.77321973
 10
-93.22175855
 20
-143.77754458
 10
-93.21676323
 20
-143.78178109
 10
-93.21168862
 20
-143.78592822
 10
-93.20653574
 20
-143.78998498
 10
-93.2013056
 20
-143.79395034
 10
-93.19599921
 20
-143.7978233
 10
-93.19061759
 20
-143.80160282
 10
-93.18516175
 20
-143.80528791
 10
-93.17963269
 20
-143.80887755
  0
LWPOLYLINE
  5
2FE
100
AcDbEntity
  8
MST_1_1
 62
   137
  6
CONTINUOUS
100
AcDbPolyline
 90
        9
 70
     0
 43
0.0
 10
-93.17963269
 20
-143.80887757
 10
-93.18393004
 20
-143.81317493
 10
-93.18822623
 20
-143.81747088
 10
-93.19252103
 20
-143.82176591
 10
-93.19681489
 20
-143.82605977
 10
-93.20110759
 20
-143.83035247
 10
-93.20539912
 20
-143.83464401
 10
-93.20968949
 20
-143.83893438
 10
-93.2139787
 20
-143.84322358
  0
LWPOLYLINE
  5
2FF
100
AcDbEntity
  8
MST_1_1
 62
   137
  6
CONTINUOUS
100
AcDbPolyline
 90
        9
 70
     0
 43
0.0
 10
-93.2139787
 20
-143.84322358
 10
-93.14119444
 20
-143.91600784
 10
-93.06842858
 20
-143.9887737
 10
-92.99569159
 20
-144.06151093
 10
-92.92299371
 20
-144.13420857
 10
-92.85034566
 20
-144.20685662
 10
-92.7777578
 20
-144.2794446
 10
-92.70524048
 20
-144.35196203
 10
-92.63280408
 20
-144.42439821
  0
CIRCLE
  5
300
100
AcDbEntity
  8
MST_1_1
 62
   137
  6
CONTINUOUS
100
AcDbCircle
 10
-90.93574785
 20
-141.45454975
 30
0.0
 40
4.24799398
  0
LWPOLYLINE
  5
301
100
AcDbEntity
  8
MST_1_1
 62
   137
  6
CONTINUOUS
100
AcDbPolyline
 90
        9
 70
     0
 43
0.0
 10
-92.90774959
 20
-143.15384651
 10
-92.9553893
 20
-143.10620679
 10
-93.00301807
 20
-143.05857791
 10
-93.05063357
 20
-143.01096241
 10
-93.09823276
 20
-142.96336322
 10
-93.14581287
 20
-142.91578311
 10
-93.19337109
 20
-142.86822477
 10
-93.24090486
 20
-142.82069112
 10
-93.28841116
 20
-142.77318482
  0
ARC
  5
302
100
AcDbEntity
  8
MST_1_1
 62
   137
  6
CONTINUOUS
100
AcDbCircle
 10
-92.98635777
 20
-143.50515905
 30
0.0
 40
0.35999965
100
AcDbArc
 50
77.38749365
 51
127.33775307
  0
LWPOLYLINE
  5
303
100
AcDbEntity
  8
MST_1_1
 62
   137
  6
CONTINUOUS
100
AcDbPolyline
 90
        9
 70
     0
 43
0.0
 10
-92.70013078
 20
-143.72350393
 10
-92.76317922
 20
-143.66045549
 10
-92.82624734
 20
-143.59738725
 10
-92.8893285
 20
-143.53430598
 10
-92.95241629
 20
-143.47121819
 10
-93.01550408
 20
-143.4081304
 10
-93.07858535
 20
-143.34504924
 10
-93.14165358
 20
-143.28198112
 10
-93.20470203
 20
-143.21893268
  0
ARC
  5
304
100
AcDbEntity
  8
MST_1_1
 62
   137
  6
CONTINUOUS
100
AcDbCircle
 10
-92.98635787
 20
-143.50515951
 30
0.0
 40
0.36000032
100
AcDbArc
 50
322.66230677
 51
12.61245653
  0
LWPOLYLINE
  5
305
100
AcDbEntity
  8
MST_1_1
 62
   137
  6
CONTINUOUS
100
AcDbPolyline
 90
        9
 70
     0
 43
0.0
 10
-92.25438292
 20
-143.80721306
 10
-92.30188922
 20
-143.75970676
 10
-92.34942287
 20
-143.71217299
 10
-92.39698121
 20
-143.66461477
 10
-92.44456131
 20
-143.61703467
 10
-92.49216051
 20
-143.56943547
 10
-92.53977601
 20
-143.52181997
 10
-92.58740489
 20
-143.4741912
 10
-92.6350446
 20
-143.42655149
  0
ARC
  5
306
100
AcDbEntity
  8
MST_1_1
 62
   137
  6
CONTINUOUS
100
AcDbCircle
 10
-92.33299068
 20
-144.15852619
 30
0.0
 40
0.36000013
100
AcDbArc
 50
77.38757789
 51
192.61246315
  0
LWPOLYLINE
  5
307
100
AcDbEntity
  8
MST_1_1
 62
   137
  6
CONTINUOUS
100
AcDbPolyline
 90
        9
 70
     0
 43
0.0
 10
-93.06496546
 20
-143.85647234
 10
-93.01732318
 20
-143.90411485
 10
-92.96969186
 20
-143.95174595
 10
-92.92207496
 20
-143.99936284
 10
-92.87447507
 20
-144.04696274
 10
-92.82689508
 20
-144.09454284
 10
-92.7793379
 20
-144.1420999
 10
-92.73180646
 20
-144.18963134
 10
-92.68430377
 20
-144.23713415
  0
ARC
  5
308
100
AcDbEntity
  8
MST_1_1
 62
   137
  6
CONTINUOUS
100
AcDbCircle
 10
-92.98635767
 20
-143.5051584
 30
0.0
 40
0.36000093
100
AcDbArc
 50
257.38761324
 51
307.3376629
  0
LWPOLYLINE
  5
309
100
AcDbEntity
  8
MST_1_1
 62
   137
  6
CONTINUOUS
100
AcDbPolyline
 90
        9
 70
     0
 43
0.0
 10
-93.27258427
 20
-143.28681504
 10
-93.20953582
 20
-143.34986325
 10
-93.14646782
 20
-143.41293137
 10
-93.08338655
 20
-143.47601264
 10
-93.02029853
 20
-143.53910043
 10
-92.95721074
 20
-143.60218845
 10
-92.89412946
 20
-143.66526972
 10
-92.83106135
 20
-143.72833772
 10
-92.76801314
 20
-143.79138617
  0
ARC
  5
30A
100
AcDbEntity
  8
MST_1_1
 62
   137
  6
CONTINUOUS
100
AcDbCircle
 10
-92.98635751
 20
-143.50515935
 30
0.0
 40
0.36
100
AcDbArc
 50
142.66227791
 51
192.61247599
  0
LWPOLYLINE
  5
30B
100
AcDbEntity
  8
MST_1_1
 62
   137
  6
CONTINUOUS
100
AcDbPolyline
 90
        9
 70
     0
 43
0.0
 10
-93.71833225
 20
-143.20310567
 10
-93.67082944
 20
-143.25060836
 10
-93.623298
 20
-143.2981398
 10
-93.57574094
 20
-143.34569698
 10
-93.52816083
 20
-143.39327697
 10
-93.48056094
 20
-143.44087686
 10
-93.43294404
 20
-143.48849376
 10
-93.38531295
 20
-143.53612509
 10
-93.33767044
 20
-143.58376736
  0
ARC
  5
30C
100
AcDbEntity
  8
MST_1_1
 62
   137
  6
CONTINUOUS
100
AcDbCircle
 10
-93.63972419
 20
-142.85179269
 30
0.0
 40
0.36000006
100
AcDbArc
 50
257.38753734
 51
12.61244165
  0
LWPOLYLINE
  5
30D
100
AcDbEntity
  8
MST_1_1
 62
   137
  6
CONTINUOUS
100
AcDbPolyline
 90
        9
 70
     0
 43
0.0
 10
-93.09237172
 20
-143.26338063
 10
-93.04890503
 20
-143.30684732
 10
-93.00543206
 20
-143.35032029
 10
-92.96195466
 20
-143.39379769
 10
-92.91847517
 20
-143.43727707
 10
-92.87499579
 20
-143.48075656
 10
-92.83151839
 20
-143.52423396
 10
-92.78804542
 20
-143.56770693
 10
-92.74457873
 20
-143.61117362
  0
ARC
  5
30E
100
AcDbEntity
  8
MST_1_1
 62
   137
  6
CONTINUOUS
100
AcDbCircle
 10
-92.98635747
 20
-143.50515937
 30
0.0
 40
0.26399996
100
AcDbArc
 50
336.32369791
 51
113.67631211
  0
LWPOLYLINE
  5
30F
100
AcDbEntity
  8
MST_1_1
 62
   137
  6
CONTINUOUS
100
AcDbPolyline
 90
        9
 70
     0
 43
0.0
 10
-92.88034321
 20
-143.7469381
 10
-92.92380978
 20
-143.70347165
 10
-92.96728276
 20
-143.65999867
 10
-93.01076015
 20
-143.61652127
 10
-93.05423965
 20
-143.57304155
 10
-93.09771937
 20
-143.52956206
 10
-93.14119677
 20
-143.48608466
 10
-93.18466974
 20
-143.44261168
 10
-93.2281362
 20
-143.39914511
  0
ARC
  5
310
100
AcDbEntity
  8
MST_1_1
 62
   137
  6
CONTINUOUS
100
AcDbCircle
 10
-92.98635755
 20
-143.50515945
 30
0.0
 40
0.26399992
100
AcDbArc
 50
156.32366302
 51
293.676347
  0
CIRCLE
  5
311
100
AcDbEntity
  8
MST_1_1
 62
   137
  6
CONTINUOUS
100
AcDbCircle
 10
-90.93574785
 20
-171.45454975
 30
0.0
 40
2.32981333
  0
CIRCLE
  5
312
100
AcDbEntity
  8
MST_1_1
 62
   137
  6
CONTINUOUS
100
AcDbCircle
 10
-90.93574785
 20
-171.45454975
 30
0.0
 40
1.32203389
  0
CIRCLE
  5
313
100
AcDbEntity
  8
MST_1_1
 62
   137
  6
CONTINUOUS
100
AcDbCircle
 10
-90.93574785
 20
-171.45454975
 30
0.0
 40
2.32981333
  0
CIRCLE
  5
314
100
AcDbEntity
  8
MST_1_1
 62
   137
  6
CONTINUOUS
100
AcDbCircle
 10
-90.93574785
 20
-171.45454975
 30
0.0
 40
2.32981333
  0
CIRCLE
  5
315
100
AcDbEntity
  8
MST_1_1
 62
   137
  6
CONTINUOUS
100
AcDbCircle
 10
-90.93574785
 20
-171.45454975
 30
0.0
 40
4.85
  0
ARC
  5
316
100
AcDbEntity
  8
MST_1_1
 62
   137
  6
CONTINUOUS
100
AcDbCircle
 10
-92.8097478
 20
-171.45454975
 30
0.0
 40
0.37600003
100
AcDbArc
 50
106.48878485
 51
253.51122516
  0
ARC
  5
317
100
AcDbEntity
  8
MST_1_1
 62
   137
  6
CONTINUOUS
100
AcDbCircle
 10
-93.19601859
 20
-172.7595177
 30
0.0
 40
0.98493585
100
AcDbArc
 50
346.4887751
 51
73.5112424
  0
ARC
  5
318
100
AcDbEntity
  8
MST_1_1
 62
   137
  6
CONTINUOUS
100
AcDbCircle
 10
-91.87274778
 20
-173.0774813
 30
0.0
 40
0.37600004
100
AcDbArc
 50
166.48877314
 51
313.51122983
  0
ARC
  5
319
100
AcDbEntity
  8
MST_1_1
 62
   137
  6
CONTINUOUS
100
AcDbCircle
 10
-90.93574785
 20
-174.06448542
 30
0.0
 40
0.98493568
100
AcDbArc
 50
46.48875513
 51
133.51124487
  0
ARC
  5
31A
100
AcDbEntity
  8
MST_1_1
 62
   137
  6
CONTINUOUS
100
AcDbCircle
 10
-89.99874789
 20
-173.07748134
 30
0.0
 40
0.37600002
100
AcDbArc
 50
226.48878273
 51
13.51123435
  0
ARC
  5
31B
100
AcDbEntity
  8
MST_1_1
 62
   137
  6
CONTINUOUS
100
AcDbCircle
 10
-88.67547707
 20
-172.75951772
 30
0.0
 40
0.98493588
100
AcDbArc
 50
106.48875933
 51
193.51124321
  0
ARC
  5
31C
100
AcDbEntity
  8
MST_1_1
 62
   137
  6
CONTINUOUS
100
AcDbCircle
 10
-89.0617479
 20
-171.45454975
 30
0.0
 40
0.37600003
100
AcDbArc
 50
286.48879487
 51
73.51121515
  0
ARC
  5
31D
100
AcDbEntity
  8
MST_1_1
 62
   137
  6
CONTINUOUS
100
AcDbCircle
 10
-88.6754771
 20
-170.1495818
 30
0.0
 40
0.98493585
100
AcDbArc
 50
166.48876508
 51
253.51125242
  0
ARC
  5
31E
100
AcDbEntity
  8
MST_1_1
 62
   137
  6
CONTINUOUS
100
AcDbCircle
 10
-89.99874791
 20
-169.8316182
 30
0.0
 40
0.37600004
100
AcDbArc
 50
346.48878316
 51
133.51121981
  0
ARC
  5
31F
100
AcDbEntity
  8
MST_1_1
 62
   137
  6
CONTINUOUS
100
AcDbCircle
 10
-90.93574785
 20
-168.84461407
 30
0.0
 40
0.98493568
100
AcDbArc
 50
226.48876515
 51
313.51125489
  0
ARC
  5
320
100
AcDbEntity
  8
MST_1_1
 62
   137
  6
CONTINUOUS
100
AcDbCircle
 10
-91.87274781
 20
-169.83161815
 30
0.0
 40
0.37600002
100
AcDbArc
 50
46.48877271
 51
193.51124436
  0
ARC
  5
321
100
AcDbEntity
  8
MST_1_1
 62
   137
  6
CONTINUOUS
100
AcDbCircle
 10
-93.19601863
 20
-170.14958178
 30
0.0
 40
0.98493588
100
AcDbArc
 50
286.48876935
 51
13.51123319
  0
LWPOLYLINE
  5
322
100
AcDbEntity
  8
MST_1_1
 62
   137
  6
CONTINUOUS
100
AcDbPolyline
 90
        9
 70
     0
 43
0.0
 10
-92.63280408
 20
-174.42439821
 10
-92.62071888
 20
-174.4123129
 10
-92.60862426
 20
-174.40021828
 10
-92.59652045
 20
-174.38811458
 10
-92.58440743
 20
-174.37600156
 10
-92.57228534
 20
-174.36387947
 10
-92.56015416
 20
-174.35174829
 10
-92.54801391
 20
-174.33960804
 10
-92.53586457
 20
-174.3274587
  0
ARC
  5
323
100
AcDbEntity
  8
MST_1_1
 62
   137
  6
CONTINUOUS
100
AcDbCircle
 10
-92.33299086
 20
-174.15852609
 30
0.0
 40
0.26399994
100
AcDbArc
 50
50.21590624
 51
219.78410378
  0
LWPOLYLINE
  5
324
100
AcDbEntity
  8
MST_1_1
 62
   137
  6
CONTINUOUS
100
AcDbPolyline
 90
        9
 70
     0
 43
0.0
 10
-92.16405825
 20
-173.95565238
 10
-92.15196514
 20
-173.94355915
 10
-92.13986493
 20
-173.93145895
 10
-92.12775774
 20
-173.91935198
 10
-92.11564368
 20
-173.90723781
 10
-92.10352263
 20
-173.89511688
 10
-92.09139483
 20
-173.88298896
 10
-92.07926016
 20
-173.87085429
 10
-92.06711874
 20
-173.85871287
  0
LWPOLYLINE
  5
325
100
AcDbEntity
  8
MST_1_1
 62
   137
  6
CONTINUOUS
100
AcDbPolyline
 90
        9
 70
     0
 43
0.0
 10
-92.06711874
 20
-173.85871287
 10
-92.13956749
 20
-173.78626389
 10
-92.21209249
 20
-173.71373901
 10
-92.28468396
 20
-173.64114754
 10
-92.3573319
 20
-173.56849949
 10
-92.43002663
 20
-173.49580487
 10
-92.50275838
 20
-173.42307324
 10
-92.57551726
 20
-173.35031424
 10
-92.64829337
 20
-173.27753813
  0
LWPOLYLINE
  5
326
100
AcDbEntity
  8
MST_1_1
 62
   137
  6
CONTINUOUS
100
AcDbPolyline
 90
        9
 70
     0
 43
0.0
 10
-92.64829337
 20
-173.27753813
 10
-92.65258956
 20
-173.28183433
 10
-92.65688482
 20
-173.2861297
 10
-92.66117938
 20
-173.29042426
 10
-92.66547313
 20
-173.29471789
 10
-92.66976594
 20
-173.29901082
 10
-92.67405794
 20
-173.30330282
 10
-92.67834913
 20
-173.30759389
 10
-92.68263938
 20
-173.31188426
  0
LWPOLYLINE
  5
327
100
AcDbEntity
  8
MST_1_1
 62
   137
  6
CONTINUOUS
100
AcDbPolyline
 90
       25
 70
     0
 43
0.0
 10
-92.68263938
 20
-173.31188424
 10
-92.68622888
 20
-173.30635534
 10
-92.68991376
 20
-173.30089969
 10
-92.69369301
 20
-173.29551829
 10
-92.69756563
 20
-173.29021216
 10
-92.70153062
 20
-173.28498228
 10
-92.70558698
 20
-173.27982968
 10
-92.7097337
 20
-173.27475535
 10
-92.71396978
 20
-173.2697603
 10
-92.71829422
 20
-173.26484553
 10
-92.72270601
 20
-173.26001204
 10
-92.72720416
 20
-173.25526085
 10
-92.73178767
 20
-173.25059296
 10
-92.73645552
 20
-173.24600938
 10
-92.74120672
 20
-173.24151109
 10
-92.74604026
 20
-173.23709913
 10
-92.75095515
 20
-173.23277448
 10
-92.75595038
 20
-173.22853815
 10
-92.76102495
 20
-173.22439114
 10
-92.76617785
 20
-173.22033448
 10
-92.77140809
 20
-173.21636914
 10
-92.77671466
 20
-173.21249615
 10
-92.78209656
 20
-173.20871651
 10
-92.78755278
 20
-173.20503121
 10
-92.79308234
 20
-173.20144128
  0
LWPOLYLINE
  5
328
100
AcDbEntity
  8
MST_1_1
 62
   137
  6
CONTINUOUS
100
AcDbPolyline
 90
        9
 70
     0
 43
0.0
 10
-92.79308236
 20
-173.20144128
 10
-92.78879199
 20
-173.19715103
 10
-92.78450092
 20
-173.19285984
 10
-92.78020892
 20
-173.18856784
 10
-92.77591599
 20
-173.18427503
 10
-92.77162236
 20
-173.17998128
 10
-92.7673278
 20
-173.17568672
 10
-92.76303242
 20
-173.17139146
 10
-92.75873623
 20
-173.16709527
  0
LWPOLYLINE
  5
329
100
AcDbEntity
  8
MST_1_1
 62
   137
  6
CONTINUOUS
100
AcDbPolyline
 90
        9
 70
     0
 43
0.0
 10
-92.75873623
 20
-173.16709527
 10
-92.83151234
 20
-173.09431916
 10
-92.90427133
 20
-173.02156028
 10
-92.97700297
 20
-172.94882853
 10
-93.04969759
 20
-172.8761338
 10
-93.12234564
 20
-172.80348586
 10
-93.19493711
 20
-172.73089439
 10
-93.26746199
 20
-172.65836939
 10
-93.33991097
 20
-172.58592064
  0
LWPOLYLINE
  5
32A
100
AcDbEntity
  8
MST_1_1
 62
   137
  6
CONTINUOUS
100
AcDbPolyline
 90
        9
 70
     0
 43
0.0
 10
-93.33991097
 20
-172.58592064
 10
-93.35205239
 20
-172.59806206
 10
-93.36418706
 20
-172.61019673
 10
-93.37631498
 20
-172.62232453
 10
-93.38843591
 20
-172.63444558
 10
-93.40055008
 20
-172.64655964
 10
-93.41265705
 20
-172.65866683
 10
-93.42475725
 20
-172.67076704
 10
-93.43685048
 20
-172.68286015
  0
ARC
  5
32B
100
AcDbEntity
  8
MST_1_1
 62
   137
  6
CONTINUOUS
100
AcDbCircle
 10
-93.63972407
 20
-172.85179288
 30
0.0
 40
0.26399993
100
AcDbArc
 50
230.21587884
 51
39.78413117
  0
LWPOLYLINE
  5
32C
100
AcDbEntity
  8
MST_1_1
 62
   137
  6
CONTINUOUS
100
AcDbPolyline
 90
        9
 70
     0
 43
0.0
 10
-93.8086568
 20
-173.05466647
 10
-93.82080614
 20
-173.06681581
 10
-93.83294639
 20
-173.07895606
 10
-93.84507757
 20
-173.09108724
 10
-93.85719966
 20
-173.10320933
 10
-93.86931268
 20
-173.11532235
 10
-93.88141638
 20
-173.12742616
 10
-93.893511
 20
-173.13952079
 10
-93.9055963
 20
-173.15160598
  0
LWPOLYLINE
  5
32D
100
AcDbEntity
  8
MST_1_1
 62
   137
  6
CONTINUOUS
100
AcDbPolyline
 90
        9
 70
     0
 43
0.0
 10
-93.9055963
 20
-173.15160598
 10
-93.83316013
 20
-173.22404238
 10
-93.7606427
 20
-173.2965597
 10
-93.68805472
 20
-173.36914756
 10
-93.61540667
 20
-173.44179561
 10
-93.54270902
 20
-173.51449349
 10
-93.4699718
 20
-173.58723048
 10
-93.39720594
 20
-173.65999634
 10
-93.32442168
 20
-173.7327806
  0
LWPOLYLINE
  5
32E
100
AcDbEntity
  8
MST_1_1
 62
   137
  6
CONTINUOUS
100
AcDbPolyline
 90
        9
 70
     0
 43
0.0
 10
-93.32442168
 20
-173.7327806
 10
-93.32013248
 20
-173.72849139
 10
-93.31584211
 20
-173.72420102
 10
-93.31155057
 20
-173.71990949
 10
-93.30725787
 20
-173.71561679
 10
-93.30296401
 20
-173.71132293
 10
-93.29866898
 20
-173.70702813
 10
-93.29437302
 20
-173.70273194
 10
-93.29007567
 20
-173.69843459
  0
LWPOLYLINE
  5
32F
100
AcDbEntity
  8
MST_1_1
 62
   137
  6
CONTINUOUS
100
AcDbPolyline
 90
       25
 70
     0
 43
0.0
 10
-93.29007565
 20
-173.69843459
 10
-93.28648646
 20
-173.70396297
 10
-93.2828018
 20
-173.70941822
 10
-93.27902267
 20
-173.71479933
 10
-93.2751501
 20
-173.72010527
 10
-93.27118509
 20
-173.72533503
 10
-93.26712866
 20
-173.7304876
 10
-93.26298181
 20
-173.73556197
 10
-93.25874556
 20
-173.74055711
 10
-93.25442093
 20
-173.74547202
 10
-93.25000891
 20
-173.75030568
 10
-93.24551053
 20
-173.75505708
 10
-93.24092679
 20
-173.75972519
 10
-93.23625872
 20
-173.76430902
 10
-93.23150731
 20
-173.76880753
 10
-93.22667359
 20
-173.77321973
 10
-93.22175855
 20
-173.77754458
 10
-93.21676323
 20
-173.78178109
 10
-93.21168862
 20
-173.78592822
 10
-93.20653574
 20
-173.78998498
 10
-93.2013056
 20
-173.79395034
 10
-93.19599921
 20
-173.7978233
 10
-93.19061759
 20
-173.80160282
 10
-93.18516175
 20
-173.80528791
 10
-93.17963269
 20
-173.80887755
  0
LWPOLYLINE
  5
330
100
AcDbEntity
  8
MST_1_1
 62
   137
  6
CONTINUOUS
100
AcDbPolyline
 90
        9
 70
     0
 43
0.0
 10
-93.17963269
 20
-173.80887757
 10
-93.18393004
 20
-173.81317493
 10
-93.18822623
 20
-173.81747088
 10
-93.19252103
 20
-173.82176591
 10
-93.19681489
 20
-173.82605977
 10
-93.20110759
 20
-173.83035247
 10
-93.20539912
 20
-173.83464401
 10
-93.20968949
 20
-173.83893438
 10
-93.2139787
 20
-173.84322358
  0
LWPOLYLINE
  5
331
100
AcDbEntity
  8
MST_1_1
 62
   137
  6
CONTINUOUS
100
AcDbPolyline
 90
        9
 70
     0
 43
0.0
 10
-93.2139787
 20
-173.84322358
 10
-93.14119444
 20
-173.91600784
 10
-93.06842858
 20
-173.9887737
 10
-92.99569159
 20
-174.06151093
 10
-92.92299371
 20
-174.13420857
 10
-92.85034566
 20
-174.20685662
 10
-92.7777578
 20
-174.2794446
 10
-92.70524048
 20
-174.35196203
 10
-92.63280408
 20
-174.42439821
  0
CIRCLE
  5
332
100
AcDbEntity
  8
MST_1_1
 62
   137
  6
CONTINUOUS
100
AcDbCircle
 10
-90.93574785
 20
-171.45454975
 30
0.0
 40
4.24799398
  0
LWPOLYLINE
  5
333
100
AcDbEntity
  8
MST_1_1
 62
   137
  6
CONTINUOUS
100
AcDbPolyline
 90
        9
 70
     0
 43
0.0
 10
-92.90774959
 20
-173.15384651
 10
-92.9553893
 20
-173.10620679
 10
-93.00301807
 20
-173.05857791
 10
-93.05063357
 20
-173.01096241
 10
-93.09823276
 20
-172.96336322
 10
-93.14581287
 20
-172.91578311
 10
-93.19337109
 20
-172.86822477
 10
-93.24090486
 20
-172.82069112
 10
-93.28841116
 20
-172.77318482
  0
ARC
  5
334
100
AcDbEntity
  8
MST_1_1
 62
   137
  6
CONTINUOUS
100
AcDbCircle
 10
-92.98635777
 20
-173.50515905
 30
0.0
 40
0.35999965
100
AcDbArc
 50
77.38749365
 51
127.33775307
  0
LWPOLYLINE
  5
335
100
AcDbEntity
  8
MST_1_1
 62
   137
  6
CONTINUOUS
100
AcDbPolyline
 90
        9
 70
     0
 43
0.0
 10
-92.70013078
 20
-173.72350393
 10
-92.76317922
 20
-173.66045549
 10
-92.82624734
 20
-173.59738725
 10
-92.8893285
 20
-173.53430598
 10
-92.95241629
 20
-173.47121819
 10
-93.01550408
 20
-173.4081304
 10
-93.07858535
 20
-173.34504924
 10
-93.14165358
 20
-173.28198112
 10
-93.20470203
 20
-173.21893268
  0
ARC
  5
336
100
AcDbEntity
  8
MST_1_1
 62
   137
  6
CONTINUOUS
100
AcDbCircle
 10
-92.98635787
 20
-173.50515951
 30
0.0
 40
0.36000032
100
AcDbArc
 50
322.66230677
 51
12.61245653
  0
LWPOLYLINE
  5
337
100
AcDbEntity
  8
MST_1_1
 62
   137
  6
CONTINUOUS
100
AcDbPolyline
 90
        9
 70
     0
 43
0.0
 10
-92.25438292
 20
-173.80721306
 10
-92.30188922
 20
-173.75970676
 10
-92.34942287
 20
-173.71217299
 10
-92.39698121
 20
-173.66461477
 10
-92.44456131
 20
-173.61703467
 10
-92.49216051
 20
-173.56943547
 10
-92.53977601
 20
-173.52181997
 10
-92.58740489
 20
-173.4741912
 10
-92.6350446
 20
-173.42655149
  0
ARC
  5
338
100
AcDbEntity
  8
MST_1_1
 62
   137
  6
CONTINUOUS
100
AcDbCircle
 10
-92.33299068
 20
-174.15852619
 30
0.0
 40
0.36000013
100
AcDbArc
 50
77.38757789
 51
192.61246315
  0
LWPOLYLINE
  5
339
100
AcDbEntity
  8
MST_1_1
 62
   137
  6
CONTINUOUS
100
AcDbPolyline
 90
        9
 70
     0
 43
0.0
 10
-93.06496546
 20
-173.85647234
 10
-93.01732318
 20
-173.90411485
 10
-92.96969186
 20
-173.95174595
 10
-92.92207496
 20
-173.99936284
 10
-92.87447507
 20
-174.04696274
 10
-92.82689508
 20
-174.09454284
 10
-92.7793379
 20
-174.1420999
 10
-92.73180646
 20
-174.18963134
 10
-92.68430377
 20
-174.23713415
  0
ARC
  5
33A
100
AcDbEntity
  8
MST_1_1
 62
   137
  6
CONTINUOUS
100
AcDbCircle
 10
-92.98635767
 20
-173.5051584
 30
0.0
 40
0.36000093
100
AcDbArc
 50
257.38761324
 51
307.3376629
  0
LWPOLYLINE
  5
33B
100
AcDbEntity
  8
MST_1_1
 62
   137
  6
CONTINUOUS
100
AcDbPolyline
 90
        9
 70
     0
 43
0.0
 10
-93.27258427
 20
-173.28681504
 10
-93.20953582
 20
-173.34986325
 10
-93.14646782
 20
-173.41293137
 10
-93.08338655
 20
-173.47601264
 10
-93.02029853
 20
-173.53910043
 10
-92.95721074
 20
-173.60218845
 10
-92.89412946
 20
-173.66526972
 10
-92.83106135
 20
-173.72833772
 10
-92.76801314
 20
-173.79138617
  0
ARC
  5
33C
100
AcDbEntity
  8
MST_1_1
 62
   137
  6
CONTINUOUS
100
AcDbCircle
 10
-92.98635751
 20
-173.50515935
 30
0.0
 40
0.36
100
AcDbArc
 50
142.66227791
 51
192.61247599
  0
LWPOLYLINE
  5
33D
100
AcDbEntity
  8
MST_1_1
 62
   137
  6
CONTINUOUS
100
AcDbPolyline
 90
        9
 70
     0
 43
0.0
 10
-93.71833225
 20
-173.20310567
 10
-93.67082944
 20
-173.25060836
 10
-93.623298
 20
-173.2981398
 10
-93.57574094
 20
-173.34569698
 10
-93.52816083
 20
-173.39327697
 10
-93.48056094
 20
-173.44087686
 10
-93.43294404
 20
-173.48849376
 10
-93.38531295
 20
-173.53612509
 10
-93.33767044
 20
-173.58376736
  0
ARC
  5
33E
100
AcDbEntity
  8
MST_1_1
 62
   137
  6
CONTINUOUS
100
AcDbCircle
 10
-93.63972419
 20
-172.85179269
 30
0.0
 40
0.36000006
100
AcDbArc
 50
257.38753734
 51
12.61244165
  0
LWPOLYLINE
  5
33F
100
AcDbEntity
  8
MST_1_1
 62
   137
  6
CONTINUOUS
100
AcDbPolyline
 90
        9
 70
     0
 43
0.0
 10
-93.09237172
 20
-173.26338063
 10
-93.04890503
 20
-173.30684732
 10
-93.00543206
 20
-173.35032029
 10
-92.96195466
 20
-173.39379769
 10
-92.91847517
 20
-173.43727707
 10
-92.87499579
 20
-173.48075656
 10
-92.83151839
 20
-173.52423396
 10
-92.78804542
 20
-173.56770693
 10
-92.74457873
 20
-173.61117362
  0
ARC
  5
340
100
AcDbEntity
  8
MST_1_1
 62
   137
  6
CONTINUOUS
100
AcDbCircle
 10
-92.98635747
 20
-173.50515937
 30
0.0
 40
0.26399996
100
AcDbArc
 50
336.32369791
 51
113.67631211
  0
LWPOLYLINE
  5
341
100
AcDbEntity
  8
MST_1_1
 62
   137
  6
CONTINUOUS
100
AcDbPolyline
 90
        9
 70
     0
 43
0.0
 10
-92.88034321
 20
-173.7469381
 10
-92.92380978
 20
-173.70347165
 10
-92.96728276
 20
-173.65999867
 10
-93.01076015
 20
-173.61652127
 10
-93.05423965
 20
-173.57304155
 10
-93.09771937
 20
-173.52956206
 10
-93.14119677
 20
-173.48608466
 10
-93.18466974
 20
-173.44261168
 10
-93.2281362
 20
-173.39914511
  0
ARC
  5
342
100
AcDbEntity
  8
MST_1_1
 62
   137
  6
CONTINUOUS
100
AcDbCircle
 10
-92.98635755
 20
-173.50515945
 30
0.0
 40
0.26399992
100
AcDbArc
 50
156.32366302
 51
293.676347
  0
CIRCLE
  5
343
100
AcDbEntity
  8
MST_1_1
 62
   137
  6
CONTINUOUS
100
AcDbCircle
 10
-90.93574785
 20
-201.45454975
 30
0.0
 40
2.32981333
  0
CIRCLE
  5
344
100
AcDbEntity
  8
MST_1_1
 62
   137
  6
CONTINUOUS
100
AcDbCircle
 10
-90.93574785
 20
-201.45454975
 30
0.0
 40
1.32203389
  0
CIRCLE
  5
345
100
AcDbEntity
  8
MST_1_1
 62
   137
  6
CONTINUOUS
100
AcDbCircle
 10
-90.93574785
 20
-201.45454975
 30
0.0
 40
2.32981333
  0
CIRCLE
  5
346
100
AcDbEntity
  8
MST_1_1
 62
   137
  6
CONTINUOUS
100
AcDbCircle
 10
-90.93574785
 20
-201.45454975
 30
0.0
 40
2.32981333
  0
CIRCLE
  5
347
100
AcDbEntity
  8
MST_1_1
 62
   137
  6
CONTINUOUS
100
AcDbCircle
 10
-90.93574785
 20
-201.45454975
 30
0.0
 40
4.85
  0
ARC
  5
348
100
AcDbEntity
  8
MST_1_1
 62
   137
  6
CONTINUOUS
100
AcDbCircle
 10
-92.8097478
 20
-201.45454975
 30
0.0
 40
0.37600003
100
AcDbArc
 50
106.48878485
 51
253.51122516
  0
ARC
  5
349
100
AcDbEntity
  8
MST_1_1
 62
   137
  6
CONTINUOUS
100
AcDbCircle
 10
-93.19601859
 20
-202.7595177
 30
0.0
 40
0.98493585
100
AcDbArc
 50
346.4887751
 51
73.5112424
  0
ARC
  5
34A
100
AcDbEntity
  8
MST_1_1
 62
   137
  6
CONTINUOUS
100
AcDbCircle
 10
-91.87274778
 20
-203.0774813
 30
0.0
 40
0.37600004
100
AcDbArc
 50
166.48877314
 51
313.51122983
  0
ARC
  5
34B
100
AcDbEntity
  8
MST_1_1
 62
   137
  6
CONTINUOUS
100
AcDbCircle
 10
-90.93574785
 20
-204.06448542
 30
0.0
 40
0.98493568
100
AcDbArc
 50
46.48875513
 51
133.51124487
  0
ARC
  5
34C
100
AcDbEntity
  8
MST_1_1
 62
   137
  6
CONTINUOUS
100
AcDbCircle
 10
-89.99874789
 20
-203.07748134
 30
0.0
 40
0.37600002
100
AcDbArc
 50
226.48878273
 51
13.51123435
  0
ARC
  5
34D
100
AcDbEntity
  8
MST_1_1
 62
   137
  6
CONTINUOUS
100
AcDbCircle
 10
-88.67547707
 20
-202.75951772
 30
0.0
 40
0.98493588
100
AcDbArc
 50
106.48875933
 51
193.51124321
  0
ARC
  5
34E
100
AcDbEntity
  8
MST_1_1
 62
   137
  6
CONTINUOUS
100
AcDbCircle
 10
-89.0617479
 20
-201.45454975
 30
0.0
 40
0.37600003
100
AcDbArc
 50
286.48879487
 51
73.51121515
  0
ARC
  5
34F
100
AcDbEntity
  8
MST_1_1
 62
   137
  6
CONTINUOUS
100
AcDbCircle
 10
-88.6754771
 20
-200.1495818
 30
0.0
 40
0.98493585
100
AcDbArc
 50
166.48876508
 51
253.51125242
  0
ARC
  5
350
100
AcDbEntity
  8
MST_1_1
 62
   137
  6
CONTINUOUS
100
AcDbCircle
 10
-89.99874791
 20
-199.8316182
 30
0.0
 40
0.37600004
100
AcDbArc
 50
346.48878316
 51
133.51121981
  0
ARC
  5
351
100
AcDbEntity
  8
MST_1_1
 62
   137
  6
CONTINUOUS
100
AcDbCircle
 10
-90.93574785
 20
-198.84461407
 30
0.0
 40
0.98493568
100
AcDbArc
 50
226.48876515
 51
313.51125489
  0
ARC
  5
352
100
AcDbEntity
  8
MST_1_1
 62
   137
  6
CONTINUOUS
100
AcDbCircle
 10
-91.87274781
 20
-199.83161815
 30
0.0
 40
0.37600002
100
AcDbArc
 50
46.48877271
 51
193.51124436
  0
ARC
  5
353
100
AcDbEntity
  8
MST_1_1
 62
   137
  6
CONTINUOUS
100
AcDbCircle
 10
-93.19601863
 20
-200.14958178
 30
0.0
 40
0.98493588
100
AcDbArc
 50
286.48876935
 51
13.51123319
  0
LWPOLYLINE
  5
354
100
AcDbEntity
  8
MST_1_1
 62
   137
  6
CONTINUOUS
100
AcDbPolyline
 90
        9
 70
     0
 43
0.0
 10
-92.63280408
 20
-204.42439821
 10
-92.62071888
 20
-204.4123129
 10
-92.60862426
 20
-204.40021828
 10
-92.59652045
 20
-204.38811458
 10
-92.58440743
 20
-204.37600156
 10
-92.57228534
 20
-204.36387947
 10
-92.56015416
 20
-204.35174829
 10
-92.54801391
 20
-204.33960804
 10
-92.53586457
 20
-204.3274587
  0
ARC
  5
355
100
AcDbEntity
  8
MST_1_1
 62
   137
  6
CONTINUOUS
100
AcDbCircle
 10
-92.33299086
 20
-204.15852609
 30
0.0
 40
0.26399994
100
AcDbArc
 50
50.21590624
 51
219.78410378
  0
LWPOLYLINE
  5
356
100
AcDbEntity
  8
MST_1_1
 62
   137
  6
CONTINUOUS
100
AcDbPolyline
 90
        9
 70
     0
 43
0.0
 10
-92.16405825
 20
-203.95565238
 10
-92.15196514
 20
-203.94355915
 10
-92.13986493
 20
-203.93145895
 10
-92.12775774
 20
-203.91935198
 10
-92.11564368
 20
-203.90723781
 10
-92.10352263
 20
-203.89511688
 10
-92.09139483
 20
-203.88298896
 10
-92.07926016
 20
-203.87085429
 10
-92.06711874
 20
-203.85871287
  0
LWPOLYLINE
  5
357
100
AcDbEntity
  8
MST_1_1
 62
   137
  6
CONTINUOUS
100
AcDbPolyline
 90
        9
 70
     0
 43
0.0
 10
-92.06711874
 20
-203.85871287
 10
-92.13956749
 20
-203.78626389
 10
-92.21209249
 20
-203.71373901
 10
-92.28468396
 20
-203.64114754
 10
-92.3573319
 20
-203.56849949
 10
-92.43002663
 20
-203.49580487
 10
-92.50275838
 20
-203.42307324
 10
-92.57551726
 20
-203.35031424
 10
-92.64829337
 20
-203.27753813
  0
LWPOLYLINE
  5
358
100
AcDbEntity
  8
MST_1_1
 62
   137
  6
CONTINUOUS
100
AcDbPolyline
 90
        9
 70
     0
 43
0.0
 10
-92.64829337
 20
-203.27753813
 10
-92.65258956
 20
-203.28183433
 10
-92.65688482
 20
-203.2861297
 10
-92.66117938
 20
-203.29042426
 10
-92.66547313
 20
-203.29471789
 10
-92.66976594
 20
-203.29901082
 10
-92.67405794
 20
-203.30330282
 10
-92.67834913
 20
-203.30759389
 10
-92.68263938
 20
-203.31188426
  0
LWPOLYLINE
  5
359
100
AcDbEntity
  8
MST_1_1
 62
   137
  6
CONTINUOUS
100
AcDbPolyline
 90
       25
 70
     0
 43
0.0
 10
-92.68263938
 20
-203.31188424
 10
-92.68622888
 20
-203.30635534
 10
-92.68991376
 20
-203.30089969
 10
-92.69369301
 20
-203.29551829
 10
-92.69756563
 20
-203.29021216
 10
-92.70153062
 20
-203.28498228
 10
-92.70558698
 20
-203.27982968
 10
-92.7097337
 20
-203.27475535
 10
-92.71396978
 20
-203.2697603
 10
-92.71829422
 20
-203.26484553
 10
-92.72270601
 20
-203.26001204
 10
-92.72720416
 20
-203.25526085
 10
-92.73178767
 20
-203.25059296
 10
-92.73645552
 20
-203.24600938
 10
-92.74120672
 20
-203.24151109
 10
-92.74604026
 20
-203.23709913
 10
-92.75095515
 20
-203.23277448
 10
-92.75595038
 20
-203.22853815
 10
-92.76102495
 20
-203.22439114
 10
-92.76617785
 20
-203.22033448
 10
-92.77140809
 20
-203.21636914
 10
-92.77671466
 20
-203.21249615
 10
-92.78209656
 20
-203.20871651
 10
-92.78755278
 20
-203.20503121
 10
-92.79308234
 20
-203.20144128
  0
LWPOLYLINE
  5
35A
100
AcDbEntity
  8
MST_1_1
 62
   137
  6
CONTINUOUS
100
AcDbPolyline
 90
        9
 70
     0
 43
0.0
 10
-92.79308236
 20
-203.20144128
 10
-92.78879199
 20
-203.19715103
 10
-92.78450092
 20
-203.19285984
 10
-92.78020892
 20
-203.18856784
 10
-92.77591599
 20
-203.18427503
 10
-92.77162236
 20
-203.17998128
 10
-92.7673278
 20
-203.17568672
 10
-92.76303242
 20
-203.17139146
 10
-92.75873623
 20
-203.16709527
  0
LWPOLYLINE
  5
35B
100
AcDbEntity
  8
MST_1_1
 62
   137
  6
CONTINUOUS
100
AcDbPolyline
 90
        9
 70
     0
 43
0.0
 10
-92.75873623
 20
-203.16709527
 10
-92.83151234
 20
-203.09431916
 10
-92.90427133
 20
-203.02156028
 10
-92.97700297
 20
-202.94882853
 10
-93.04969759
 20
-202.8761338
 10
-93.12234564
 20
-202.80348586
 10
-93.19493711
 20
-202.73089439
 10
-93.26746199
 20
-202.65836939
 10
-93.33991097
 20
-202.58592064
  0
LWPOLYLINE
  5
35C
100
AcDbEntity
  8
MST_1_1
 62
   137
  6
CONTINUOUS
100
AcDbPolyline
 90
        9
 70
     0
 43
0.0
 10
-93.33991097
 20
-202.58592064
 10
-93.35205239
 20
-202.59806206
 10
-93.36418706
 20
-202.61019673
 10
-93.37631498
 20
-202.62232453
 10
-93.38843591
 20
-202.63444558
 10
-93.40055008
 20
-202.64655964
 10
-93.41265705
 20
-202.65866683
 10
-93.42475725
 20
-202.67076704
 10
-93.43685048
 20
-202.68286015
  0
ARC
  5
35D
100
AcDbEntity
  8
MST_1_1
 62
   137
  6
CONTINUOUS
100
AcDbCircle
 10
-93.63972407
 20
-202.85179288
 30
0.0
 40
0.26399993
100
AcDbArc
 50
230.21587884
 51
39.78413117
  0
LWPOLYLINE
  5
35E
100
AcDbEntity
  8
MST_1_1
 62
   137
  6
CONTINUOUS
100
AcDbPolyline
 90
        9
 70
     0
 43
0.0
 10
-93.8086568
 20
-203.05466647
 10
-93.82080614
 20
-203.06681581
 10
-93.83294639
 20
-203.07895606
 10
-93.84507757
 20
-203.09108724
 10
-93.85719966
 20
-203.10320933
 10
-93.86931268
 20
-203.11532235
 10
-93.88141638
 20
-203.12742616
 10
-93.893511
 20
-203.13952079
 10
-93.9055963
 20
-203.15160598
  0
LWPOLYLINE
  5
35F
100
AcDbEntity
  8
MST_1_1
 62
   137
  6
CONTINUOUS
100
AcDbPolyline
 90
        9
 70
     0
 43
0.0
 10
-93.9055963
 20
-203.15160598
 10
-93.83316013
 20
-203.22404238
 10
-93.7606427
 20
-203.2965597
 10
-93.68805472
 20
-203.36914756
 10
-93.61540667
 20
-203.44179561
 10
-93.54270902
 20
-203.51449349
 10
-93.4699718
 20
-203.58723048
 10
-93.39720594
 20
-203.65999634
 10
-93.32442168
 20
-203.7327806
  0
LWPOLYLINE
  5
360
100
AcDbEntity
  8
MST_1_1
 62
   137
  6
CONTINUOUS
100
AcDbPolyline
 90
        9
 70
     0
 43
0.0
 10
-93.32442168
 20
-203.7327806
 10
-93.32013248
 20
-203.72849139
 10
-93.31584211
 20
-203.72420102
 10
-93.31155057
 20
-203.71990949
 10
-93.30725787
 20
-203.71561679
 10
-93.30296401
 20
-203.71132293
 10
-93.29866898
 20
-203.70702813
 10
-93.29437302
 20
-203.70273194
 10
-93.29007567
 20
-203.69843459
  0
LWPOLYLINE
  5
361
100
AcDbEntity
  8
MST_1_1
 62
   137
  6
CONTINUOUS
100
AcDbPolyline
 90
       25
 70
     0
 43
0.0
 10
-93.29007565
 20
-203.69843459
 10
-93.28648646
 20
-203.70396297
 10
-93.2828018
 20
-203.70941822
 10
-93.27902267
 20
-203.71479933
 10
-93.2751501
 20
-203.72010527
 10
-93.27118509
 20
-203.72533503
 10
-93.26712866
 20
-203.7304876
 10
-93.26298181
 20
-203.73556197
 10
-93.25874556
 20
-203.74055711
 10
-93.25442093
 20
-203.74547202
 10
-93.25000891
 20
-203.75030568
 10
-93.24551053
 20
-203.75505708
 10
-93.24092679
 20
-203.75972519
 10
-93.23625872
 20
-203.76430902
 10
-93.23150731
 20
-203.76880753
 10
-93.22667359
 20
-203.77321973
 10
-93.22175855
 20
-203.77754458
 10
-93.21676323
 20
-203.78178109
 10
-93.21168862
 20
-203.78592822
 10
-93.20653574
 20
-203.78998498
 10
-93.2013056
 20
-203.79395034
 10
-93.19599921
 20
-203.7978233
 10
-93.19061759
 20
-203.80160282
 10
-93.18516175
 20
-203.80528791
 10
-93.17963269
 20
-203.80887755
  0
LWPOLYLINE
  5
362
100
AcDbEntity
  8
MST_1_1
 62
   137
  6
CONTINUOUS
100
AcDbPolyline
 90
        9
 70
     0
 43
0.0
 10
-93.17963269
 20
-203.80887757
 10
-93.18393004
 20
-203.81317493
 10
-93.18822623
 20
-203.81747088
 10
-93.19252103
 20
-203.82176591
 10
-93.19681489
 20
-203.82605977
 10
-93.20110759
 20
-203.83035247
 10
-93.20539912
 20
-203.83464401
 10
-93.20968949
 20
-203.83893438
 10
-93.2139787
 20
-203.84322358
  0
LWPOLYLINE
  5
363
100
AcDbEntity
  8
MST_1_1
 62
   137
  6
CONTINUOUS
100
AcDbPolyline
 90
        9
 70
     0
 43
0.0
 10
-93.2139787
 20
-203.84322358
 10
-93.14119444
 20
-203.91600784
 10
-93.06842858
 20
-203.9887737
 10
-92.99569159
 20
-204.06151093
 10
-92.92299371
 20
-204.13420857
 10
-92.85034566
 20
-204.20685662
 10
-92.7777578
 20
-204.2794446
 10
-92.70524048
 20
-204.35196203
 10
-92.63280408
 20
-204.42439821
  0
CIRCLE
  5
364
100
AcDbEntity
  8
MST_1_1
 62
   137
  6
CONTINUOUS
100
AcDbCircle
 10
-90.93574785
 20
-201.45454975
 30
0.0
 40
4.24799398
  0
LWPOLYLINE
  5
365
100
AcDbEntity
  8
MST_1_1
 62
   137
  6
CONTINUOUS
100
AcDbPolyline
 90
        9
 70
     0
 43
0.0
 10
-92.90774959
 20
-203.15384651
 10
-92.9553893
 20
-203.10620679
 10
-93.00301807
 20
-203.05857791
 10
-93.05063357
 20
-203.01096241
 10
-93.09823276
 20
-202.96336322
 10
-93.14581287
 20
-202.91578311
 10
-93.19337109
 20
-202.86822477
 10
-93.24090486
 20
-202.82069112
 10
-93.28841116
 20
-202.77318482
  0
ARC
  5
366
100
AcDbEntity
  8
MST_1_1
 62
   137
  6
CONTINUOUS
100
AcDbCircle
 10
-92.98635777
 20
-203.50515905
 30
0.0
 40
0.35999965
100
AcDbArc
 50
77.38749365
 51
127.33775307
  0
LWPOLYLINE
  5
367
100
AcDbEntity
  8
MST_1_1
 62
   137
  6
CONTINUOUS
100
AcDbPolyline
 90
        9
 70
     0
 43
0.0
 10
-92.70013078
 20
-203.72350393
 10
-92.76317922
 20
-203.66045549
 10
-92.82624734
 20
-203.59738725
 10
-92.8893285
 20
-203.53430598
 10
-92.95241629
 20
-203.47121819
 10
-93.01550408
 20
-203.4081304
 10
-93.07858535
 20
-203.34504924
 10
-93.14165358
 20
-203.28198112
 10
-93.20470203
 20
-203.21893268
  0
ARC
  5
368
100
AcDbEntity
  8
MST_1_1
 62
   137
  6
CONTINUOUS
100
AcDbCircle
 10
-92.98635787
 20
-203.50515951
 30
0.0
 40
0.36000032
100
AcDbArc
 50
322.66230677
 51
12.61245653
  0
LWPOLYLINE
  5
369
100
AcDbEntity
  8
MST_1_1
 62
   137
  6
CONTINUOUS
100
AcDbPolyline
 90
        9
 70
     0
 43
0.0
 10
-92.25438292
 20
-203.80721306
 10
-92.30188922
 20
-203.75970676
 10
-92.34942287
 20
-203.71217299
 10
-92.39698121
 20
-203.66461477
 10
-92.44456131
 20
-203.61703467
 10
-92.49216051
 20
-203.56943547
 10
-92.53977601
 20
-203.52181997
 10
-92.58740489
 20
-203.4741912
 10
-92.6350446
 20
-203.42655149
  0
ARC
  5
36A
100
AcDbEntity
  8
MST_1_1
 62
   137
  6
CONTINUOUS
100
AcDbCircle
 10
-92.33299068
 20
-204.15852619
 30
0.0
 40
0.36000013
100
AcDbArc
 50
77.38757789
 51
192.61246315
  0
LWPOLYLINE
  5
36B
100
AcDbEntity
  8
MST_1_1
 62
   137
  6
CONTINUOUS
100
AcDbPolyline
 90
        9
 70
     0
 43
0.0
 10
-93.06496546
 20
-203.85647234
 10
-93.01732318
 20
-203.90411485
 10
-92.96969186
 20
-203.95174595
 10
-92.92207496
 20
-203.99936284
 10
-92.87447507
 20
-204.04696274
 10
-92.82689508
 20
-204.09454284
 10
-92.7793379
 20
-204.1420999
 10
-92.73180646
 20
-204.18963134
 10
-92.68430377
 20
-204.23713415
  0
ARC
  5
36C
100
AcDbEntity
  8
MST_1_1
 62
   137
  6
CONTINUOUS
100
AcDbCircle
 10
-92.98635767
 20
-203.5051584
 30
0.0
 40
0.36000093
100
AcDbArc
 50
257.38761324
 51
307.3376629
  0
LWPOLYLINE
  5
36D
100
AcDbEntity
  8
MST_1_1
 62
   137
  6
CONTINUOUS
100
AcDbPolyline
 90
        9
 70
     0
 43
0.0
 10
-93.27258427
 20
-203.28681504
 10
-93.20953582
 20
-203.34986325
 10
-93.14646782
 20
-203.41293137
 10
-93.08338655
 20
-203.47601264
 10
-93.02029853
 20
-203.53910043
 10
-92.95721074
 20
-203.60218845
 10
-92.89412946
 20
-203.66526972
 10
-92.83106135
 20
-203.72833772
 10
-92.76801314
 20
-203.79138617
  0
ARC
  5
36E
100
AcDbEntity
  8
MST_1_1
 62
   137
  6
CONTINUOUS
100
AcDbCircle
 10
-92.98635751
 20
-203.50515935
 30
0.0
 40
0.36
100
AcDbArc
 50
142.66227791
 51
192.61247599
  0
LWPOLYLINE
  5
36F
100
AcDbEntity
  8
MST_1_1
 62
   137
  6
CONTINUOUS
100
AcDbPolyline
 90
        9
 70
     0
 43
0.0
 10
-93.71833225
 20
-203.20310567
 10
-93.67082944
 20
-203.25060836
 10
-93.623298
 20
-203.2981398
 10
-93.57574094
 20
-203.34569698
 10
-93.52816083
 20
-203.39327697
 10
-93.48056094
 20
-203.44087686
 10
-93.43294404
 20
-203.48849376
 10
-93.38531295
 20
-203.53612509
 10
-93.33767044
 20
-203.58376736
  0
ARC
  5
370
100
AcDbEntity
  8
MST_1_1
 62
   137
  6
CONTINUOUS
100
AcDbCircle
 10
-93.63972419
 20
-202.85179269
 30
0.0
 40
0.36000006
100
AcDbArc
 50
257.38753734
 51
12.61244165
  0
LWPOLYLINE
  5
371
100
AcDbEntity
  8
MST_1_1
 62
   137
  6
CONTINUOUS
100
AcDbPolyline
 90
        9
 70
     0
 43
0.0
 10
-93.09237172
 20
-203.26338063
 10
-93.04890503
 20
-203.30684732
 10
-93.00543206
 20
-203.35032029
 10
-92.96195466
 20
-203.39379769
 10
-92.91847517
 20
-203.43727707
 10
-92.87499579
 20
-203.48075656
 10
-92.83151839
 20
-203.52423396
 10
-92.78804542
 20
-203.56770693
 10
-92.74457873
 20
-203.61117362
  0
ARC
  5
372
100
AcDbEntity
  8
MST_1_1
 62
   137
  6
CONTINUOUS
100
AcDbCircle
 10
-92.98635747
 20
-203.50515937
 30
0.0
 40
0.26399996
100
AcDbArc
 50
336.32369791
 51
113.67631211
  0
LWPOLYLINE
  5
373
100
AcDbEntity
  8
MST_1_1
 62
   137
  6
CONTINUOUS
100
AcDbPolyline
 90
        9
 70
     0
 43
0.0
 10
-92.88034321
 20
-203.7469381
 10
-92.92380978
 20
-203.70347165
 10
-92.96728276
 20
-203.65999867
 10
-93.01076015
 20
-203.61652127
 10
-93.05423965
 20
-203.57304155
 10
-93.09771937
 20
-203.52956206
 10
-93.14119677
 20
-203.48608466
 10
-93.18466974
 20
-203.44261168
 10
-93.2281362
 20
-203.39914511
  0
ARC
  5
374
100
AcDbEntity
  8
MST_1_1
 62
   137
  6
CONTINUOUS
100
AcDbCircle
 10
-92.98635755
 20
-203.50515945
 30
0.0
 40
0.26399992
100
AcDbArc
 50
156.32366302
 51
293.676347
  0
MTEXT
  5
375
100
AcDbEntity
  8
MST_1_1
 62
     4
100
AcDbMText
 10
-129.69821513
 20
170.83113583
 30
2500.0
 11
1.0
 21
0.0
 31
0.0
 40
20.0
 41
316.1838307
 71
     1
 72
     1
  1
\fTahoma|b0|i0|c0|p18;\H20;\W0.80000001;\C7;Spanplattenschrauben Senkkopf\PHECO-FIX-plus 5.0mm\P35.301
  0
LWPOLYLINE
  5
376
102
{ACAD_REACTORS
330
377
102
}
100
AcDbEntity
  8
MST_1_1
 62
    12
100
AcDbPolyline
 90
       46
 70
     1
 43
0.0
 10
277.18437973
 20
181.39688583
 10
277.0535584
 20
181.40752416
 10
276.92940906
 20
181.43831249
 10
276.81360373
 20
181.48756083
 10
276.7078144
 20
181.55357916
 10
276.61371306
 20
181.63467749
 10
276.53297173
 20
181.72916583
 10
276.4672624
 20
181.83535416
 10
276.41825706
 20
181.95155249
 10
276.38762773
 20
182.07607083
 10
276.3770464
 20
182.20721916
 10
276.3770464
 20
182.20721916
 10
276.38762773
 20
182.33843133
 10
276.41825706
 20
182.46303649
 10
276.4672624
 20
182.57933766
 10
276.53297173
 20
182.68563783
 10
276.61371306
 20
182.78023999
 10
276.7078144
 20
182.86144716
 10
276.81360373
 20
182.92756233
 10
276.92940906
 20
182.97688849
 10
277.0535584
 20
183.00772866
 10
277.18437973
 20
183.01838583
 10
277.18437973
 20
183.01838583
 10
277.3150344
 20
183.00772866
 10
277.43907706
 20
182.97688849
 10
277.55482573
 20
182.92756233
 10
277.6605984
 20
182.86144716
 10
277.75471306
 20
182.78023999
 10
277.83548773
 20
182.68563783
 10
277.9012404
 20
182.57933766
 10
277.95028906
 20
182.46303649
 10
277.98095173
 20
182.33843133
 10
277.9915464
 20
182.20721916
 10
277.9915464
 20
182.20721916
 10
277.98095173
 20
182.07607083
 10
277.95028906
 20
181.95155249
 10
277.9012404
 20
181.83535416
 10
277.83548773
 20
181.72916583
 10
277.75471306
 20
181.63467749
 10
277.6605984
 20
181.55357916
 10
277.55482573
 20
181.48756083
 10
277.43907706
 20
181.43831249
 10
277.3150344
 20
181.40752416
 10
277.18437973
 20
181.39688583
 10
277.18437973
 20
181.39688583
 10
277.18437973
 20
181.39688583
  0
HATCH
  5
377
100
AcDbEntity
  8
MST_1_1
 62
    12
100
AcDbHatch
 10
0.0
 20
0.0
 30
0.0
210
0.0
220
0.0
230
1.0
  2
SOLID
 70
     1
 71
     1
 91
        1
 92
        7
 72
     0
 73
     1
 93
       40
 10
277.18437973
 20
181.39688583
 10
277.0535584
 20
181.40752416
 10
276.92940906
 20
181.43831249
 10
276.81360373
 20
181.48756083
 10
276.7078144
 20
181.55357916
 10
276.61371306
 20
181.63467749
 10
276.53297173
 20
181.72916583
 10
276.4672624
 20
181.83535416
 10
276.41825706
 20
181.95155249
 10
276.38762773
 20
182.07607083
 10
276.3770464
 20
182.20721916
 10
276.38762773
 20
182.33843133
 10
276.41825706
 20
182.46303649
 10
276.4672624
 20
182.57933766
 10
276.53297173
 20
182.68563783
 10
276.61371306
 20
182.78023999
 10
276.7078144
 20
182.86144716
 10
276.81360373
 20
182.92756233
 10
276.92940906
 20
182.97688849
 10
277.0535584
 20
183.00772866
 10
277.18437973
 20
183.01838583
 10
277.3150344
 20
183.00772866
 10
277.43907706
 20
182.97688849
 10
277.55482573
 20
182.92756233
 10
277.6605984
 20
182.86144716
 10
277.75471306
 20
182.78023999
 10
277.83548773
 20
182.68563783
 10
277.9012404
 20
182.57933766
 10
277.95028906
 20
182.46303649
 10
277.98095173
 20
182.33843133
 10
277.9915464
 20
182.20721916
 10
277.98095173
 20
182.07607083
 10
277.95028906
 20
181.95155249
 10
277.9012404
 20
181.83535416
 10
277.83548773
 20
181.72916583
 10
277.75471306
 20
181.63467749
 10
277.6605984
 20
181.55357916
 10
277.55482573
 20
181.48756083
 10
277.43907706
 20
181.43831249
 10
277.3150344
 20
181.40752416
 97
        1
330
376
 75
     0
 76
     2
 47
0.775229
 98
        1
 10
0.0
 20
0.0
  0
LWPOLYLINE
  5
378
102
{ACAD_REACTORS
330
379
102
}
100
AcDbEntity
  8
MST_1_1
 62
    12
100
AcDbPolyline
 90
        8
 70
     1
 43
0.0
 10
209.71937973
 20
180.83113583
 10
275.68721306
 20
180.83113583
 10
275.68721306
 20
180.83113583
 10
275.68721306
 20
164.24988583
 10
275.68721306
 20
164.24988583
 10
209.71937973
 20
164.24988583
 10
209.71937973
 20
164.24988583
 10
209.71937973
 20
180.83113583
  0
HATCH
  5
379
100
AcDbEntity
  8
MST_1_1
 62
    12
100
AcDbHatch
 10
0.0
 20
0.0
 30
0.0
210
0.0
220
0.0
230
1.0
  2
SOLID
 70
     1
 71
     1
 91
        1
 92
        7
 72
     0
 73
     1
 93
        4
 10
209.71937973
 20
180.83113583
 10
275.68721306
 20
180.83113583
 10
275.68721306
 20
164.24988583
 10
209.71937973
 20
164.24988583
 97
        1
330
378
 75
     0
 76
     2
 47
0.775229
 98
        1
 10
0.0
 20
0.0
  0
LINE
  5
37A
100
AcDbEntity
  8
MST_1_1
100
AcDbLine
 10
209.71937973
 20
164.24988583
 30
0.0
 11
209.71937973
 21
164.24988583
 31
0.0
  0
LINE
  5
37B
100
AcDbEntity
  8
MST_1_1
100
AcDbLine
 10
209.71937973
 20
164.24988583
 30
0.0
 11
209.71937973
 21
164.24988583
 31
0.0
  0
LINE
  5
37C
100
AcDbEntity
  8
MST_1_1
100
AcDbLine
 10
209.71937973
 20
164.24988583
 30
0.0
 11
209.71937973
 21
164.24988583
 31
0.0
  0
LINE
  5
37D
100
AcDbEntity
  8
MST_1_1
100
AcDbLine
 10
209.71937973
 20
164.24988583
 30
0.0
 11
209.71937973
 21
164.24988583
 31
0.0
  0
LINE
  5
37E
100
AcDbEntity
  8
MST_1_1
100
AcDbLine
 10
209.71937973
 20
164.24988583
 30
0.0
 11
209.71937973
 21
164.24988583
 31
0.0
  0
LINE
  5
37F
100
AcDbEntity
  8
MST_1_1
100
AcDbLine
 10
209.71937973
 20
164.24988583
 30
0.0
 11
209.71937973
 21
164.24988583
 31
0.0
  0
LINE
  5
380
100
AcDbEntity
  8
MST_1_1
100
AcDbLine
 10
209.71937973
 20
164.24988583
 30
0.0
 11
209.71937973
 21
164.24988583
 31
0.0
  0
LINE
  5
381
100
AcDbEntity
  8
MST_1_1
100
AcDbLine
 10
209.71937973
 20
164.24988583
 30
0.0
 11
209.71937973
 21
164.24988583
 31
0.0
  0
LINE
  5
382
100
AcDbEntity
  8
MST_1_1
100
AcDbLine
 10
209.71937973
 20
164.24988583
 30
0.0
 11
209.71937973
 21
164.24988583
 31
0.0
  0
LINE
  5
383
100
AcDbEntity
  8
MST_1_1
100
AcDbLine
 10
209.71937973
 20
164.24988583
 30
0.0
 11
209.71937973
 21
164.24988583
 31
0.0
  0
LINE
  5
384
100
AcDbEntity
  8
MST_1_1
100
AcDbLine
 10
209.71937973
 20
164.24988583
 30
0.0
 11
209.71937973
 21
164.24988583
 31
0.0
  0
LWPOLYLINE
  5
385
102
{ACAD_REACTORS
330
386
102
}
100
AcDbEntity
  8
MST_1_1
 62
   190
100
AcDbPolyline
 90
        8
 70
     1
 43
0.0
 10
242.52587973
 20
179.68146916
 10
274.54071306
 20
179.68146916
 10
274.54071306
 20
179.68146916
 10
274.54071306
 20
165.39771749
 10
274.54071306
 20
165.39771749
 10
242.52587973
 20
165.39771749
 10
242.52587973
 20
165.39771749
 10
242.52587973
 20
179.68146916
  0
HATCH
  5
386
100
AcDbEntity
  8
MST_1_1
 62
   190
100
AcDbHatch
 10
0.0
 20
0.0
 30
0.0
210
0.0
220
0.0
230
1.0
  2
SOLID
 70
     1
 71
     1
 91
        1
 92
        7
 72
     0
 73
     1
 93
        4
 10
242.52587973
 20
179.68146916
 10
274.54071306
 20
179.68146916
 10
274.54071306
 20
165.39771749
 10
242.52587973
 20
165.39771749
 97
        1
330
385
 75
     0
 76
     2
 47
0.775229
 98
        1
 10
0.0
 20
0.0
  0
LWPOLYLINE
  5
387
102
{ACAD_REACTORS
330
388
102
}
100
AcDbEntity
  8
MST_1_1
 62
    12
100
AcDbPolyline
 90
       22
 70
     1
 43
0.0
 10
244.44371306
 20
167.69098583
 10
244.44371306
 20
176.77750249
 10
244.44371306
 20
176.77750249
 10
252.6230464
 20
176.77750249
 10
252.6230464
 20
176.77750249
 10
252.6230464
 20
174.31315249
 10
252.6230464
 20
174.31315249
 10
248.8470464
 20
174.31315249
 10
248.8470464
 20
174.31315249
 10
248.8470464
 20
173.25853583
 10
248.8470464
 20
173.25853583
 10
252.26471306
 20
173.25853583
 10
252.26471306
 20
173.25853583
 10
252.26471306
 20
170.93073583
 10
252.26471306
 20
170.93073583
 10
248.8470464
 20
170.93073583
 10
248.8470464
 20
170.93073583
 10
248.8470464
 20
167.69098583
 10
248.8470464
 20
167.69098583
 10
244.44371306
 20
167.69098583
 10
244.44371306
 20
167.69098583
 10
244.44371306
 20
167.69098583
  0
HATCH
  5
388
100
AcDbEntity
  8
MST_1_1
 62
    12
100
AcDbHatch
 10
0.0
 20
0.0
 30
0.0
210
0.0
220
0.0
230
1.0
  2
SOLID
 70
     1
 71
     1
 91
        1
 92
        7
 72
     0
 73
     1
 93
       10
 10
244.44371306
 20
167.69098583
 10
244.44371306
 20
176.77750249
 10
252.6230464
 20
176.77750249
 10
252.6230464
 20
174.31315249
 10
248.8470464
 20
174.31315249
 10
248.8470464
 20
173.25853583
 10
252.26471306
 20
173.25853583
 10
252.26471306
 20
170.93073583
 10
248.8470464
 20
170.93073583
 10
248.8470464
 20
167.69098583
 97
        1
330
387
 75
     0
 76
     2
 47
0.775229
 98
        1
 10
0.0
 20
0.0
  0
LWPOLYLINE
  5
389
102
{ACAD_REACTORS
330
38A
102
}
100
AcDbEntity
  8
MST_1_1
 62
   190
100
AcDbPolyline
 90
      178
 70
     1
 43
0.0
 10
240.66837973
 20
172.21613583
 10
240.66480773
 20
172.01796911
 10
240.65410373
 20
171.82250209
 10
240.63628573
 20
171.62975448
 10
240.61137173
 20
171.43974596
 10
240.57937973
 20
171.25249624
 10
240.54032773
 20
171.06802503
 10
240.49423373
 20
170.88635201
 10
240.44111573
 20
170.70749689
 10
240.38099173
 20
170.53147938
 10
240.31387973
 20
170.35831916
 10
240.31387973
 20
170.35831916
 10
240.24014673
 20
170.18784529
 10
240.15975573
 20
170.02109823
 10
240.07271873
 20
169.85806976
 10
239.97904773
 20
169.69875169
 10
239.87875473
 20
169.54313583
 10
239.77185173
 20
169.39121396
 10
239.65835073
 20
169.24297789
 10
239.53826373
 20
169.09841943
 10
239.41160273
 20
168.95753036
 10
239.27837973
 20
168.82030249
 10
239.27837973
 20
168.82030249
 10
239.13964106
 20
168.69052171
 10
238.9967304
 20
168.56695423
 10
238.84965573
 20
168.44960734
 10
238.69842506
 20
168.33848836
 10
238.5430464
 20
168.23360458
 10
238.38352773
 20
168.13496329
 10
238.21987706
 20
168.04257181
 10
238.0521024
 20
167.95643743
 10
237.88021173
 20
167.87656744
 10
237.70421306
 20
167.80296916
 10
237.70421306
 20
167.80296916
 10
237.52516506
 20
167.73597103
 10
237.34364906
 20
167.67591409
 10
237.15970706
 20
167.62282456
 10
236.97338106
 20
167.57672863
 10
236.78471306
 20
167.53765249
 10
236.59374506
 20
167.50562236
 10
236.40051906
 20
167.48066443
 10
236.20507706
 20
167.46280489
 10
236.00746106
 20
167.45206996
 10
235.80771306
 20
167.44848583
 10
235.80771306
 20
167.44848583
 10
235.60579273
 20
167.45206996
 10
235.4063504
 20
167.46280489
 10
235.20941406
 20
167.48066443
 10
235.01501173
 20
167.50562236
 10
234.8231714
 20
167.53765249
 10
234.63392106
 20
167.57672863
 10
234.44728873
 20
167.62282456
 10
234.2633024
 20
167.67591409
 10
234.08199006
 20
167.73597103
 10
233.90337973
 20
167.80296916
 10
233.90337973
 20
167.80296916
 10
233.72745323
 20
167.87668479
 10
233.55556773
 20
167.95690823
 10
233.38771423
 20
168.04363426
 10
233.22388373
 20
168.13685769
 10
233.06406723
 20
168.23657333
 10
232.90825573
 20
168.34277596
 10
232.75644023
 20
168.45546039
 10
232.60861173
 20
168.57462143
 10
232.46476123
 20
168.70025386
 10
232.32487973
 20
168.83235249
 10
232.32487973
 20
168.83235249
 10
232.1933209
 20
168.96612738
 10
232.06816906
 20
169.10387156
 10
231.94946123
 20
169.24556934
 10
231.8372344
 20
169.39120503
 10
231.73152556
 20
169.54076291
 10
231.63237173
 20
169.69422729
 10
231.5398099
 20
169.85158248
 10
231.45387706
 20
170.01281276
 10
231.37461023
 20
170.17790244
 10
231.3020464
 20
170.34683583
 10
231.3020464
 20
170.34683583
 10
231.23622856
 20
170.51995848
 10
231.17728373
 20
170.69616303
 10
231.1252249
 20
170.87544438
 10
231.08006506
 20
171.05779743
 10
231.04181723
 20
171.24321708
 10
231.0104944
 20
171.43169823
 10
230.98610956
 20
171.62323578
 10
230.96867573
 20
171.81782463
 10
230.9582059
 20
172.01545968
 10
230.95471306
 20
172.21613583
 10
230.95471306
 20
172.21613583
 10
230.9582059
 20
172.41680786
 10
230.96867573
 20
172.61453009
 10
230.98610956
 20
172.80931173
 10
231.0104944
 20
173.00116196
 10
231.04181723
 20
173.19008999
 10
231.08006506
 20
173.37610503
 10
231.1252249
 20
173.55921626
 10
231.17728373
 20
173.73943289
 10
231.23622856
 20
173.91676413
 10
231.3020464
 20
174.09121916
 10
231.3020464
 20
174.09121916
 10
231.37461023
 20
174.26128561
 10
231.45387706
 20
174.42745876
 10
231.5398099
 20
174.58969931
 10
231.63237173
 20
174.74796796
 10
231.73152556
 20
174.90222541
 10
231.8372344
 20
175.05243236
 10
231.94946123
 20
175.19854951
 10
232.06816906
 20
175.34053756
 10
232.1933209
 20
175.47835721
 10
232.32487973
 20
175.61196916
 10
232.32487973
 20
175.61196916
 10
232.46368356
 20
175.74236099
 10
232.6065104
 20
175.86648383
 10
232.75338323
 20
175.98431866
 10
232.90432506
 20
176.09584649
 10
233.0593589
 20
176.20104833
 10
233.21850773
 20
176.29990516
 10
233.38179456
 20
176.39239799
 10
233.5492424
 20
176.47850783
 10
233.72087423
 20
176.55821566
 10
233.89671306
 20
176.63150249
 10
233.89671306
 20
176.63150249
 10
234.07562706
 20
176.69853408
 10
234.25726506
 20
176.75843116
 10
234.44162106
 20
176.81121224
 10
234.62868906
 20
176.85689583
 10
234.81846306
 20
176.89550041
 10
235.01093706
 20
176.92704449
 10
235.20610506
 20
176.95154658
 10
235.40396106
 20
176.96902516
 10
235.60449906
 20
176.97949874
 10
235.80771306
 20
176.98298583
 10
235.80771306
 20
176.98298583
 10
236.01108473
 20
176.97949874
 10
236.2117864
 20
176.96902516
 10
236.40979806
 20
176.95154658
 10
236.60509973
 20
176.92704449
 10
236.7976714
 20
176.89550041
 10
236.98749306
 20
176.85689583
 10
237.17454473
 20
176.81121224
 10
237.3588064
 20
176.75843116
 10
237.54025806
 20
176.69853408
 10
237.71887973
 20
176.63150249
 10
237.71887973
 20
176.63150249
 10
237.8948824
 20
176.55821566
 10
238.06680106
 20
176.47850783
 10
238.23465173
 20
176.39239799
 10
238.3984504
 20
176.29990516
 10
238.55821306
 20
176.20104833
 10
238.71395573
 20
176.09584649
 10
238.8656944
 20
175.98431866
 10
239.01344506
 20
175.86648383
 10
239.15722373
 20
175.74236099
 10
239.2970464
 20
175.61196916
 10
239.2970464
 20
175.61196916
 10
239.42739123
 20
175.47719464
 10
239.55150506
 20
175.33836703
 10
239.6693569
 20
175.19551021
 10
239.78091573
 20
175.04864809
 10
239.88615056
 20
174.89780458
 10
239.9850304
 20
174.74300356
 10
240.07752423
 20
174.58426894
 10
240.16360106
 20
174.42162463
 10
240.2432299
 20
174.25509451
 10
240.31637973
 20
174.08470249
 10
240.31637973
 20
174.08470249
 10
240.38342173
 20
173.91041058
 10
240.44335573
 20
173.73333316
 10
240.49619373
 20
173.55346774
 10
240.54194773
 20
173.37081183
 10
240.58062973
 20
173.18536291
 10
240.61225173
 20
172.99711849
 10
240.63682573
 20
172.80607608
 10
240.65436373
 20
172.61223316
 10
240.66487773
 20
172.41558724
 10
240.66837973
 20
172.21613583
 10
240.66837973
 20
172.21613583
 10
240.66837973
 20
172.21613583
  0
HATCH
  5
38A
100
AcDbEntity
  8
MST_1_1
 62
   190
100
AcDbHatch
 10
0.0
 20
0.0
 30
0.0
210
0.0
220
0.0
230
1.0
  2
SOLID
 70
     1
 71
     1
 91
        1
 92
        7
 72
     0
 73
     1
 93
      160
 10
240.66837973
 20
172.21613583
 10
240.66480773
 20
172.01796911
 10
240.65410373
 20
171.82250209
 10
240.63628573
 20
171.62975448
 10
240.61137173
 20
171.43974596
 10
240.57937973
 20
171.25249624
 10
240.54032773
 20
171.06802503
 10
240.49423373
 20
170.88635201
 10
240.44111573
 20
170.70749689
 10
240.38099173
 20
170.53147938
 10
240.31387973
 20
170.35831916
 10
240.24014673
 20
170.18784529
 10
240.15975573
 20
170.02109823
 10
240.07271873
 20
169.85806976
 10
239.97904773
 20
169.69875169
 10
239.87875473
 20
169.54313583
 10
239.77185173
 20
169.39121396
 10
239.65835073
 20
169.24297789
 10
239.53826373
 20
169.09841943
 10
239.41160273
 20
168.95753036
 10
239.27837973
 20
168.82030249
 10
239.13964106
 20
168.69052171
 10
238.9967304
 20
168.56695423
 10
238.84965573
 20
168.44960734
 10
238.69842506
 20
168.33848836
 10
238.5430464
 20
168.23360458
 10
238.38352773
 20
168.13496329
 10
238.21987706
 20
168.04257181
 10
238.0521024
 20
167.95643743
 10
237.88021173
 20
167.87656744
 10
237.70421306
 20
167.80296916
 10
237.52516506
 20
167.73597103
 10
237.34364906
 20
167.67591409
 10
237.15970706
 20
167.62282456
 10
236.97338106
 20
167.57672863
 10
236.78471306
 20
167.53765249
 10
236.59374506
 20
167.50562236
 10
236.40051906
 20
167.48066443
 10
236.20507706
 20
167.46280489
 10
236.00746106
 20
167.45206996
 10
235.80771306
 20
167.44848583
 10
235.60579273
 20
167.45206996
 10
235.4063504
 20
167.46280489
 10
235.20941406
 20
167.48066443
 10
235.01501173
 20
167.50562236
 10
234.8231714
 20
167.53765249
 10
234.63392106
 20
167.57672863
 10
234.44728873
 20
167.62282456
 10
234.2633024
 20
167.67591409
 10
234.08199006
 20
167.73597103
 10
233.90337973
 20
167.80296916
 10
233.72745323
 20
167.87668479
 10
233.55556773
 20
167.95690823
 10
233.38771423
 20
168.04363426
 10
233.22388373
 20
168.13685769
 10
233.06406723
 20
168.23657333
 10
232.90825573
 20
168.34277596
 10
232.75644023
 20
168.45546039
 10
232.60861173
 20
168.57462143
 10
232.46476123
 20
168.70025386
 10
232.32487973
 20
168.83235249
 10
232.1933209
 20
168.96612738
 10
232.06816906
 20
169.10387156
 10
231.94946123
 20
169.24556934
 10
231.8372344
 20
169.39120503
 10
231.73152556
 20
169.54076291
 10
231.63237173
 20
169.69422729
 10
231.5398099
 20
169.85158248
 10
231.45387706
 20
170.01281276
 10
231.37461023
 20
170.17790244
 10
231.3020464
 20
170.34683583
 10
231.23622856
 20
170.51995848
 10
231.17728373
 20
170.69616303
 10
231.1252249
 20
170.87544438
 10
231.08006506
 20
171.05779743
 10
231.04181723
 20
171.24321708
 10
231.0104944
 20
171.43169823
 10
230.98610956
 20
171.62323578
 10
230.96867573
 20
171.81782463
 10
230.9582059
 20
172.01545968
 10
230.95471306
 20
172.21613583
 10
230.9582059
 20
172.41680786
 10
230.96867573
 20
172.61453009
 10
230.98610956
 20
172.80931173
 10
231.0104944
 20
173.00116196
 10
231.04181723
 20
173.19008999
 10
231.08006506
 20
173.37610503
 10
231.1252249
 20
173.55921626
 10
231.17728373
 20
173.73943289
 10
231.23622856
 20
173.91676413
 10
231.3020464
 20
174.09121916
 10
231.37461023
 20
174.26128561
 10
231.45387706
 20
174.42745876
 10
231.5398099
 20
174.58969931
 10
231.63237173
 20
174.74796796
 10
231.73152556
 20
174.90222541
 10
231.8372344
 20
175.05243236
 10
231.94946123
 20
175.19854951
 10
232.06816906
 20
175.34053756
 10
232.1933209
 20
175.47835721
 10
232.32487973
 20
175.61196916
 10
232.46368356
 20
175.74236099
 10
232.6065104
 20
175.86648383
 10
232.75338323
 20
175.98431866
 10
232.90432506
 20
176.09584649
 10
233.0593589
 20
176.20104833
 10
233.21850773
 20
176.29990516
 10
233.38179456
 20
176.39239799
 10
233.5492424
 20
176.47850783
 10
233.72087423
 20
176.55821566
 10
233.89671306
 20
176.63150249
 10
234.07562706
 20
176.69853408
 10
234.25726506
 20
176.75843116
 10
234.44162106
 20
176.81121224
 10
234.62868906
 20
176.85689583
 10
234.81846306
 20
176.89550041
 10
235.01093706
 20
176.92704449
 10
235.20610506
 20
176.95154658
 10
235.40396106
 20
176.96902516
 10
235.60449906
 20
176.97949874
 10
235.80771306
 20
176.98298583
 10
236.01108473
 20
176.97949874
 10
236.2117864
 20
176.96902516
 10
236.40979806
 20
176.95154658
 10
236.60509973
 20
176.92704449
 10
236.7976714
 20
176.89550041
 10
236.98749306
 20
176.85689583
 10
237.17454473
 20
176.81121224
 10
237.3588064
 20
176.75843116
 10
237.54025806
 20
176.69853408
 10
237.71887973
 20
176.63150249
 10
237.8948824
 20
176.55821566
 10
238.06680106
 20
176.47850783
 10
238.23465173
 20
176.39239799
 10
238.3984504
 20
176.29990516
 10
238.55821306
 20
176.20104833
 10
238.71395573
 20
176.09584649
 10
238.8656944
 20
175.98431866
 10
239.01344506
 20
175.86648383
 10
239.15722373
 20
175.74236099
 10
239.2970464
 20
175.61196916
 10
239.42739123
 20
175.47719464
 10
239.55150506
 20
175.33836703
 10
239.6693569
 20
175.19551021
 10
239.78091573
 20
175.04864809
 10
239.88615056
 20
174.89780458
 10
239.9850304
 20
174.74300356
 10
240.07752423
 20
174.58426894
 10
240.16360106
 20
174.42162463
 10
240.2432299
 20
174.25509451
 10
240.31637973
 20
174.08470249
 10
240.38342173
 20
173.91041058
 10
240.44335573
 20
173.73333316
 10
240.49619373
 20
173.55346774
 10
240.54194773
 20
173.37081183
 10
240.58062973
 20
173.18536291
 10
240.61225173
 20
172.99711849
 10
240.63682573
 20
172.80607608
 10
240.65436373
 20
172.61223316
 10
240.66487773
 20
172.41558724
 97
        1
330
389
 75
     0
 76
     2
 47
0.775229
 98
        1
 10
0.0
 20
0.0
  0
LWPOLYLINE
  5
38B
102
{ACAD_REACTORS
330
38C
102
}
100
AcDbEntity
  8
MST_1_1
 62
    12
100
AcDbPolyline
 90
       90
 70
     1
 43
0.0
 10
235.80771306
 20
170.50195249
 10
235.94293023
 20
170.50668781
 10
236.0726904
 20
170.52087103
 10
236.19700656
 20
170.54446804
 10
236.31589173
 20
170.57744476
 10
236.4293589
 20
170.61976708
 10
236.53742106
 20
170.67140089
 10
236.64009123
 20
170.73231211
 10
236.7373824
 20
170.80246663
 10
236.82930756
 20
170.88183034
 10
236.91587973
 20
170.97036916
 10
236.91587973
 20
170.97036916
 10
236.99557223
 20
171.06749418
 10
237.06693973
 20
171.17061529
 10
237.12996723
 20
171.27977161
 10
237.18463973
 20
171.39500223
 10
237.23094223
 20
171.51634624
 10
237.26885973
 20
171.64384276
 10
237.29837723
 20
171.77753088
 10
237.31947973
 20
171.91744969
 10
237.33215223
 20
172.06363831
 10
237.33637973
 20
172.21613583
 10
237.33637973
 20
172.21613583
 10
237.33215223
 20
172.36938136
 10
237.31947973
 20
172.51639009
 10
237.29837723
 20
172.65719523
 10
237.26885973
 20
172.79182996
 10
237.23094223
 20
172.92032749
 10
237.18463973
 20
173.04272103
 10
237.12996723
 20
173.15904376
 10
237.06693973
 20
173.26932889
 10
236.99557223
 20
173.37360963
 10
236.91587973
 20
173.47191916
 10
236.91587973
 20
173.47191916
 10
236.82930756
 20
173.56194454
 10
236.7373824
 20
173.64256023
 10
236.64009123
 20
173.71375051
 10
236.53742106
 20
173.77549969
 10
236.4293589
 20
173.82779208
 10
236.31589173
 20
173.87061196
 10
236.19700656
 20
173.90394364
 10
236.0726904
 20
173.92777143
 10
235.94293023
 20
173.94207961
 10
235.80771306
 20
173.94685249
 10
235.80771306
 20
173.94685249
 10
235.67256006
 20
173.94207554
 10
235.54270906
 20
173.92773889
 10
235.41817206
 20
173.90383384
 10
235.29896106
 20
173.87035169
 10
235.18508806
 20
173.82728374
 10
235.07656506
 20
173.77462129
 10
234.97340406
 20
173.71235564
 10
234.87561706
 20
173.64047809
 10
234.78321606
 20
173.55897994
 10
234.69621306
 20
173.46785249
 10
234.69621306
 20
173.46785249
 10
234.6158664
 20
173.36948853
 10
234.54401973
 20
173.26516676
 10
234.48066306
 20
173.15488739
 10
234.4257864
 20
173.03865063
 10
234.37937973
 20
172.91645666
 10
234.34143306
 20
172.78830569
 10
234.3119364
 20
172.65419793
 10
234.29087973
 20
172.51413356
 10
234.27825306
 20
172.36811279
 10
234.2740464
 20
172.21613583
 10
234.2740464
 20
172.21613583
 10
234.27825306
 20
172.06363831
 10
234.29087973
 20
171.91744969
 10
234.3119364
 20
171.77753088
 10
234.34143306
 20
171.64384276
 10
234.37937973
 20
171.51634624
 10
234.4257864
 20
171.39500223
 10
234.48066306
 20
171.27977161
 10
234.54401973
 20
171.17061529
 10
234.6158664
 20
171.06749418
 10
234.69621306
 20
170.97036916
 10
234.69621306
 20
170.97036916
 10
234.78321606
 20
170.88183034
 10
234.87561706
 20
170.80246663
 10
234.97340406
 20
170.73231211
 10
235.07656506
 20
170.67140089
 10
235.18508806
 20
170.61976708
 10
235.29896106
 20
170.57744476
 10
235.41817206
 20
170.54446804
 10
235.54270906
 20
170.52087103
 10
235.67256006
 20
170.50668781
 10
235.80771306
 20
170.50195249
 10
235.80771306
 20
170.50195249
 10
235.80771306
 20
170.50195249
  0
HATCH
  5
38C
100
AcDbEntity
  8
MST_1_1
 62
    12
100
AcDbHatch
 10
0.0
 20
0.0
 30
0.0
210
0.0
220
0.0
230
1.0
  2
SOLID
 70
     1
 71
     1
 91
        1
 92
        7
 72
     0
 73
     1
 93
       80
 10
235.80771306
 20
170.50195249
 10
235.94293023
 20
170.50668781
 10
236.0726904
 20
170.52087103
 10
236.19700656
 20
170.54446804
 10
236.31589173
 20
170.57744476
 10
236.4293589
 20
170.61976708
 10
236.53742106
 20
170.67140089
 10
236.64009123
 20
170.73231211
 10
236.7373824
 20
170.80246663
 10
236.82930756
 20
170.88183034
 10
236.91587973
 20
170.97036916
 10
236.99557223
 20
171.06749418
 10
237.06693973
 20
171.17061529
 10
237.12996723
 20
171.27977161
 10
237.18463973
 20
171.39500223
 10
237.23094223
 20
171.51634624
 10
237.26885973
 20
171.64384276
 10
237.29837723
 20
171.77753088
 10
237.31947973
 20
171.91744969
 10
237.33215223
 20
172.06363831
 10
237.33637973
 20
172.21613583
 10
237.33215223
 20
172.36938136
 10
237.31947973
 20
172.51639009
 10
237.29837723
 20
172.65719523
 10
237.26885973
 20
172.79182996
 10
237.23094223
 20
172.92032749
 10
237.18463973
 20
173.04272103
 10
237.12996723
 20
173.15904376
 10
237.06693973
 20
173.26932889
 10
236.99557223
 20
173.37360963
 10
236.91587973
 20
173.47191916
 10
236.82930756
 20
173.56194454
 10
236.7373824
 20
173.64256023
 10
236.64009123
 20
173.71375051
 10
236.53742106
 20
173.77549969
 10
236.4293589
 20
173.82779208
 10
236.31589173
 20
173.87061196
 10
236.19700656
 20
173.90394364
 10
236.0726904
 20
173.92777143
 10
235.94293023
 20
173.94207961
 10
235.80771306
 20
173.94685249
 10
235.67256006
 20
173.94207554
 10
235.54270906
 20
173.92773889
 10
235.41817206
 20
173.90383384
 10
235.29896106
 20
173.87035169
 10
235.18508806
 20
173.82728374
 10
235.07656506
 20
173.77462129
 10
234.97340406
 20
173.71235564
 10
234.87561706
 20
173.64047809
 10
234.78321606
 20
173.55897994
 10
234.69621306
 20
173.46785249
 10
234.6158664
 20
173.36948853
 10
234.54401973
 20
173.26516676
 10
234.48066306
 20
173.15488739
 10
234.4257864
 20
173.03865063
 10
234.37937973
 20
172.91645666
 10
234.34143306
 20
172.78830569
 10
234.3119364
 20
172.65419793
 10
234.29087973
 20
172.51413356
 10
234.27825306
 20
172.36811279
 10
234.2740464
 20
172.21613583
 10
234.27825306
 20
172.06363831
 10
234.29087973
 20
171.91744969
 10
234.3119364
 20
171.77753088
 10
234.34143306
 20
171.64384276
 10
234.37937973
 20
171.51634624
 10
234.4257864
 20
171.39500223
 10
234.48066306
 20
171.27977161
 10
234.54401973
 20
171.17061529
 10
234.6158664
 20
171.06749418
 10
234.69621306
 20
170.97036916
 10
234.78321606
 20
170.88183034
 10
234.87561706
 20
170.80246663
 10
234.97340406
 20
170.73231211
 10
235.07656506
 20
170.67140089
 10
235.18508806
 20
170.61976708
 10
235.29896106
 20
170.57744476
 10
235.41817206
 20
170.54446804
 10
235.54270906
 20
170.52087103
 10
235.67256006
 20
170.50668781
 97
        1
330
38B
 75
     0
 76
     2
 47
0.775229
 98
        1
 10
0.0
 20
0.0
  0
LWPOLYLINE
  5
38D
102
{ACAD_REACTORS
330
38E
102
}
100
AcDbEntity
  8
MST_1_1
 62
   190
100
AcDbPolyline
 90
       60
 70
     1
 43
0.0
 10
222.16867973
 20
167.69098583
 10
222.16867973
 20
176.77750249
 10
222.16867973
 20
176.77750249
 10
226.2789464
 20
176.77750249
 10
226.2789464
 20
176.77750249
 10
226.62768216
 20
176.76960186
 10
226.95962453
 20
176.74590943
 10
227.2747661
 20
176.70643939
 10
227.57309946
 20
176.65120596
 10
227.85461723
 20
176.58022333
 10
228.119312
 20
176.49350569
 10
228.36717636
 20
176.39106726
 10
228.59820293
 20
176.27292223
 10
228.8123843
 20
176.13908479
 10
229.00971306
 20
175.98956916
 10
229.00971306
 20
175.98956916
 10
229.1889189
 20
175.82498011
 10
229.34923973
 20
175.64641476
 10
229.49068056
 20
175.45390581
 10
229.6132464
 20
175.24748596
 10
229.71694223
 20
175.02718791
 10
229.80177306
 20
174.79304436
 10
229.8677439
 20
174.54508801
 10
229.91485973
 20
174.28335156
 10
229.94312556
 20
174.00786771
 10
229.9525464
 20
173.71866916
 10
229.9525464
 20
173.71866916
 10
229.94776473
 20
173.52818459
 10
229.93343306
 20
173.34453863
 10
229.9095714
 20
173.16774286
 10
229.87619973
 20
172.99780889
 10
229.83333806
 20
172.83474833
 10
229.7810064
 20
172.67857276
 10
229.71922473
 20
172.52929379
 10
229.64801306
 20
172.38692303
 10
229.5673914
 20
172.25147206
 10
229.47737973
 20
172.12295249
 10
229.47737973
 20
172.12295249
 10
229.37893873
 20
172.00236024
 10
229.27399173
 20
171.89232449
 10
229.16250273
 20
171.79283174
 10
229.04443573
 20
171.70386849
 10
228.91975473
 20
171.62542124
 10
228.78842373
 20
171.55747649
 10
228.65040673
 20
171.50002074
 10
228.50566773
 20
171.45304049
 10
228.35417073
 20
171.41652224
 10
228.19587973
 20
171.39045249
 10
228.19587973
 20
171.39045249
 10
230.62221306
 20
167.69098583
 10
230.62221306
 20
167.69098583
 10
226.96171306
 20
167.69098583
 10
226.96171306
 20
167.69098583
 10
225.37172973
 20
170.68830249
 10
225.37172973
 20
170.68830249
 10
225.37172973
 20
167.69098583
 10
225.37172973
 20
167.69098583
 10
222.16867973
 20
167.69098583
 10
222.16867973
 20
167.69098583
 10
222.16867973
 20
167.69098583
  0
HATCH
  5
38E
100
AcDbEntity
  8
MST_1_1
 62
   190
100
AcDbHatch
 10
0.0
 20
0.0
 30
0.0
210
0.0
220
0.0
230
1.0
  2
SOLID
 70
     1
 71
     1
 91
        1
 92
        7
 72
     0
 73
     1
 93
       47
 10
222.16867973
 20
167.69098583
 10
222.16867973
 20
176.77750249
 10
226.2789464
 20
176.77750249
 10
226.62768216
 20
176.76960186
 10
226.95962453
 20
176.74590943
 10
227.2747661
 20
176.70643939
 10
227.57309946
 20
176.65120596
 10
227.85461723
 20
176.58022333
 10
228.119312
 20
176.49350569
 10
228.36717636
 20
176.39106726
 10
228.59820293
 20
176.27292223
 10
228.8123843
 20
176.13908479
 10
229.00971306
 20
175.98956916
 10
229.1889189
 20
175.82498011
 10
229.34923973
 20
175.64641476
 10
229.49068056
 20
175.45390581
 10
229.6132464
 20
175.24748596
 10
229.71694223
 20
175.02718791
 10
229.80177306
 20
174.79304436
 10
229.8677439
 20
174.54508801
 10
229.91485973
 20
174.28335156
 10
229.94312556
 20
174.00786771
 10
229.9525464
 20
173.71866916
 10
229.94776473
 20
173.52818459
 10
229.93343306
 20
173.34453863
 10
229.9095714
 20
173.16774286
 10
229.87619973
 20
172.99780889
 10
229.83333806
 20
172.83474833
 10
229.7810064
 20
172.67857276
 10
229.71922473
 20
172.52929379
 10
229.64801306
 20
172.38692303
 10
229.5673914
 20
172.25147206
 10
229.47737973
 20
172.12295249
 10
229.37893873
 20
172.00236024
 10
229.27399173
 20
171.89232449
 10
229.16250273
 20
171.79283174
 10
229.04443573
 20
171.70386849
 10
228.91975473
 20
171.62542124
 10
228.78842373
 20
171.55747649
 10
228.65040673
 20
171.50002074
 10
228.50566773
 20
171.45304049
 10
228.35417073
 20
171.41652224
 10
228.19587973
 20
171.39045249
 10
230.62221306
 20
167.69098583
 10
226.96171306
 20
167.69098583
 10
225.37172973
 20
170.68830249
 10
225.37172973
 20
167.69098583
 97
        1
330
38D
 75
     0
 76
     2
 47
0.775229
 98
        1
 10
0.0
 20
0.0
  0
LWPOLYLINE
  5
38F
102
{ACAD_REACTORS
330
390
102
}
100
AcDbEntity
  8
MST_1_1
 62
    12
100
AcDbPolyline
 90
       52
 70
     1
 43
0.0
 10
225.37172973
 20
174.43886916
 10
225.37172973
 20
172.66381916
 10
225.37172973
 20
172.66381916
 10
225.8808464
 20
172.66381916
 10
225.8808464
 20
172.66381916
 10
225.97189285
 20
172.66609056
 10
226.058572
 20
172.67290036
 10
226.14089855
 20
172.68424196
 10
226.2188872
 20
172.70010876
 10
226.29255265
 20
172.72049416
 10
226.3619096
 20
172.74539156
 10
226.42697275
 20
172.77479436
 10
226.4877568
 20
172.80869596
 10
226.54427645
 20
172.84708976
 10
226.5965464
 20
172.88996916
 10
226.5965464
 20
172.88996916
 10
226.64439056
 20
172.93705264
 10
226.68721973
 20
172.98807503
 10
226.7250289
 20
173.04303921
 10
226.75781306
 20
173.10194809
 10
226.78556723
 20
173.16480458
 10
226.8082864
 20
173.23161156
 10
226.82596556
 20
173.30237194
 10
226.83859973
 20
173.37708863
 10
226.8461839
 20
173.45576451
 10
226.84871306
 20
173.53840249
 10
226.84871306
 20
173.53840249
 10
226.8461839
 20
173.62324129
 10
226.83859973
 20
173.70407089
 10
226.82596556
 20
173.78088109
 10
226.8082864
 20
173.85366169
 10
226.78556723
 20
173.92240249
 10
226.75781306
 20
173.98709329
 10
226.7250289
 20
174.04772389
 10
226.68721973
 20
174.10428409
 10
226.64439056
 20
174.15676369
 10
226.5965464
 20
174.20515249
 10
226.5965464
 20
174.20515249
 10
226.54427645
 20
174.24928866
 10
226.4877568
 20
174.28886383
 10
226.42697275
 20
174.32385799
 10
226.3619096
 20
174.35425116
 10
226.29255265
 20
174.38002333
 10
226.2188872
 20
174.40115449
 10
226.14089855
 20
174.41762466
 10
226.058572
 20
174.42941383
 10
225.97189285
 20
174.43650199
 10
225.8808464
 20
174.43886916
 10
225.8808464
 20
174.43886916
 10
225.37172973
 20
174.43886916
 10
225.37172973
 20
174.43886916
 10
225.37172973
 20
174.43886916
  0
HATCH
  5
390
100
AcDbEntity
  8
MST_1_1
 62
    12
100
AcDbHatch
 10
0.0
 20
0.0
 30
0.0
210
0.0
220
0.0
230
1.0
  2
SOLID
 70
     1
 71
     1
 91
        1
 92
        7
 72
     0
 73
     1
 93
       43
 10
225.37172973
 20
174.43886916
 10
225.37172973
 20
172.66381916
 10
225.8808464
 20
172.66381916
 10
225.97189285
 20
172.66609056
 10
226.058572
 20
172.67290036
 10
226.14089855
 20
172.68424196
 10
226.2188872
 20
172.70010876
 10
226.29255265
 20
172.72049416
 10
226.3619096
 20
172.74539156
 10
226.42697275
 20
172.77479436
 10
226.4877568
 20
172.80869596
 10
226.54427645
 20
172.84708976
 10
226.5965464
 20
172.88996916
 10
226.64439056
 20
172.93705264
 10
226.68721973
 20
172.98807503
 10
226.7250289
 20
173.04303921
 10
226.75781306
 20
173.10194809
 10
226.78556723
 20
173.16480458
 10
226.8082864
 20
173.23161156
 10
226.82596556
 20
173.30237194
 10
226.83859973
 20
173.37708863
 10
226.8461839
 20
173.45576451
 10
226.84871306
 20
173.53840249
 10
226.8461839
 20
173.62324129
 10
226.83859973
 20
173.70407089
 10
226.82596556
 20
173.78088109
 10
226.8082864
 20
173.85366169
 10
226.78556723
 20
173.92240249
 10
226.75781306
 20
173.98709329
 10
226.7250289
 20
174.04772389
 10
226.68721973
 20
174.10428409
 10
226.64439056
 20
174.15676369
 10
226.5965464
 20
174.20515249
 10
226.54427645
 20
174.24928866
 10
226.4877568
 20
174.28886383
 10
226.42697275
 20
174.32385799
 10
226.3619096
 20
174.35425116
 10
226.29255265
 20
174.38002333
 10
226.2188872
 20
174.40115449
 10
226.14089855
 20
174.41762466
 10
226.058572
 20
174.42941383
 10
225.97189285
 20
174.43650199
 10
225.8808464
 20
174.43886916
 97
        1
330
38F
 75
     0
 76
     2
 47
0.775229
 98
        1
 10
0.0
 20
0.0
  0
LWPOLYLINE
  5
391
102
{ACAD_REACTORS
330
392
102
}
100
AcDbEntity
  8
MST_1_1
 62
   190
100
AcDbPolyline
 90
       56
 70
     1
 43
0.0
 10
213.16907973
 20
167.69098583
 10
213.16907973
 20
176.77750249
 10
213.16907973
 20
176.77750249
 10
217.0737964
 20
176.77750249
 10
217.0737964
 20
176.77750249
 10
217.47457255
 20
176.76955383
 10
217.8532236
 20
176.74571116
 10
218.20975345
 20
176.70597949
 10
218.544166
 20
176.65036383
 10
218.85646515
 20
176.57886916
 10
219.1466548
 20
176.49150049
 10
219.41473885
 20
176.38826283
 10
219.6607212
 20
176.26916116
 10
219.88460575
 20
176.13420049
 10
220.0863964
 20
175.98338583
 10
220.0863964
 20
175.98338583
 10
220.2674516
 20
175.81502449
 10
220.429456
 20
175.62813716
 10
220.5724078
 20
175.42270383
 10
220.6963052
 20
175.19870449
 10
220.8011464
 20
174.95611916
 10
220.8869296
 20
174.69492783
 10
220.953653
 20
174.41511049
 10
221.0013148
 20
174.11664716
 10
221.0299132
 20
173.79951783
 10
221.0394464
 20
173.46370249
 10
221.0394464
 20
173.46370249
 10
221.0308765
 20
173.15071048
 10
221.0051732
 20
172.85504836
 10
220.9623461
 20
172.57672204
 10
220.9024048
 20
172.31573743
 10
220.8253589
 20
172.07210041
 10
220.731218
 20
171.84581689
 10
220.6199917
 20
171.63689278
 10
220.4916896
 20
171.44533396
 10
220.3463213
 20
171.27114634
 10
220.1838964
 20
171.11433583
 10
220.1838964
 20
171.11433583
 10
220.00214373
 20
170.97377838
 10
219.80034106
 20
170.84796423
 10
219.5784814
 20
170.73690568
 10
219.33655773
 20
170.64061503
 10
219.07456306
 20
170.55910458
 10
218.7924904
 20
170.49238663
 10
218.49033273
 20
170.44047348
 10
218.16808306
 20
170.40337743
 10
217.8257344
 20
170.38111078
 10
217.46327973
 20
170.37368583
 10
217.46327973
 20
170.37368583
 10
216.44032973
 20
170.37368583
 10
216.44032973
 20
170.37368583
 10
216.44032973
 20
167.69098583
 10
216.44032973
 20
167.69098583
 10
213.16907973
 20
167.69098583
 10
213.16907973
 20
167.69098583
 10
213.16907973
 20
167.69098583
  0
HATCH
  5
392
100
AcDbEntity
  8
MST_1_1
 62
   190
100
AcDbHatch
 10
0.0
 20
0.0
 30
0.0
210
0.0
220
0.0
230
1.0
  2
SOLID
 70
     1
 71
     1
 91
        1
 92
        7
 72
     0
 73
     1
 93
       45
 10
213.16907973
 20
167.69098583
 10
213.16907973
 20
176.77750249
 10
217.0737964
 20
176.77750249
 10
217.47457255
 20
176.76955383
 10
217.8532236
 20
176.74571116
 10
218.20975345
 20
176.70597949
 10
218.544166
 20
176.65036383
 10
218.85646515
 20
176.57886916
 10
219.1466548
 20
176.49150049
 10
219.41473885
 20
176.38826283
 10
219.6607212
 20
176.26916116
 10
219.88460575
 20
176.13420049
 10
220.0863964
 20
175.98338583
 10
220.2674516
 20
175.81502449
 10
220.429456
 20
175.62813716
 10
220.5724078
 20
175.42270383
 10
220.6963052
 20
175.19870449
 10
220.8011464
 20
174.95611916
 10
220.8869296
 20
174.69492783
 10
220.953653
 20
174.41511049
 10
221.0013148
 20
174.11664716
 10
221.0299132
 20
173.79951783
 10
221.0394464
 20
173.46370249
 10
221.0308765
 20
173.15071048
 10
221.0051732
 20
172.85504836
 10
220.9623461
 20
172.57672204
 10
220.9024048
 20
172.31573743
 10
220.8253589
 20
172.07210041
 10
220.731218
 20
171.84581689
 10
220.6199917
 20
171.63689278
 10
220.4916896
 20
171.44533396
 10
220.3463213
 20
171.27114634
 10
220.1838964
 20
171.11433583
 10
220.00214373
 20
170.97377838
 10
219.80034106
 20
170.84796423
 10
219.5784814
 20
170.73690568
 10
219.33655773
 20
170.64061503
 10
219.07456306
 20
170.55910458
 10
218.7924904
 20
170.49238663
 10
218.49033273
 20
170.44047348
 10
218.16808306
 20
170.40337743
 10
217.8257344
 20
170.38111078
 10
217.46327973
 20
170.37368583
 10
216.44032973
 20
170.37368583
 10
216.44032973
 20
167.69098583
 97
        1
330
391
 75
     0
 76
     2
 47
0.775229
 98
        1
 10
0.0
 20
0.0
  0
LWPOLYLINE
  5
393
102
{ACAD_REACTORS
330
394
102
}
100
AcDbEntity
  8
MST_1_1
 62
    12
100
AcDbPolyline
 90
       52
 70
     1
 43
0.0
 10
216.4530964
 20
174.25195249
 10
216.4530964
 20
172.73738583
 10
216.4530964
 20
172.73738583
 10
216.9607464
 20
172.73738583
 10
216.9607464
 20
172.73738583
 10
217.05158451
 20
172.73935413
 10
217.13818933
 20
172.74525223
 10
217.22053155
 20
172.75506993
 10
217.29858186
 20
172.76879703
 10
217.37231098
 20
172.78642333
 10
217.4416896
 20
172.80793863
 10
217.50668841
 20
172.83333273
 10
217.56727813
 20
172.86259543
 10
217.62342945
 20
172.89571653
 10
217.67511306
 20
172.93268583
 10
217.67511306
 20
172.93268583
 10
217.72218181
 20
172.97350319
 10
217.76431506
 20
173.01759076
 10
217.80150831
 20
173.06495673
 10
217.83375706
 20
173.11560929
 10
217.86105681
 20
173.16955666
 10
217.88340306
 20
173.22680703
 10
217.90079131
 20
173.28736859
 10
217.91321706
 20
173.35124956
 10
217.92067581
 20
173.41845813
 10
217.92316306
 20
173.48900249
 10
217.92316306
 20
173.48900249
 10
217.9206293
 20
173.55926018
 10
217.91302093
 20
173.62637596
 10
217.90032736
 20
173.69035394
 10
217.882538
 20
173.75119823
 10
217.85964223
 20
173.80891291
 10
217.83162946
 20
173.86350209
 10
217.7984891
 20
173.91496988
 10
217.76021053
 20
173.96332036
 10
217.71678316
 20
174.00855764
 10
217.6681964
 20
174.05068583
 10
217.6681964
 20
174.05068583
 10
217.6154505
 20
174.08871724
 10
217.5587272
 20
174.12281116
 10
217.4980181
 20
174.15295208
 10
217.4333148
 20
174.17912449
 10
217.3646089
 20
174.20131291
 10
217.291892
 20
174.21950183
 10
217.2151557
 20
174.23367574
 10
217.1343916
 20
174.24381916
 10
217.0495913
 20
174.24991658
 10
216.9607464
 20
174.25195249
 10
216.9607464
 20
174.25195249
 10
216.4530964
 20
174.25195249
 10
216.4530964
 20
174.25195249
 10
216.4530964
 20
174.25195249
  0
HATCH
  5
394
100
AcDbEntity
  8
MST_1_1
 62
    12
100
AcDbHatch
 10
0.0
 20
0.0
 30
0.0
210
0.0
220
0.0
230
1.0
  2
SOLID
 70
     1
 71
     1
 91
        1
 92
        7
 72
     0
 73
     1
 93
       43
 10
216.4530964
 20
174.25195249
 10
216.4530964
 20
172.73738583
 10
216.9607464
 20
172.73738583
 10
217.05158451
 20
172.73935413
 10
217.13818933
 20
172.74525223
 10
217.22053155
 20
172.75506993
 10
217.29858186
 20
172.76879703
 10
217.37231098
 20
172.78642333
 10
217.4416896
 20
172.80793863
 10
217.50668841
 20
172.83333273
 10
217.56727813
 20
172.86259543
 10
217.62342945
 20
172.89571653
 10
217.67511306
 20
172.93268583
 10
217.72218181
 20
172.97350319
 10
217.76431506
 20
173.01759076
 10
217.80150831
 20
173.06495673
 10
217.83375706
 20
173.11560929
 10
217.86105681
 20
173.16955666
 10
217.88340306
 20
173.22680703
 10
217.90079131
 20
173.28736859
 10
217.91321706
 20
173.35124956
 10
217.92067581
 20
173.41845813
 10
217.92316306
 20
173.48900249
 10
217.9206293
 20
173.55926018
 10
217.91302093
 20
173.62637596
 10
217.90032736
 20
173.69035394
 10
217.882538
 20
173.75119823
 10
217.85964223
 20
173.80891291
 10
217.83162946
 20
173.86350209
 10
217.7984891
 20
173.91496988
 10
217.76021053
 20
173.96332036
 10
217.71678316
 20
174.00855764
 10
217.6681964
 20
174.05068583
 10
217.6154505
 20
174.08871724
 10
217.5587272
 20
174.12281116
 10
217.4980181
 20
174.15295208
 10
217.4333148
 20
174.17912449
 10
217.3646089
 20
174.20131291
 10
217.291892
 20
174.21950183
 10
217.2151557
 20
174.23367574
 10
217.1343916
 20
174.24381916
 10
217.0495913
 20
174.24991658
 10
216.9607464
 20
174.25195249
 97
        1
330
393
 75
     0
 76
     2
 47
0.775229
 98
        1
 10
0.0
 20
0.0
  0
LWPOLYLINE
  5
395
102
{ACAD_REACTORS
330
396
102
}
100
AcDbEntity
  8
MST_1_1
 62
    12
100
AcDbPolyline
 90
       10
 70
     1
 43
0.0
 10
254.2155464
 20
167.69098583
 10
254.2155464
 20
176.77750249
 10
254.2155464
 20
176.77750249
 10
258.68337973
 20
176.77750249
 10
258.68337973
 20
176.77750249
 10
258.68337973
 20
167.69098583
 10
258.68337973
 20
167.69098583
 10
254.2155464
 20
167.69098583
 10
254.2155464
 20
167.69098583
 10
254.2155464
 20
167.69098583
  0
HATCH
  5
396
100
AcDbEntity
  8
MST_1_1
 62
    12
100
AcDbHatch
 10
0.0
 20
0.0
 30
0.0
210
0.0
220
0.0
230
1.0
  2
SOLID
 70
     1
 71
     1
 91
        1
 92
        7
 72
     0
 73
     1
 93
        4
 10
254.2155464
 20
167.69098583
 10
254.2155464
 20
176.77750249
 10
258.68337973
 20
176.77750249
 10
258.68337973
 20
167.69098583
 97
        1
330
395
 75
     0
 76
     2
 47
0.775229
 98
        1
 10
0.0
 20
0.0
  0
LWPOLYLINE
  5
397
102
{ACAD_REACTORS
330
398
102
}
100
AcDbEntity
  8
MST_1_1
 62
    12
100
AcDbPolyline
 90
      114
 70
     1
 43
0.0
 10
266.43271306
 20
169.75210249
 10
266.39835906
 20
169.80692084
 10
266.36580106
 20
169.85947129
 10
266.33504506
 20
169.90977694
 10
266.30609706
 20
169.95786089
 10
266.27896306
 20
170.00374624
 10
266.25364906
 20
170.04745609
 10
266.23016106
 20
170.08901354
 10
266.20850506
 20
170.12844169
 10
266.18868706
 20
170.16576364
 10
266.17071306
 20
170.20100249
 10
266.17071306
 20
170.20100249
 10
266.1534104
 20
170.23495366
 10
266.13709173
 20
170.26816383
 10
266.12174106
 20
170.30064299
 10
266.1073424
 20
170.33240116
 10
266.09387973
 20
170.36344833
 10
266.08133706
 20
170.39379449
 10
266.0696984
 20
170.42344966
 10
266.05894773
 20
170.45242383
 10
266.04906906
 20
170.48072699
 10
266.0400464
 20
170.50836916
 10
266.0400464
 20
170.50836916
 10
266.03238206
 20
170.48216518
 10
266.02395173
 20
170.45540129
 10
266.0146994
 20
170.42807461
 10
266.00456906
 20
170.40018223
 10
265.99350473
 20
170.37172124
 10
265.9814504
 20
170.34268876
 10
265.96835006
 20
170.31308188
 10
265.95414773
 20
170.28289769
 10
265.9387874
 20
170.25213331
 10
265.92221306
 20
170.22078583
 10
265.92221306
 20
170.22078583
 10
265.90487673
 20
170.18737984
 10
265.8848824
 20
170.15094196
 10
265.86225206
 20
170.11148728
 10
265.83700773
 20
170.06903089
 10
265.8091714
 20
170.02358791
 10
265.77876506
 20
169.97517343
 10
265.74581073
 20
169.92380254
 10
265.7103304
 20
169.86949036
 10
265.67234606
 20
169.81225198
 10
265.63187973
 20
169.75210249
 10
265.63187973
 20
169.75210249
 10
264.24221306
 20
167.69098583
 10
264.24221306
 20
167.69098583
 10
259.2145464
 20
167.69098583
 10
259.2145464
 20
167.69098583
 10
263.55737973
 20
172.53100249
 10
263.55737973
 20
172.53100249
 10
259.72537973
 20
176.77750249
 10
259.72537973
 20
176.77750249
 10
264.74487973
 20
176.77750249
 10
264.74487973
 20
176.77750249
 10
265.64821306
 20
175.29441916
 10
265.64821306
 20
175.29441916
 10
265.65103906
 20
175.28890608
 10
265.65440106
 20
175.28280849
 10
265.65827506
 20
175.27612891
 10
265.66263706
 20
175.26886983
 10
265.66746306
 20
175.26103374
 10
265.67272906
 20
175.25262316
 10
265.67841106
 20
175.24364058
 10
265.68448506
 20
175.23408849
 10
265.69092706
 20
175.22396941
 10
265.69771306
 20
175.21328583
 10
265.69771306
 20
175.21328583
 10
265.7464484
 20
175.13063291
 10
265.79195573
 20
175.05138449
 10
265.83423706
 20
174.97555608
 10
265.8732944
 20
174.90316316
 10
265.90912973
 20
174.83422124
 10
265.94174506
 20
174.76874583
 10
265.9711424
 20
174.70675241
 10
265.99732373
 20
174.64825649
 10
266.02029106
 20
174.59327358
 10
266.0400464
 20
174.54181916
 10
266.0400464
 20
174.54181916
 10
266.05216006
 20
174.57446246
 10
266.06481573
 20
174.60721156
 10
266.0780354
 20
174.64008026
 10
266.09184106
 20
174.67308236
 10
266.10625473
 20
174.70623166
 10
266.1212984
 20
174.73954196
 10
266.13699406
 20
174.77302706
 10
266.15336373
 20
174.80670076
 10
266.1704294
 20
174.84057686
 10
266.18821306
 20
174.87466916
 10
266.18821306
 20
174.87466916
 10
266.2054994
 20
174.90975151
 10
266.22412373
 20
174.94639196
 10
266.24403406
 20
174.98458061
 10
266.2651784
 20
175.02430756
 10
266.28750473
 20
175.06556291
 10
266.31096106
 20
175.10833676
 10
266.3354954
 20
175.15261921
 10
266.36105573
 20
175.19840036
 10
266.38759006
 20
175.24567031
 10
266.4150464
 20
175.29441916
 10
266.4150464
 20
175.29441916
 10
267.3425464
 20
176.77750249
 10
267.3425464
 20
176.77750249
 10
272.33921306
 20
176.77750249
 10
272.33921306
 20
176.77750249
 10
268.51987973
 20
172.53100249
 10
268.51987973
 20
172.53100249
 10
272.8675464
 20
167.69098583
 10
272.8675464
 20
167.69098583
 10
267.83537973
 20
167.69098583
 10
267.83537973
 20
167.69098583
 10
266.43271306
 20
169.75210249
 10
266.43271306
 20
169.75210249
 10
266.43271306
 20
169.75210249
  0
HATCH
  5
398
100
AcDbEntity
  8
MST_1_1
 62
    12
100
AcDbHatch
 10
0.0
 20
0.0
 30
0.0
210
0.0
220
0.0
230
1.0
  2
SOLID
 70
     1
 71
     1
 91
        1
 92
        7
 72
     0
 73
     1
 93
       92
 10
266.43271306
 20
169.75210249
 10
266.39835906
 20
169.80692084
 10
266.36580106
 20
169.85947129
 10
266.33504506
 20
169.90977694
 10
266.30609706
 20
169.95786089
 10
266.27896306
 20
170.00374624
 10
266.25364906
 20
170.04745609
 10
266.23016106
 20
170.08901354
 10
266.20850506
 20
170.12844169
 10
266.18868706
 20
170.16576364
 10
266.17071306
 20
170.20100249
 10
266.1534104
 20
170.23495366
 10
266.13709173
 20
170.26816383
 10
266.12174106
 20
170.30064299
 10
266.1073424
 20
170.33240116
 10
266.09387973
 20
170.36344833
 10
266.08133706
 20
170.39379449
 10
266.0696984
 20
170.42344966
 10
266.05894773
 20
170.45242383
 10
266.04906906
 20
170.48072699
 10
266.0400464
 20
170.50836916
 10
266.03238206
 20
170.48216518
 10
266.02395173
 20
170.45540129
 10
266.0146994
 20
170.42807461
 10
266.00456906
 20
170.40018223
 10
265.99350473
 20
170.37172124
 10
265.9814504
 20
170.34268876
 10
265.96835006
 20
170.31308188
 10
265.95414773
 20
170.28289769
 10
265.9387874
 20
170.25213331
 10
265.92221306
 20
170.22078583
 10
265.90487673
 20
170.18737984
 10
265.8848824
 20
170.15094196
 10
265.86225206
 20
170.11148728
 10
265.83700773
 20
170.06903089
 10
265.8091714
 20
170.02358791
 10
265.77876506
 20
169.97517343
 10
265.74581073
 20
169.92380254
 10
265.7103304
 20
169.86949036
 10
265.67234606
 20
169.81225198
 10
265.63187973
 20
169.75210249
 10
264.24221306
 20
167.69098583
 10
259.2145464
 20
167.69098583
 10
263.55737973
 20
172.53100249
 10
259.72537973
 20
176.77750249
 10
264.74487973
 20
176.77750249
 10
265.64821306
 20
175.29441916
 10
265.65103906
 20
175.28890608
 10
265.65440106
 20
175.28280849
 10
265.65827506
 20
175.27612891
 10
265.66263706
 20
175.26886983
 10
265.66746306
 20
175.26103374
 10
265.67272906
 20
175.25262316
 10
265.67841106
 20
175.24364058
 10
265.68448506
 20
175.23408849
 10
265.69092706
 20
175.22396941
 10
265.69771306
 20
175.21328583
 10
265.7464484
 20
175.13063291
 10
265.79195573
 20
175.05138449
 10
265.83423706
 20
174.97555608
 10
265.8732944
 20
174.90316316
 10
265.90912973
 20
174.83422124
 10
265.94174506
 20
174.76874583
 10
265.9711424
 20
174.70675241
 10
265.99732373
 20
174.64825649
 10
266.02029106
 20
174.59327358
 10
266.0400464
 20
174.54181916
 10
266.05216006
 20
174.57446246
 10
266.06481573
 20
174.60721156
 10
266.0780354
 20
174.64008026
 10
266.09184106
 20
174.67308236
 10
266.10625473
 20
174.70623166
 10
266.1212984
 20
174.73954196
 10
266.13699406
 20
174.77302706
 10
266.15336373
 20
174.80670076
 10
266.1704294
 20
174.84057686
 10
266.18821306
 20
174.87466916
 10
266.2054994
 20
174.90975151
 10
266.22412373
 20
174.94639196
 10
266.24403406
 20
174.98458061
 10
266.2651784
 20
175.02430756
 10
266.28750473
 20
175.06556291
 10
266.31096106
 20
175.10833676
 10
266.3354954
 20
175.15261921
 10
266.36105573
 20
175.19840036
 10
266.38759006
 20
175.24567031
 10
266.4150464
 20
175.29441916
 10
267.3425464
 20
176.77750249
 10
272.33921306
 20
176.77750249
 10
268.51987973
 20
172.53100249
 10
272.8675464
 20
167.69098583
 10
267.83537973
 20
167.69098583
 97
        1
330
397
 75
     0
 76
     2
 47
0.775229
 98
        1
 10
0.0
 20
0.0
  0
LWPOLYLINE
  5
399
102
{ACAD_REACTORS
330
39A
102
}
100
AcDbEntity
  8
MST_1_1
 62
     7
100
AcDbPolyline
 90
       46
 70
     1
 43
0.0
 10
277.18271306
 20
182.90355249
 10
277.29524356
 20
182.89443899
 10
277.40215706
 20
182.86806449
 10
277.50198656
 20
182.82587799
 10
277.59326506
 20
182.76932849
 10
277.67452556
 20
182.69986499
 10
277.74430106
 20
182.61893649
 10
277.80112456
 20
182.52799199
 10
277.84352906
 20
182.42848049
 10
277.87004756
 20
182.32185099
 10
277.87921306
 20
182.20955249
 10
277.87921306
 20
182.20955249
 10
277.87004756
 20
182.09739883
 10
277.84352906
 20
181.99090316
 10
277.80112456
 20
181.89151349
 10
277.74430106
 20
181.80067783
 10
277.67452556
 20
181.71984416
 10
277.59326506
 20
181.65046049
 10
277.50198656
 20
181.59397483
 10
277.40215706
 20
181.55183516
 10
277.29524356
 20
181.52548949
 10
277.18271306
 20
181.51638583
 10
277.18271306
 20
181.51638583
 10
277.06959223
 20
181.52548949
 10
276.9622864
 20
181.55183516
 10
276.86223056
 20
181.59397483
 10
276.77085973
 20
181.65046049
 10
276.6896089
 20
181.71984416
 10
276.61991306
 20
181.80067783
 10
276.56320723
 20
181.89151349
 10
276.5209264
 20
181.99090316
 10
276.49450556
 20
182.09739883
 10
276.48537973
 20
182.20955249
 10
276.48537973
 20
182.20955249
 10
276.49450556
 20
182.32185099
 10
276.5209264
 20
182.42848049
 10
276.56320723
 20
182.52799199
 10
276.61991306
 20
182.61893649
 10
276.6896089
 20
182.69986499
 10
276.77085973
 20
182.76932849
 10
276.86223056
 20
182.82587799
 10
276.9622864
 20
182.86806449
 10
277.06959223
 20
182.89443899
 10
277.18271306
 20
182.90355249
 10
277.18271306
 20
182.90355249
 10
277.18271306
 20
182.90355249
  0
HATCH
  5
39A
100
AcDbEntity
  8
MST_1_1
 62
     7
100
AcDbHatch
 10
0.0
 20
0.0
 30
0.0
210
0.0
220
0.0
230
1.0
  2
SOLID
 70
     1
 71
     1
 91
        1
 92
        7
 72
     0
 73
     1
 93
       40
 10
277.18271306
 20
182.90355249
 10
277.29524356
 20
182.89443899
 10
277.40215706
 20
182.86806449
 10
277.50198656
 20
182.82587799
 10
277.59326506
 20
182.76932849
 10
277.67452556
 20
182.69986499
 10
277.74430106
 20
182.61893649
 10
277.80112456
 20
182.52799199
 10
277.84352906
 20
182.42848049
 10
277.87004756
 20
182.32185099
 10
277.87921306
 20
182.20955249
 10
277.87004756
 20
182.09739883
 10
277.84352906
 20
181.99090316
 10
277.80112456
 20
181.89151349
 10
277.74430106
 20
181.80067783
 10
277.67452556
 20
181.71984416
 10
277.59326506
 20
181.65046049
 10
277.50198656
 20
181.59397483
 10
277.40215706
 20
181.55183516
 10
277.29524356
 20
181.52548949
 10
277.18271306
 20
181.51638583
 10
277.06959223
 20
181.52548949
 10
276.9622864
 20
181.55183516
 10
276.86223056
 20
181.59397483
 10
276.77085973
 20
181.65046049
 10
276.6896089
 20
181.71984416
 10
276.61991306
 20
181.80067783
 10
276.56320723
 20
181.89151349
 10
276.5209264
 20
181.99090316
 10
276.49450556
 20
182.09739883
 10
276.48537973
 20
182.20955249
 10
276.49450556
 20
182.32185099
 10
276.5209264
 20
182.42848049
 10
276.56320723
 20
182.52799199
 10
276.61991306
 20
182.61893649
 10
276.6896089
 20
182.69986499
 10
276.77085973
 20
182.76932849
 10
276.86223056
 20
182.82587799
 10
276.9622864
 20
182.86806449
 10
277.06959223
 20
182.89443899
 97
        1
330
399
 75
     0
 76
     2
 47
0.775229
 98
        1
 10
0.0
 20
0.0
  0
LWPOLYLINE
  5
39B
102
{ACAD_REACTORS
330
39C
102
}
100
AcDbEntity
  8
MST_1_1
 62
    12
100
AcDbPolyline
 90
       29
 70
     1
 43
0.0
 10
276.8630464
 20
182.69155249
 10
276.8630464
 20
181.78488583
 10
276.8630464
 20
181.78488583
 10
276.99721306
 20
181.78488583
 10
276.99721306
 20
181.78488583
 10
276.99721306
 20
182.19188583
 10
276.99721306
 20
182.19188583
 10
277.1755464
 20
182.19188583
 10
277.1755464
 20
182.19188583
 10
277.43487973
 20
181.79088583
 10
277.43487973
 20
181.79088583
 10
277.5710464
 20
181.79088583
 10
277.5710464
 20
181.79088583
 10
277.31221306
 20
182.19921916
 10
277.31221306
 20
182.19921916
 10
277.40080006
 20
182.21764083
 10
277.47046906
 20
182.25779249
 10
277.52093206
 20
182.31410416
 10
277.55190106
 20
182.38100583
 10
277.56308806
 20
182.45292749
 10
277.55420506
 20
182.52429916
 10
277.52496406
 20
182.58955083
 10
277.47507706
 20
182.64311249
 10
277.40425606
 20
182.67941416
 10
277.31221306
 20
182.69288583
 10
277.31221306
 20
182.69288583
 10
276.8630464
 20
182.69155249
 10
276.8630464
 20
182.69155249
 10
276.8630464
 20
182.69155249
  0
HATCH
  5
39C
100
AcDbEntity
  8
MST_1_1
 62
    12
100
AcDbHatch
 10
0.0
 20
0.0
 30
0.0
210
0.0
220
0.0
230
1.0
  2
SOLID
 70
     1
 71
     1
 91
        1
 92
        7
 72
     0
 73
     1
 93
       18
 10
276.8630464
 20
182.69155249
 10
276.8630464
 20
181.78488583
 10
276.99721306
 20
181.78488583
 10
276.99721306
 20
182.19188583
 10
277.1755464
 20
182.19188583
 10
277.43487973
 20
181.79088583
 10
277.5710464
 20
181.79088583
 10
277.31221306
 20
182.19921916
 10
277.40080006
 20
182.21764083
 10
277.47046906
 20
182.25779249
 10
277.52093206
 20
182.31410416
 10
277.55190106
 20
182.38100583
 10
277.56308806
 20
182.45292749
 10
277.55420506
 20
182.52429916
 10
277.52496406
 20
182.58955083
 10
277.47507706
 20
182.64311249
 10
277.40425606
 20
182.67941416
 10
277.31221306
 20
182.69288583
 97
        1
330
39B
 75
     0
 76
     2
 47
0.775229
 98
        1
 10
0.0
 20
0.0
  0
LWPOLYLINE
  5
39D
102
{ACAD_REACTORS
330
39E
102
}
100
AcDbEntity
  8
MST_1_1
 62
     7
100
AcDbPolyline
 90
       19
 70
     1
 43
0.0
 10
276.99721306
 20
182.58838583
 10
276.99721306
 20
182.29771916
 10
276.99721306
 20
182.29771916
 10
277.2985464
 20
182.29855249
 10
277.2985464
 20
182.29855249
 10
277.3515249
 20
182.31040283
 10
277.3929944
 20
182.33477516
 10
277.4228559
 20
182.36840149
 10
277.4410104
 20
182.40801383
 10
277.4473589
 20
182.45034416
 10
277.4418024
 20
182.49212449
 10
277.4242419
 20
182.53008683
 10
277.3945784
 20
182.56096316
 10
277.3527129
 20
182.58148549
 10
277.2985464
 20
182.58838583
 10
277.2985464
 20
182.58838583
 10
276.99721306
 20
182.58838583
 10
276.99721306
 20
182.58838583
 10
276.99721306
 20
182.58838583
  0
HATCH
  5
39E
100
AcDbEntity
  8
MST_1_1
 62
     7
100
AcDbHatch
 10
0.0
 20
0.0
 30
0.0
210
0.0
220
0.0
230
1.0
  2
SOLID
 70
     1
 71
     1
 91
        1
 92
        7
 72
     0
 73
     1
 93
       13
 10
276.99721306
 20
182.58838583
 10
276.99721306
 20
182.29771916
 10
277.2985464
 20
182.29855249
 10
277.3515249
 20
182.31040283
 10
277.3929944
 20
182.33477516
 10
277.4228559
 20
182.36840149
 10
277.4410104
 20
182.40801383
 10
277.4473589
 20
182.45034416
 10
277.4418024
 20
182.49212449
 10
277.4242419
 20
182.53008683
 10
277.3945784
 20
182.56096316
 10
277.3527129
 20
182.58148549
 10
277.2985464
 20
182.58838583
 97
        1
330
39D
 75
     0
 76
     2
 47
0.775229
 98
        1
 10
0.0
 20
0.0
  0
TEXT
  5
39F
100
AcDbEntity
  8
MST_1_1
 62
     7
100
AcDbText
 10
52.93749597
 20
28.54545025
 30
0.0
 40
5.0
  1
50
  7
ARIAL
 50
89.9999975
 41
0.8
 51
0.0
100
AcDbText
  0
TEXT
  5
3A0
100
AcDbEntity
  8
MST_1_1
 62
     7
100
AcDbText
 10
42.93749597
 20
28.54545025
 30
0.0
 40
5.0
  1
40
  7
ARIAL
 50
89.9999975
 41
0.8
 51
0.0
100
AcDbText
  0
TEXT
  5
3A1
100
AcDbEntity
  8
MST_1_1
 62
     7
100
AcDbText
 10
37.93749597
 20
18.54545025
 30
0.0
 40
5.0
  1
35
  7
ARIAL
 50
89.9999975
 41
0.8
 51
0.0
100
AcDbText
  0
TEXT
  5
3A2
100
AcDbEntity
  8
MST_1_1
 62
     7
100
AcDbText
 10
32.93749597
 20
28.54545025
 30
0.0
 40
5.0
  1
30
  7
ARIAL
 50
89.9999975
 41
0.8
 51
0.0
100
AcDbText
  0
TEXT
  5
3A3
100
AcDbEntity
  8
MST_1_1
 62
     7
100
AcDbText
 10
22.93749597
 20
28.54545025
 30
0.0
 40
5.0
  1
20
  7
ARIAL
 50
89.9999975
 41
0.8
 51
0.0
100
AcDbText
  0
TEXT
  5
3A4
100
AcDbEntity
  8
MST_1_1
 62
     7
100
AcDbText
 10
27.93749597
 20
18.54545025
 30
0.0
 40
5.0
  1
25
  7
ARIAL
 50
89.9999975
 41
0.8
 51
0.0
100
AcDbText
  0
TEXT
  5
3A5
100
AcDbEntity
  8
MST_1_1
 62
     7
100
AcDbText
 10
-74.34408066
 20
6.04545025
 30
0.0
 40
5.0
  1
HECO-FIX-plus SK 5.0x20
  7
ARIAL
 50
0.0
 41
0.8
 51
0.0
100
AcDbText
  0
TEXT
  5
3A6
100
AcDbEntity
  8
MST_1_1
 62
     7
100
AcDbText
 10
-74.34408066
 20
-23.95454975
 30
0.0
 40
5.0
  1
HECO-FIX-plus SK 5.0x25
  7
ARIAL
 50
0.0
 41
0.8
 51
0.0
100
AcDbText
  0
TEXT
  5
3A7
100
AcDbEntity
  8
MST_1_1
 62
     7
100
AcDbText
 10
-74.34408066
 20
-53.95454975
 30
0.0
 40
5.0
  1
HECO-FIX-plus SK 5.0x30
  7
ARIAL
 50
0.0
 41
0.8
 51
0.0
100
AcDbText
  0
TEXT
  5
3A8
100
AcDbEntity
  8
MST_1_1
 62
     7
100
AcDbText
 10
-74.34408066
 20
-83.95454975
 30
0.0
 40
5.0
  1
HECO-FIX-plus SK 5.0x35
  7
ARIAL
 50
0.0
 41
0.8
 51
0.0
100
AcDbText
  0
TEXT
  5
3A9
100
AcDbEntity
  8
MST_1_1
 62
     7
100
AcDbText
 10
-74.34408066
 20
-113.95454975
 30
0.0
 40
5.0
  1
HECO-FIX-plus SK 5.0x40
  7
ARIAL
 50
0.0
 41
0.8
 51
0.0
100
AcDbText
  0
TEXT
  5
3AA
100
AcDbEntity
  8
MST_1_1
 62
     7
100
AcDbText
 10
-74.34408066
 20
-143.95454975
 30
0.0
 40
5.0
  1
HECO-FIX-plus SK 5.0x50
  7
ARIAL
 50
0.0
 41
0.8
 51
0.0
100
AcDbText
  0
TEXT
  5
3AB
100
AcDbEntity
  8
MST_1_1
 62
     7
100
AcDbText
 10
57.93749597
 20
18.54545025
 30
0.0
 40
5.0
  1
55
  7
ARIAL
 50
89.9999975
 41
0.8
 51
0.0
100
AcDbText
  0
TEXT
  5
3AC
100
AcDbEntity
  8
MST_1_1
 62
     7
100
AcDbText
 10
62.93749597
 20
28.54545025
 30
0.0
 40
5.0
  1
60
  7
ARIAL
 50
89.9999975
 41
0.8
 51
0.0
100
AcDbText
  0
TEXT
  5
3AD
100
AcDbEntity
  8
MST_1_1
 62
     7
100
AcDbText
 10
-74.34408066
 20
-173.95454975
 30
0.0
 40
5.0
  1
HECO-FIX-plus SK 5.0x55
  7
ARIAL
 50
0.0
 41
0.8
 51
0.0
100
AcDbText
  0
TEXT
  5
3AE
100
AcDbEntity
  8
MST_1_1
 62
     7
100
AcDbText
 10
-74.34408066
 20
-203.95454975
 30
0.0
 40
5.0
  1
HECO-FIX-plus SK 5.0x60
  7
ARIAL
 50
0.0
 41
0.8
 51
0.0
100
AcDbText
  0
TEXT
  5
3AF
100
AcDbEntity
  8
MST_1_1
 62
     7
100
AcDbText
 10
-130.76846664
 20
6.04545025
 30
0.0
 40
5.0
  1
T-Drive T25
  7
ARIAL
 50
0.0
 41
0.8
 51
0.0
100
AcDbText
  0
TEXT
  5
3B0
100
AcDbEntity
  8
MST_1_1
 62
     7
100
AcDbText
 10
-130.76846664
 20
-23.95454975
 30
0.0
 40
5.0
  1
T-Drive T25
  7
ARIAL
 50
0.0
 41
0.8
 51
0.0
100
AcDbText
  0
TEXT
  5
3B1
100
AcDbEntity
  8
MST_1_1
 62
     7
100
AcDbText
 10
-130.76846664
 20
-53.95454975
 30
0.0
 40
5.0
  1
T-Drive T25
  7
ARIAL
 50
0.0
 41
0.8
 51
0.0
100
AcDbText
  0
TEXT
  5
3B2
100
AcDbEntity
  8
MST_1_1
 62
     7
100
AcDbText
 10
-130.76846664
 20
-83.95454975
 30
0.0
 40
5.0
  1
T-Drive T25
  7
ARIAL
 50
0.0
 41
0.8
 51
0.0
100
AcDbText
  0
TEXT
  5
3B3
100
AcDbEntity
  8
MST_1_1
 62
     7
100
AcDbText
 10
-130.76846664
 20
-113.95454975
 30
0.0
 40
5.0
  1
T-Drive T25
  7
ARIAL
 50
0.0
 41
0.8
 51
0.0
100
AcDbText
  0
TEXT
  5
3B4
100
AcDbEntity
  8
MST_1_1
 62
     7
100
AcDbText
 10
-130.76846664
 20
-143.95454975
 30
0.0
 40
5.0
  1
T-Drive T25
  7
ARIAL
 50
0.0
 41
0.8
 51
0.0
100
AcDbText
  0
TEXT
  5
3B5
100
AcDbEntity
  8
MST_1_1
 62
     7
100
AcDbText
 10
-130.76846664
 20
-173.95454975
 30
0.0
 40
5.0
  1
T-Drive T25
  7
ARIAL
 50
0.0
 41
0.8
 51
0.0
100
AcDbText
  0
TEXT
  5
3B6
100
AcDbEntity
  8
MST_1_1
 62
     7
100
AcDbText
 10
-130.76846664
 20
-203.95454975
 30
0.0
 40
5.0
  1
T-Drive T25
  7
ARIAL
 50
0.0
 41
0.8
 51
0.0
100
AcDbText
  0
ENDSEC
  0
SECTION
  2
OBJECTS
  0
DICTIONARY
  5
1
100
AcDbDictionary
  3
ACAD_GROUP
350
2
  3
ACAD_MLINESTYLE
350
3
  0
DICTIONARY
  5
2
102
{CDWK_REACTORS
330
1
102
}
100
AcDbDictionary
  0
DICTIONARY
  5
3
102
{CDWK_REACTORS
330
1
102
}
100
AcDbDictionary
  3
STANDARD
350
4
  0
MLINESTYLE
  5
4
102
{CDWK_REACTORS
330
3
102
}
100
AcDbMlineStyle
  2
STANDARD
 70
     0
  3

 62
     0
 51
90.0
 52
90.0
 71
     2
 49
0.5
 62
   256
  6
BYLAYER
 49
-0.5
 62
   256
  6
BYLAYER
  0
ENDSEC
  0
EOF
