  0
SECTION
  2
HEADER
  9
$ACADVER
  1
AC1027
  9
$ACADMAINTVER
 70
   105
  9
$DWGCODEPAGE
  3
ANSI_1252
  9
$REQUIREDVERSIONS
160
                 0
  9
$INSBASE
 10
0.0
 20
0.0
 30
0.0
  9
$EXTMIN
 10
1.000000000000000E+20
 20
1.000000000000000E+20
 30
1.000000000000000E+20
  9
$EXTMAX
 10
-1.000000000000000E+20
 20
-1.000000000000000E+20
 30
-1.000000000000000E+20
  9
$LIMMIN
 10
0.0
 20
0.0
  9
$LIMMAX
 10
12.0
 20
9.0
  9
$ORTHOMODE
 70
     0
  9
$REGENMODE
 70
     1
  9
$FILLMODE
 70
     1
  9
$QTEXTMODE
 70
     0
  9
$MIRRTEXT
 70
     1
  9
$LTSCALE
 40
1.0
  9
$ATTMODE
 70
     1
  9
$TEXTSIZE
 40
0.2
  9
$TRACEWID
 40
0.05
  9
$TEXTSTYLE
  7
Standard
  9
$CLAYER
  8
0
  9
$CELTYPE
  6
ByLayer
  9
$CECOLOR
 62
   256
  9
$CELTSCALE
 40
1.0
  9
$DISPSILH
 70
     0
  9
$DIMSCALE
 40
1.0
  9
$DIMASZ
 40
0.18
  9
$DIMEXO
 40
0.0625
  9
$DIMDLI
 40
0.38
  9
$DIMRND
 40
0.0
  9
$DIMDLE
 40
0.0
  9
$DIMEXE
 40
0.18
  9
$DIMTP
 40
0.0
  9
$DIMTM
 40
0.0
  9
$DIMTXT
 40
0.18
  9
$DIMCEN
 40
0.09
  9
$DIMTSZ
 40
0.0
  9
$DIMTOL
 70
     0
  9
$DIMLIM
 70
     0
  9
$DIMTIH
 70
     1
  9
$DIMTOH
 70
     1
  9
$DIMSE1
 70
     0
  9
$DIMSE2
 70
     0
  9
$DIMTAD
 70
     0
  9
$DIMZIN
 70
     0
  9
$DIMBLK
  1

  9
$DIMASO
 70
     1
  9
$DIMSHO
 70
     1
  9
$DIMPOST
  1

  9
$DIMAPOST
  1

  9
$DIMALT
 70
     0
  9
$DIMALTD
 70
     2
  9
$DIMALTF
 40
25.4
  9
$DIMLFAC
 40
1.0
  9
$DIMTOFL
 70
     1
  9
$DIMTVP
 40
0.0
  9
$DIMTIX
 70
     0
  9
$DIMSOXD
 70
     1
  9
$DIMSAH
 70
     0
  9
$DIMBLK1
  1

  9
$DIMBLK2
  1

  9
$DIMSTYLE
  2
Standard
  9
$DIMCLRD
 70
     0
  9
$DIMCLRE
 70
     0
  9
$DIMCLRT
 70
     0
  9
$DIMTFAC
 40
1.0
  9
$DIMGAP
 40
0.09
  9
$DIMJUST
 70
     0
  9
$DIMSD1
 70
     0
  9
$DIMSD2
 70
     0
  9
$DIMTOLJ
 70
     1
  9
$DIMTZIN
 70
     0
  9
$DIMALTZ
 70
     0
  9
$DIMALTTZ
 70
     0
  9
$DIMUPT
 70
     0
  9
$DIMDEC
 70
     4
  9
$DIMTDEC
 70
     4
  9
$DIMALTU
 70
     2
  9
$DIMALTTD
 70
     2
  9
$DIMTXSTY
  7
Standard
  9
$DIMAUNIT
 70
     0
  9
$DIMADEC
 70
     0
  9
$DIMALTRND
 40
0.0
  9
$DIMAZIN
 70
     0
  9
$DIMDSEP
 70
    46
  9
$DIMATFIT
 70
     3
  9
$DIMFRAC
 70
     0
  9
$DIMLDRBLK
  1

  9
$DIMLUNIT
 70
     2
  9
$DIMLWD
 70
    -2
  9
$DIMLWE
 70
    -2
  9
$DIMTMOVE
 70
     2
  9
$DIMFXL
 40
1.0
  9
$DIMFXLON
 70
     0
  9
$DIMJOGANG
 40
0.7853981633974483
  9
$DIMTFILL
 70
     0
  9
$DIMTFILLCLR
 70
     0
  9
$DIMARCSYM
 70
     0
  9
$DIMLTYPE
  6

  9
$DIMLTEX1
  6

  9
$DIMLTEX2
  6

  9
$DIMTXTDIRECTION
 70
     0
  9
$LUNITS
 70
     2
  9
$LUPREC
 70
     4
  9
$SKETCHINC
 40
0.1
  9
$FILLETRAD
 40
0.5
  9
$AUNITS
 70
     0
  9
$AUPREC
 70
     0
  9
$MENU
  1
.
  9
$ELEVATION
 40
0.0
  9
$PELEVATION
 40
0.0
  9
$THICKNESS
 40
0.0
  9
$LIMCHECK
 70
     0
  9
$CHAMFERA
 40
0.0
  9
$CHAMFERB
 40
0.0
  9
$CHAMFERC
 40
0.0
  9
$CHAMFERD
 40
0.0
  9
$SKPOLY
 70
     0
  9
$TDCREATE
 40
2458947.438738704
  9
$TDUCREATE
 40
2458947.35540537
  9
$TDUPDATE
 40
2458947.438740903
  9
$TDUUPDATE
 40
2458947.35540757
  9
$TDINDWG
 40
0.0000000116
  9
$TDUSRTIMER
 40
0.0000000116
  9
$USRTIMER
 70
     1
  9
$ANGBASE
 50
0.0
  9
$ANGDIR
 70
     0
  9
$PDMODE
 70
     0
  9
$PDSIZE
 40
0.0
  9
$PLINEWID
 40
0.0
  9
$SPLFRAME
 70
     0
  9
$SPLINETYPE
 70
     6
  9
$SPLINESEGS
 70
     8
  9
$HANDSEED
  5
285
  9
$SURFTAB1
 70
     6
  9
$SURFTAB2
 70
     6
  9
$SURFTYPE
 70
     6
  9
$SURFU
 70
     6
  9
$SURFV
 70
     6
  9
$UCSBASE
  2

  9
$UCSNAME
  2

  9
$UCSORG
 10
0.0
 20
0.0
 30
0.0
  9
$UCSXDIR
 10
1.0
 20
0.0
 30
0.0
  9
$UCSYDIR
 10
0.0
 20
1.0
 30
0.0
  9
$UCSORTHOREF
  2

  9
$UCSORTHOVIEW
 70
     0
  9
$UCSORGTOP
 10
0.0
 20
0.0
 30
0.0
  9
$UCSORGBOTTOM
 10
0.0
 20
0.0
 30
0.0
  9
$UCSORGLEFT
 10
0.0
 20
0.0
 30
0.0
  9
$UCSORGRIGHT
 10
0.0
 20
0.0
 30
0.0
  9
$UCSORGFRONT
 10
0.0
 20
0.0
 30
0.0
  9
$UCSORGBACK
 10
0.0
 20
0.0
 30
0.0
  9
$PUCSBASE
  2

  9
$PUCSNAME
  2

  9
$PUCSORG
 10
0.0
 20
0.0
 30
0.0
  9
$PUCSXDIR
 10
1.0
 20
0.0
 30
0.0
  9
$PUCSYDIR
 10
0.0
 20
1.0
 30
0.0
  9
$PUCSORTHOREF
  2

  9
$PUCSORTHOVIEW
 70
     0
  9
$PUCSORGTOP
 10
0.0
 20
0.0
 30
0.0
  9
$PUCSORGBOTTOM
 10
0.0
 20
0.0
 30
0.0
  9
$PUCSORGLEFT
 10
0.0
 20
0.0
 30
0.0
  9
$PUCSORGRIGHT
 10
0.0
 20
0.0
 30
0.0
  9
$PUCSORGFRONT
 10
0.0
 20
0.0
 30
0.0
  9
$PUCSORGBACK
 10
0.0
 20
0.0
 30
0.0
  9
$USERI1
 70
     0
  9
$USERI2
 70
     0
  9
$USERI3
 70
     0
  9
$USERI4
 70
     0
  9
$USERI5
 70
     0
  9
$USERR1
 40
0.0
  9
$USERR2
 40
0.0
  9
$USERR3
 40
0.0
  9
$USERR4
 40
0.0
  9
$USERR5
 40
0.0
  9
$WORLDVIEW
 70
     1
  9
$SHADEDGE
 70
     3
  9
$SHADEDIF
 70
    70
  9
$TILEMODE
 70
     1
  9
$MAXACTVP
 70
    64
  9
$PINSBASE
 10
0.0
 20
0.0
 30
0.0
  9
$PLIMCHECK
 70
     0
  9
$PEXTMIN
 10
0.0
 20
0.0
 30
0.0
  9
$PEXTMAX
 10
0.0
 20
0.0
 30
0.0
  9
$PLIMMIN
 10
-20.0
 20
-7.5
  9
$PLIMMAX
 10
277.0
 20
202.5
  9
$UNITMODE
 70
     0
  9
$VISRETAIN
 70
     1
  9
$PLINEGEN
 70
     0
  9
$PSLTSCALE
 70
     0
  9
$TREEDEPTH
 70
  3020
  9
$CMLSTYLE
  2
Standard
  9
$CMLJUST
 70
     0
  9
$CMLSCALE
 40
1.0
  9
$PROXYGRAPHICS
 70
     1
  9
$MEASUREMENT
 70
     1
  9
$CELWEIGHT
370
    -1
  9
$ENDCAPS
280
     0
  9
$JOINSTYLE
280
     0
  9
$LWDISPLAY
290
     0
  9
$INSUNITS
 70
     4
  9
$HYPERLINKBASE
  1

  9
$STYLESHEET
  1

  9
$XEDIT
290
     1
  9
$CEPSNTYPE
380
     0
  9
$PSTYLEMODE
290
     0
  9
$FINGERPRINTGUID
  2
{17613DC0-7885-4ECB-8E04-7CC265B55666}
  9
$VERSIONGUID
  2
{FAEB1C32-E019-11D5-929B-00C0DF256EC4}
  9
$EXTNAMES
290
     1
  9
$PSVPSCALE
 40
0.0
  9
$OLESTARTUP
290
     0
  9
$SORTENTS
280
   127
  9
$INDEXCTL
280
     0
  9
$HIDETEXT
280
     1
  9
$XCLIPFRAME
280
     2
  9
$HALOGAP
280
     0
  9
$OBSCOLOR
 70
   257
  9
$OBSLTYPE
280
     0
  9
$INTERSECTIONDISPLAY
280
     0
  9
$INTERSECTIONCOLOR
 70
   257
  9
$DIMASSOC
280
     2
  9
$PROJECTNAME
  1

  9
$CAMERADISPLAY
290
     0
  9
$LENSLENGTH
 40
50.0
  9
$CAMERAHEIGHT
 40
0.0
  9
$STEPSPERSEC
 40
2.0
  9
$STEPSIZE
 40
6.0
  9
$3DDWFPREC
 40
2.0
  9
$PSOLWIDTH
 40
0.25
  9
$PSOLHEIGHT
 40
4.0
  9
$LOFTANG1
 40
1.570796326794897
  9
$LOFTANG2
 40
1.570796326794897
  9
$LOFTMAG1
 40
0.0
  9
$LOFTMAG2
 40
0.0
  9
$LOFTPARAM
 70
     7
  9
$LOFTNORMALS
280
     1
  9
$LATITUDE
 40
37.795
  9
$LONGITUDE
 40
-122.394
  9
$NORTHDIRECTION
 40
0.0
  9
$TIMEZONE
 70
 -8000
  9
$LIGHTGLYPHDISPLAY
280
     1
  9
$TILEMODELIGHTSYNCH
280
     1
  9
$CMATERIAL
347
44
  9
$SOLIDHIST
280
     0
  9
$SHOWHIST
280
     1
  9
$DWFFRAME
280
     2
  9
$DGNFRAME
280
     2
  9
$REALWORLDSCALE
290
     1
  9
$INTERFERECOLOR
 62
   256
  9
$CSHADOW
280
     0
  9
$SHADOWPLANELOCATION
 40
0.0
  0
ENDSEC
  0
SECTION
  2
CLASSES
  0
CLASS
  1
ACDBDICTIONARYWDFLT
  2
AcDbDictionaryWithDefault
  3
ObjectDBX Classes
 90
        0
 91
        3
280
     0
281
     0
  0
CLASS
  1
VISUALSTYLE
  2
AcDbVisualStyle
  3
ObjectDBX Classes
 90
     4095
 91
        3
280
     0
281
     0
  0
CLASS
  1
MATERIAL
  2
AcDbMaterial
  3
ObjectDBX Classes
 90
     1153
 91
        3
280
     0
281
     0
  0
CLASS
  1
SCALE
  2
AcDbScale
  3
ObjectDBX Classes
 90
     1153
 91
        3
280
     0
281
     0
  0
CLASS
  1
TABLESTYLE
  2
AcDbTableStyle
  3
ObjectDBX Classes
 90
     4095
 91
        3
280
     0
281
     0
  0
CLASS
  1
MLEADERSTYLE
  2
AcDbMLeaderStyle
  3
ACDB_MLEADERSTYLE_CLASS
 90
     4095
 91
        3
280
     0
281
     0
  0
CLASS
  1
SUN
  2
AcDbSun
  3
SCENEOE
 90
     1153
 91
        3
280
     0
281
     0
  0
CLASS
  1
RASTERVARIABLES
  2
AcDbRasterVariables
  3
ISM
 90
        0
 91
        3
280
     0
281
     0
  0
CLASS
  1
PLOTSETTINGS
  2
AcDbPlotSettings
  3
ObjectDBX Classes
 90
        0
 91
        3
280
     0
281
     0
  0
CLASS
  1
WIPEOUT
  2
AcDbWipeout
  3
WipeOut|AutoCAD Express Tool|expresstools@autodesk.com
 90
      127
 91
        3
280
     0
281
     1
  0
CLASS
  1
DICTIONARYVAR
  2
AcDbDictionaryVar
  3
ObjectDBX Classes
 90
        0
 91
        3
280
     0
281
     0
  0
CLASS
  1
CELLSTYLEMAP
  2
AcDbCellStyleMap
  3
ObjectDBX Classes
 90
     1152
 91
        3
280
     0
281
     0
  0
ENDSEC
  0
SECTION
  2
TABLES
  0
TABLE
  2
VPORT
  5
8
330
0
100
AcDbSymbolTable
 70
     1
  0
VPORT
  5
29
330
8
100
AcDbSymbolTableRecord
100
AcDbViewportTableRecord
  2
*Active
 70
     0
 10
0.0
 20
0.0
 11
1.0
 21
1.0
 12
10.42990654205607
 22
4.5
 13
0.0
 23
0.0
 14
0.5
 24
0.5
 15
0.5
 25
0.5
 16
0.0
 26
0.0
 36
1.0
 17
0.0
 27
0.0
 37
0.0
 40
9.0
 41
1.972972972850329
 42
50.0
 43
0.0
 44
0.0
 50
0.0
 51
0.0
 71
     0
 72
   100
 73
     1
 74
     3
 75
     0
 76
     0
 77
     0
 78
     0
281
     0
 65
     1
110
0.0
120
0.0
130
0.0
111
1.0
121
0.0
131
0.0
112
0.0
122
1.0
132
0.0
 79
     0
146
0.0
348
2F
 60
     3
 61
     5
292
     1
282
     1
141
0.0
142
0.0
 63
   250
361
6D
  0
ENDTAB
  0
TABLE
  2
LTYPE
  5
5
330
0
100
AcDbSymbolTable
 70
     5
  0
LTYPE
  5
14
330
5
100
AcDbSymbolTableRecord
100
AcDbLinetypeTableRecord
  2
ByBlock
 70
     0
  3

 72
    65
 73
     0
 40
0.0
  0
LTYPE
  5
15
330
5
100
AcDbSymbolTableRecord
100
AcDbLinetypeTableRecord
  2
ByLayer
 70
     0
  3

 72
    65
 73
     0
 40
0.0
  0
LTYPE
  5
16
330
5
100
AcDbSymbolTableRecord
100
AcDbLinetypeTableRecord
  2
Continuous
 70
     0
  3
Solid line
 72
    65
 73
     0
 40
0.0
  0
LTYPE
  5
172
330
5
100
AcDbSymbolTableRecord
100
AcDbLinetypeTableRecord
  2
CADWORK_3
 70
     0
  3

 72
    65
 73
     2
 40
4.0
 49
2.0
 74
     0
 49
-2.0
 74
     0
  0
LTYPE
  5
226
330
5
100
AcDbSymbolTableRecord
100
AcDbLinetypeTableRecord
  2
CADWORK_4
 70
     0
  3

 72
    65
 73
     2
 40
9.0
 49
5.75
 74
     0
 49
-3.25
 74
     0
  0
LTYPE
  5
26A
330
5
100
AcDbSymbolTableRecord
100
AcDbLinetypeTableRecord
  2
CADWORK_8
 70
     0
  3

 72
    65
 73
     6
 40
16.0
 49
6.0
 74
     0
 49
-1.0
 74
     0
 49
6.0
 74
     0
 49
-1.0
 74
     0
 49
1.0
 74
     0
 49
-1.0
 74
     0
  0
LTYPE
  5
274
330
5
100
AcDbSymbolTableRecord
100
AcDbLinetypeTableRecord
  2
CADWORK_5
 70
     0
  3

 72
    65
 73
     4
 40
13.2
 49
10.0
 74
     0
 49
-1.5
 74
     0
 49
0.2
 74
     0
 49
-1.5
 74
     0
  0
ENDTAB
  0
TABLE
  2
LAYER
  5
2
330
0
100
AcDbSymbolTable
 70
     2
  0
LAYER
  5
10
330
2
100
AcDbSymbolTableRecord
100
AcDbLayerTableRecord
  2
0
 70
     0
 62
     7
  6
Continuous
370
    -3
390
F
347
46
348
0
  0
LAYER
  5
70
330
2
100
AcDbSymbolTableRecord
100
AcDbLayerTableRecord
  2
Mst 1_1
 70
     0
 62
     7
  6
Continuous
370
    -3
390
F
347
46
348
0
  0
ENDTAB
  0
TABLE
  2
STYLE
  5
3
330
0
100
AcDbSymbolTable
 70
     7
  0
STYLE
  5
11
330
3
100
AcDbSymbolTableRecord
100
AcDbTextStyleTableRecord
  2
Standard
 70
     0
 40
0.0
 41
1.0
 50
0.0
 71
     0
 42
0.2
  3
txt
  4

  0
STYLE
  5
71
330
3
100
AcDbSymbolTableRecord
100
AcDbTextStyleTableRecord
  2
CwStyleShx
 70
     0
 40
1.0
 41
1.0
 50
0.0
 71
     0
 42
0.2
  3

  4

  0
STYLE
  5
72
330
3
100
AcDbSymbolTableRecord
100
AcDbTextStyleTableRecord
  2
CwStyleShx16
 70
     0
 40
1.0
 41
1.0
 50
0.0
 71
     0
 42
0.2
  3

  4

  0
STYLE
  5
73
330
3
100
AcDbSymbolTableRecord
100
AcDbTextStyleTableRecord
  2
MONOTXT
 70
     0
 40
0.0
 41
1.0
 50
0.0
 71
     0
 42
0.2
  3
MONOTXT
  4

  0
STYLE
  5
74
330
3
100
AcDbSymbolTableRecord
100
AcDbTextStyleTableRecord
  2
SYMAP
 70
     0
 40
1.0
 41
1.0
 50
0.0
 71
     0
 42
0.2
  3
SYMAP
  4

  0
STYLE
  5
75
330
3
100
AcDbSymbolTableRecord
100
AcDbTextStyleTableRecord
  2
CwStyleTtf
 70
     0
 40
1.0
 41
1.0
 50
0.0
 71
     0
 42
0.2
  3
arial.ttf
  4

  0
STYLE
  5
277
330
3
100
AcDbSymbolTableRecord
100
AcDbTextStyleTableRecord
  2
arial-
 70
     0
 40
1.0
 41
1.0
 50
0.0
 71
     0
 42
0.2
  3
arial.ttf
  4

1001
ACAD
1000
Arial
1071
        0
  0
ENDTAB
  0
TABLE
  2
VIEW
  5
6
330
0
100
AcDbSymbolTable
 70
     0
  0
ENDTAB
  0
TABLE
  2
UCS
  5
7
330
0
100
AcDbSymbolTable
 70
     0
  0
ENDTAB
  0
TABLE
  2
APPID
  5
9
330
0
100
AcDbSymbolTable
 70
     3
  0
APPID
  5
12
330
9
100
AcDbSymbolTableRecord
100
AcDbRegAppTableRecord
  2
ACAD
 70
     0
  0
APPID
  5
6E
330
9
100
AcDbSymbolTableRecord
100
AcDbRegAppTableRecord
  2
Cadwork
 70
     0
  0
APPID
  5
222
330
9
100
AcDbSymbolTableRecord
100
AcDbRegAppTableRecord
  2
PLOTTRANSPARENCY
 70
     0
  0
ENDTAB
  0
TABLE
  2
DIMSTYLE
  5
A
330
0
100
AcDbSymbolTable
 70
     1
100
AcDbDimStyleTable
  0
DIMSTYLE
105
27
330
A
100
AcDbSymbolTableRecord
100
AcDbDimStyleTableRecord
  2
Standard
 70
     0
178
     0
340
11
  0
ENDTAB
  0
TABLE
  2
BLOCK_RECORD
  5
1
330
0
100
AcDbSymbolTable
 70
    69
  0
BLOCK_RECORD
  5
1F
330
1
100
AcDbSymbolTableRecord
100
AcDbBlockTableRecord
  2
*Model_Space
340
22
 70
     0
280
     1
281
     0
  0
BLOCK_RECORD
  5
21D
330
1
100
AcDbSymbolTableRecord
100
AcDbBlockTableRecord
  2
*Paper_Space
340
21E
 70
     0
280
     1
281
     0
  0
BLOCK_RECORD
  5
76
330
1
100
AcDbSymbolTableRecord
100
AcDbBlockTableRecord
  2
CDWK_PTTYP1
340
0
 70
     0
280
     1
281
     1
  0
BLOCK_RECORD
  5
7D
330
1
100
AcDbSymbolTableRecord
100
AcDbBlockTableRecord
  2
CDWK_PTTYP2
340
0
 70
     0
280
     1
281
     1
  0
BLOCK_RECORD
  5
82
330
1
100
AcDbSymbolTableRecord
100
AcDbBlockTableRecord
  2
CDWK_PTTYP4
340
0
 70
     0
280
     1
281
     1
  0
BLOCK_RECORD
  5
86
330
1
100
AcDbSymbolTableRecord
100
AcDbBlockTableRecord
  2
CDWK_PTTYP5
340
0
 70
     0
280
     1
281
     1
  0
BLOCK_RECORD
  5
8F
330
1
100
AcDbSymbolTableRecord
100
AcDbBlockTableRecord
  2
CDWK_PTTYP6
340
0
 70
     0
280
     1
281
     1
  0
BLOCK_RECORD
  5
97
330
1
100
AcDbSymbolTableRecord
100
AcDbBlockTableRecord
  2
CDWK_PTTYP7
340
0
 70
     0
280
     1
281
     1
  0
BLOCK_RECORD
  5
A0
330
1
100
AcDbSymbolTableRecord
100
AcDbBlockTableRecord
  2
CDWK_PTTYP8
340
0
 70
     0
280
     1
281
     1
  0
BLOCK_RECORD
  5
A4
330
1
100
AcDbSymbolTableRecord
100
AcDbBlockTableRecord
  2
CDWK_PTTYP9
340
0
 70
     0
280
     1
281
     1
  0
BLOCK_RECORD
  5
A9
330
1
100
AcDbSymbolTableRecord
100
AcDbBlockTableRecord
  2
CDWK_PTTYP10
340
0
 70
     0
280
     1
281
     1
  0
BLOCK_RECORD
  5
AD
330
1
100
AcDbSymbolTableRecord
100
AcDbBlockTableRecord
  2
CDWK_PTTYP11
340
0
 70
     0
280
     1
281
     1
  0
BLOCK_RECORD
  5
B2
330
1
100
AcDbSymbolTableRecord
100
AcDbBlockTableRecord
  2
CDWK_PTTYP12
340
0
 70
     0
280
     1
281
     1
  0
BLOCK_RECORD
  5
B7
330
1
100
AcDbSymbolTableRecord
100
AcDbBlockTableRecord
  2
CDWK_PTTYP13
340
0
 70
     0
280
     1
281
     1
  0
BLOCK_RECORD
  5
BD
330
1
100
AcDbSymbolTableRecord
100
AcDbBlockTableRecord
  2
CDWK_PTTYP16
340
0
 70
     0
280
     1
281
     1
  0
BLOCK_RECORD
  5
C4
330
1
100
AcDbSymbolTableRecord
100
AcDbBlockTableRecord
  2
CDWK_PTTYP17
340
0
 70
     0
280
     1
281
     1
  0
BLOCK_RECORD
  5
C9
330
1
100
AcDbSymbolTableRecord
100
AcDbBlockTableRecord
  2
CDWK_PTTYP18
340
0
 70
     0
280
     1
281
     1
  0
BLOCK_RECORD
  5
CE
330
1
100
AcDbSymbolTableRecord
100
AcDbBlockTableRecord
  2
CDWK_PTTYP19
340
0
 70
     0
280
     1
281
     1
  0
BLOCK_RECORD
  5
D4
330
1
100
AcDbSymbolTableRecord
100
AcDbBlockTableRecord
  2
CDWK_PTTYP20
340
0
 70
     0
280
     1
281
     1
  0
BLOCK_RECORD
  5
D9
330
1
100
AcDbSymbolTableRecord
100
AcDbBlockTableRecord
  2
CDWK_PTTYP21
340
0
 70
     0
280
     1
281
     1
  0
BLOCK_RECORD
  5
DE
330
1
100
AcDbSymbolTableRecord
100
AcDbBlockTableRecord
  2
CDWK_PTTYP25
340
0
 70
     0
280
     1
281
     1
  0
BLOCK_RECORD
  5
E5
330
1
100
AcDbSymbolTableRecord
100
AcDbBlockTableRecord
  2
CDWK_PTTYP26
340
0
 70
     0
280
     1
281
     1
  0
BLOCK_RECORD
  5
EC
330
1
100
AcDbSymbolTableRecord
100
AcDbBlockTableRecord
  2
CDWK_PTTYP27
340
0
 70
     0
280
     1
281
     1
  0
BLOCK_RECORD
  5
F4
330
1
100
AcDbSymbolTableRecord
100
AcDbBlockTableRecord
  2
CDWK_PTTYP28
340
0
 70
     0
280
     1
281
     1
  0
BLOCK_RECORD
  5
FB
330
1
100
AcDbSymbolTableRecord
100
AcDbBlockTableRecord
  2
CDWK_PTTYP29
340
0
 70
     0
280
     1
281
     1
  0
BLOCK_RECORD
  5
101
330
1
100
AcDbSymbolTableRecord
100
AcDbBlockTableRecord
  2
CDWK_PTTYP30
340
0
 70
     0
280
     1
281
     1
  0
BLOCK_RECORD
  5
108
330
1
100
AcDbSymbolTableRecord
100
AcDbBlockTableRecord
  2
CDWK_PTTYP31
340
0
 70
     0
280
     1
281
     1
  0
BLOCK_RECORD
  5
110
330
1
100
AcDbSymbolTableRecord
100
AcDbBlockTableRecord
  2
CDWK_PTTYP32
340
0
 70
     0
280
     1
281
     1
  0
BLOCK_RECORD
  5
119
330
1
100
AcDbSymbolTableRecord
100
AcDbBlockTableRecord
  2
CDWK_PTTYP33
340
0
 70
     0
280
     1
281
     1
  0
BLOCK_RECORD
  5
11F
330
1
100
AcDbSymbolTableRecord
100
AcDbBlockTableRecord
  2
CDWK_PTTYP34
340
0
 70
     0
280
     1
281
     1
  0
BLOCK_RECORD
  5
125
330
1
100
AcDbSymbolTableRecord
100
AcDbBlockTableRecord
  2
CDWK_PTTYP35
340
0
 70
     0
280
     1
281
     1
  0
BLOCK_RECORD
  5
12B
330
1
100
AcDbSymbolTableRecord
100
AcDbBlockTableRecord
  2
CDWK_PTTYP36
340
0
 70
     0
280
     1
281
     1
  0
BLOCK_RECORD
  5
133
330
1
100
AcDbSymbolTableRecord
100
AcDbBlockTableRecord
  2
CDWK_PTTYP37
340
0
 70
     0
280
     1
281
     1
  0
BLOCK_RECORD
  5
138
330
1
100
AcDbSymbolTableRecord
100
AcDbBlockTableRecord
  2
CDWK_PTTYP38
340
0
 70
     0
280
     1
281
     1
  0
BLOCK_RECORD
  5
13E
330
1
100
AcDbSymbolTableRecord
100
AcDbBlockTableRecord
  2
CDWK_PTTYP41
340
0
 70
     0
280
     1
281
     1
  0
BLOCK_RECORD
  5
148
330
1
100
AcDbSymbolTableRecord
100
AcDbBlockTableRecord
  2
CDWK_PTTYP42
340
0
 70
     0
280
     1
281
     1
  0
BLOCK_RECORD
  5
151
330
1
100
AcDbSymbolTableRecord
100
AcDbBlockTableRecord
  2
CDWK_PTTYP43
340
0
 70
     0
280
     1
281
     1
  0
BLOCK_RECORD
  5
157
330
1
100
AcDbSymbolTableRecord
100
AcDbBlockTableRecord
  2
CDWK_PTTYP44
340
0
 70
     0
280
     1
281
     1
  0
BLOCK_RECORD
  5
160
330
1
100
AcDbSymbolTableRecord
100
AcDbBlockTableRecord
  2
CDWK_PTTYP45
340
0
 70
     0
280
     1
281
     1
  0
BLOCK_RECORD
  5
165
330
1
100
AcDbSymbolTableRecord
100
AcDbBlockTableRecord
  2
CDWK_PTTYP46
340
0
 70
     0
280
     1
281
     1
  0
BLOCK_RECORD
  5
16A
330
1
100
AcDbSymbolTableRecord
100
AcDbBlockTableRecord
  2
CDWK_PTTYP47
340
0
 70
     0
280
     1
281
     1
  0
BLOCK_RECORD
  5
173
330
1
100
AcDbSymbolTableRecord
100
AcDbBlockTableRecord
  2
CDWK_PTTYP48
340
0
 70
     0
280
     1
281
     1
  0
BLOCK_RECORD
  5
178
330
1
100
AcDbSymbolTableRecord
100
AcDbBlockTableRecord
  2
CDWK_PTTYP49
340
0
 70
     0
280
     1
281
     1
  0
BLOCK_RECORD
  5
17F
330
1
100
AcDbSymbolTableRecord
100
AcDbBlockTableRecord
  2
CDWK_PTTYP50
340
0
 70
     0
280
     1
281
     1
  0
BLOCK_RECORD
  5
189
330
1
100
AcDbSymbolTableRecord
100
AcDbBlockTableRecord
  2
CDWK_PTTYP51
340
0
 70
     0
280
     1
281
     1
  0
BLOCK_RECORD
  5
18E
330
1
100
AcDbSymbolTableRecord
100
AcDbBlockTableRecord
  2
CDWK_PTTYP52
340
0
 70
     0
280
     1
281
     1
  0
BLOCK_RECORD
  5
194
330
1
100
AcDbSymbolTableRecord
100
AcDbBlockTableRecord
  2
cw-dimension-symbol1
340
0
 70
     0
280
     1
281
     0
  0
BLOCK_RECORD
  5
19B
330
1
100
AcDbSymbolTableRecord
100
AcDbBlockTableRecord
  2
cw-dimension-symbol2
340
0
 70
     0
280
     1
281
     0
  0
BLOCK_RECORD
  5
1A0
330
1
100
AcDbSymbolTableRecord
100
AcDbBlockTableRecord
  2
cw-dimension-symbol3
340
0
 70
     0
280
     1
281
     0
  0
BLOCK_RECORD
  5
1A5
330
1
100
AcDbSymbolTableRecord
100
AcDbBlockTableRecord
  2
cw-dimension-symbol5
340
0
 70
     0
280
     1
281
     0
  0
BLOCK_RECORD
  5
1AC
330
1
100
AcDbSymbolTableRecord
100
AcDbBlockTableRecord
  2
cw-dimension-symbol6
340
0
 70
     0
280
     1
281
     0
  0
BLOCK_RECORD
  5
1B2
330
1
100
AcDbSymbolTableRecord
100
AcDbBlockTableRecord
  2
cw-dimension-symbol11
340
0
 70
     0
280
     1
281
     0
  0
BLOCK_RECORD
  5
1B8
330
1
100
AcDbSymbolTableRecord
100
AcDbBlockTableRecord
  2
cw-dimension-symbol13
340
0
 70
     0
280
     1
281
     0
  0
BLOCK_RECORD
  5
1BE
330
1
100
AcDbSymbolTableRecord
100
AcDbBlockTableRecord
  2
cw-dimension-symbol15
340
0
 70
     0
280
     1
281
     0
  0
BLOCK_RECORD
  5
1C5
330
1
100
AcDbSymbolTableRecord
100
AcDbBlockTableRecord
  2
cw-dimension-symbol16
340
0
 70
     0
280
     1
281
     0
  0
BLOCK_RECORD
  5
1CC
330
1
100
AcDbSymbolTableRecord
100
AcDbBlockTableRecord
  2
cw-dimension-symbol17
340
0
 70
     0
280
     1
281
     0
  0
BLOCK_RECORD
  5
1D3
330
1
100
AcDbSymbolTableRecord
100
AcDbBlockTableRecord
  2
cw-dimension-symbol18
340
0
 70
     0
280
     1
281
     0
  0
BLOCK_RECORD
  5
1DA
330
1
100
AcDbSymbolTableRecord
100
AcDbBlockTableRecord
  2
cw-dimension-symbol19
340
0
 70
     0
280
     1
281
     0
  0
BLOCK_RECORD
  5
1DD
330
1
100
AcDbSymbolTableRecord
100
AcDbBlockTableRecord
  2
cw-dimension-symbol20
340
0
 70
     0
280
     1
281
     0
  0
BLOCK_RECORD
  5
1E4
330
1
100
AcDbSymbolTableRecord
100
AcDbBlockTableRecord
  2
cw-dimension-symbol21
340
0
 70
     0
280
     1
281
     0
  0
BLOCK_RECORD
  5
1EB
330
1
100
AcDbSymbolTableRecord
100
AcDbBlockTableRecord
  2
cw-line-extremity0
340
0
 70
     0
280
     1
281
     0
  0
BLOCK_RECORD
  5
1EF
330
1
100
AcDbSymbolTableRecord
100
AcDbBlockTableRecord
  2
cw-line-extremity2
340
0
 70
     0
280
     1
281
     0
  0
BLOCK_RECORD
  5
1F4
330
1
100
AcDbSymbolTableRecord
100
AcDbBlockTableRecord
  2
cw-line-extremity3
340
0
 70
     0
280
     1
281
     0
  0
BLOCK_RECORD
  5
1F9
330
1
100
AcDbSymbolTableRecord
100
AcDbBlockTableRecord
  2
cw-line-extremity301
340
0
 70
     0
280
     1
281
     0
  0
BLOCK_RECORD
  5
1FB
330
1
100
AcDbSymbolTableRecord
100
AcDbBlockTableRecord
  2
cw-line-extremity4
340
0
 70
     0
280
     1
281
     0
  0
BLOCK_RECORD
  5
1FD
330
1
100
AcDbSymbolTableRecord
100
AcDbBlockTableRecord
  2
cw-line-extremity5
340
0
 70
     0
280
     1
281
     0
  0
BLOCK_RECORD
  5
1FF
330
1
100
AcDbSymbolTableRecord
100
AcDbBlockTableRecord
  2
cw-line-extremity6
340
0
 70
     0
280
     1
281
     0
  0
BLOCK_RECORD
  5
201
330
1
100
AcDbSymbolTableRecord
100
AcDbBlockTableRecord
  2
cw-line-extremity9
340
0
 70
     0
280
     1
281
     0
  0
BLOCK_RECORD
  5
203
330
1
100
AcDbSymbolTableRecord
100
AcDbBlockTableRecord
  2
cw-line-extremity10
340
0
 70
     0
280
     1
281
     0
  0
BLOCK_RECORD
  5
205
330
1
100
AcDbSymbolTableRecord
100
AcDbBlockTableRecord
  2
cw-line-extremity1
340
0
 70
     0
280
     1
281
     0
  0
BLOCK_RECORD
  5
1B
330
1
100
AcDbSymbolTableRecord
100
AcDbBlockTableRecord
  2
*Paper_Space69
340
1E
 70
     0
280
     1
281
     0
  0
ENDTAB
  0
ENDSEC
  0
SECTION
  2
BLOCKS
  0
BLOCK
  5
20
330
1F
100
AcDbEntity
  8
0
100
AcDbBlockBegin
  2
*Model_Space
 70
     0
 10
0.0
 20
0.0
 30
0.0
  3
*Model_Space
  1

  0
ENDBLK
  5
21
330
1F
100
AcDbEntity
  8
0
100
AcDbBlockEnd
  0
BLOCK
  5
21F
330
21D
100
AcDbEntity
 67
     1
  8
0
100
AcDbBlockBegin
  2
*Paper_Space
 70
     0
 10
0.0
 20
0.0
 30
0.0
  3
*Paper_Space
  1

  0
ENDBLK
  5
220
330
21D
100
AcDbEntity
 67
     1
  8
0
100
AcDbBlockEnd
  0
BLOCK
  5
7B
330
76
100
AcDbEntity
  8
0
100
AcDbBlockBegin
  2
CDWK_PTTYP1
 70
     0
 10
0.0
 20
0.0
 30
0.0
  3
CDWK_PTTYP1
  1

  0
LINE
  5
77
330
76
100
AcDbEntity
  8
0
 62
     0
370
    -2
100
AcDbLine
 10
-0.5
 20
0.5
 30
0.0
 11
0.5
 21
0.5
 31
0.0
  0
LINE
  5
78
330
76
100
AcDbEntity
  8
0
 62
     0
370
    -2
100
AcDbLine
 10
0.5
 20
0.5
 30
0.0
 11
0.5
 21
-0.5
 31
0.0
  0
LINE
  5
79
330
76
100
AcDbEntity
  8
0
 62
     0
370
    -2
100
AcDbLine
 10
0.5
 20
-0.5
 30
0.0
 11
-0.5
 21
-0.5
 31
0.0
  0
LINE
  5
7A
330
76
100
AcDbEntity
  8
0
 62
     0
370
    -2
100
AcDbLine
 10
-0.5
 20
-0.5
 30
0.0
 11
-0.5
 21
0.5
 31
0.0
  0
ENDBLK
  5
7C
330
76
100
AcDbEntity
  8
0
100
AcDbBlockEnd
  0
BLOCK
  5
80
330
7D
100
AcDbEntity
  8
0
100
AcDbBlockBegin
  2
CDWK_PTTYP2
 70
     0
 10
0.0
 20
0.0
 30
0.0
  3
CDWK_PTTYP2
  1

  0
LINE
  5
7E
330
7D
100
AcDbEntity
  8
0
 62
     0
370
    -2
100
AcDbLine
 10
0.0
 20
0.5
 30
0.0
 11
0.0
 21
-0.5
 31
0.0
  0
LINE
  5
7F
330
7D
100
AcDbEntity
  8
0
 62
     0
370
    -2
100
AcDbLine
 10
0.5
 20
0.0
 30
0.0
 11
-0.5
 21
0.0
 31
0.0
  0
ENDBLK
  5
81
330
7D
100
AcDbEntity
  8
0
100
AcDbBlockEnd
  0
BLOCK
  5
84
330
82
100
AcDbEntity
  8
0
100
AcDbBlockBegin
  2
CDWK_PTTYP4
 70
     0
 10
0.0
 20
0.0
 30
0.0
  3
CDWK_PTTYP4
  1

  0
HATCH
  5
83
330
82
100
AcDbEntity
  8
0
 62
     0
370
    -2
100
AcDbHatch
 10
0.0
 20
0.0
 30
0.0
210
0.0
220
0.0
230
1.0
  2
SOLID
 70
     1
 71
     1
 91
        1
 92
        1
 93
        1
 72
     2
 10
0.0
 20
0.0
 40
0.5
 50
0.0
 51
360.0
 73
     1
 97
        0
 75
     0
 76
     1
 98
        0
  0
ENDBLK
  5
85
330
82
100
AcDbEntity
  8
0
100
AcDbBlockEnd
  0
BLOCK
  5
8D
330
86
100
AcDbEntity
  8
0
100
AcDbBlockBegin
  2
CDWK_PTTYP5
 70
     0
 10
0.0
 20
0.0
 30
0.0
  3
CDWK_PTTYP5
  1

  0
LINE
  5
87
330
86
100
AcDbEntity
  8
0
 62
     0
370
    -2
100
AcDbLine
 10
-0.5
 20
0.5
 30
0.0
 11
0.5
 21
0.5
 31
0.0
  0
LINE
  5
88
330
86
100
AcDbEntity
  8
0
 62
     0
370
    -2
100
AcDbLine
 10
0.5
 20
0.5
 30
0.0
 11
0.5
 21
-0.5
 31
0.0
  0
LINE
  5
89
330
86
100
AcDbEntity
  8
0
 62
     0
370
    -2
100
AcDbLine
 10
0.5
 20
-0.5
 30
0.0
 11
-0.5
 21
-0.5
 31
0.0
  0
LINE
  5
8A
330
86
100
AcDbEntity
  8
0
 62
     0
370
    -2
100
AcDbLine
 10
-0.5
 20
-0.5
 30
0.0
 11
-0.5
 21
0.5
 31
0.0
  0
HATCH
  5
8B
330
86
100
AcDbEntity
  8
0
 62
     0
370
    -2
100
AcDbHatch
 10
0.0
 20
0.0
 30
0.0
210
0.0
220
0.0
230
1.0
  2
SOLID
 70
     1
 71
     1
 91
        1
 92
        3
 72
     0
 73
     1
 93
        4
 10
-0.5
 20
0.0
 10
0.0
 20
0.0
 10
0.0
 20
-0.5
 10
-0.5
 20
-0.5
 97
        0
 75
     0
 76
     1
 98
        0
  0
HATCH
  5
8C
330
86
100
AcDbEntity
  8
0
 62
     0
370
    -2
100
AcDbHatch
 10
0.0
 20
0.0
 30
0.0
210
0.0
220
0.0
230
1.0
  2
SOLID
 70
     1
 71
     1
 91
        1
 92
        3
 72
     0
 73
     1
 93
        4
 10
0.0
 20
0.0
 10
0.5
 20
0.0
 10
0.5
 20
0.5
 10
0.0
 20
0.5
 97
        0
 75
     0
 76
     1
 98
        0
  0
ENDBLK
  5
8E
330
86
100
AcDbEntity
  8
0
100
AcDbBlockEnd
  0
BLOCK
  5
95
330
8F
100
AcDbEntity
  8
0
100
AcDbBlockBegin
  2
CDWK_PTTYP6
 70
     0
 10
0.0
 20
0.0
 30
0.0
  3
CDWK_PTTYP6
  1

  0
LINE
  5
90
330
8F
100
AcDbEntity
  8
0
 62
     0
370
    -2
100
AcDbLine
 10
-0.5
 20
0.5
 30
0.0
 11
0.5
 21
0.5
 31
0.0
  0
LINE
  5
91
330
8F
100
AcDbEntity
  8
0
 62
     0
370
    -2
100
AcDbLine
 10
0.5
 20
0.5
 30
0.0
 11
0.5
 21
-0.5
 31
0.0
  0
LINE
  5
92
330
8F
100
AcDbEntity
  8
0
 62
     0
370
    -2
100
AcDbLine
 10
0.5
 20
-0.5
 30
0.0
 11
-0.5
 21
-0.5
 31
0.0
  0
LINE
  5
93
330
8F
100
AcDbEntity
  8
0
 62
     0
370
    -2
100
AcDbLine
 10
-0.5
 20
-0.5
 30
0.0
 11
-0.5
 21
0.5
 31
0.0
  0
HATCH
  5
94
330
8F
100
AcDbEntity
  8
0
 62
     0
370
    -2
100
AcDbHatch
 10
0.0
 20
0.0
 30
0.0
210
0.0
220
0.0
230
1.0
  2
SOLID
 70
     1
 71
     1
 91
        1
 92
        3
 72
     0
 73
     1
 93
        3
 10
-0.5
 20
-0.5
 10
-0.5
 20
0.5
 10
0.5
 20
0.5
 97
        0
 75
     0
 76
     1
 98
        0
  0
ENDBLK
  5
96
330
8F
100
AcDbEntity
  8
0
100
AcDbBlockEnd
  0
BLOCK
  5
9E
330
97
100
AcDbEntity
  8
0
100
AcDbBlockBegin
  2
CDWK_PTTYP7
 70
     0
 10
0.0
 20
0.0
 30
0.0
  3
CDWK_PTTYP7
  1

  0
LINE
  5
98
330
97
100
AcDbEntity
  8
0
 62
     0
370
    -2
100
AcDbLine
 10
-0.5
 20
0.5
 30
0.0
 11
0.5
 21
0.5
 31
0.0
  0
LINE
  5
99
330
97
100
AcDbEntity
  8
0
 62
     0
370
    -2
100
AcDbLine
 10
0.5
 20
0.5
 30
0.0
 11
0.5
 21
-0.5
 31
0.0
  0
LINE
  5
9A
330
97
100
AcDbEntity
  8
0
 62
     0
370
    -2
100
AcDbLine
 10
0.5
 20
-0.5
 30
0.0
 11
-0.5
 21
-0.5
 31
0.0
  0
LINE
  5
9B
330
97
100
AcDbEntity
  8
0
 62
     0
370
    -2
100
AcDbLine
 10
-0.5
 20
-0.5
 30
0.0
 11
-0.5
 21
0.5
 31
0.0
  0
LINE
  5
9C
330
97
100
AcDbEntity
  8
0
 62
     0
370
    -2
100
AcDbLine
 10
0.0
 20
0.5
 30
0.0
 11
0.0
 21
-0.5
 31
0.0
  0
LINE
  5
9D
330
97
100
AcDbEntity
  8
0
 62
     0
370
    -2
100
AcDbLine
 10
0.5
 20
0.0
 30
0.0
 11
-0.5
 21
0.0
 31
0.0
  0
ENDBLK
  5
9F
330
97
100
AcDbEntity
  8
0
100
AcDbBlockEnd
  0
BLOCK
  5
A2
330
A0
100
AcDbEntity
  8
0
100
AcDbBlockBegin
  2
CDWK_PTTYP8
 70
     0
 10
0.0
 20
0.0
 30
0.0
  3
CDWK_PTTYP8
  1

  0
HATCH
  5
A1
330
A0
100
AcDbEntity
  8
0
 62
     0
370
    -2
100
AcDbHatch
 10
0.0
 20
0.0
 30
0.0
210
0.0
220
0.0
230
1.0
  2
SOLID
 70
     1
 71
     1
 91
        1
 92
        3
 72
     0
 73
     1
 93
        4
 10
0.5
 20
0.5
 10
0.5
 20
-0.5
 10
-0.5
 20
-0.5
 10
-0.5
 20
0.5
 97
        0
 75
     0
 76
     1
 98
        0
  0
ENDBLK
  5
A3
330
A0
100
AcDbEntity
  8
0
100
AcDbBlockEnd
  0
BLOCK
  5
A7
330
A4
100
AcDbEntity
  8
0
100
AcDbBlockBegin
  2
CDWK_PTTYP9
 70
     0
 10
0.0
 20
0.0
 30
0.0
  3
CDWK_PTTYP9
  1

  0
CIRCLE
  5
A5
330
A4
100
AcDbEntity
  8
0
 62
     0
370
    -2
100
AcDbCircle
 10
0.0
 20
0.0
 30
0.0
 40
0.1666666666666667
  0
CIRCLE
  5
A6
330
A4
100
AcDbEntity
  8
0
 62
     0
370
    -2
100
AcDbCircle
 10
0.0
 20
0.0
 30
0.0
 40
0.5
  0
ENDBLK
  5
A8
330
A4
100
AcDbEntity
  8
0
100
AcDbBlockEnd
  0
BLOCK
  5
AB
330
A9
100
AcDbEntity
  8
0
100
AcDbBlockBegin
  2
CDWK_PTTYP10
 70
     0
 10
0.0
 20
0.0
 30
0.0
  3
CDWK_PTTYP10
  1

  0
CIRCLE
  5
AA
330
A9
100
AcDbEntity
  8
0
 62
     0
370
    -2
100
AcDbCircle
 10
0.0
 20
0.0
 30
0.0
 40
0.5
  0
ENDBLK
  5
AC
330
A9
100
AcDbEntity
  8
0
100
AcDbBlockEnd
  0
BLOCK
  5
B0
330
AD
100
AcDbEntity
  8
0
100
AcDbBlockBegin
  2
CDWK_PTTYP11
 70
     0
 10
0.0
 20
0.0
 30
0.0
  3
CDWK_PTTYP11
  1

  0
CIRCLE
  5
AE
330
AD
100
AcDbEntity
  8
0
 62
     0
370
    -2
100
AcDbCircle
 10
0.0
 20
0.0
 30
0.0
 40
0.25
  0
CIRCLE
  5
AF
330
AD
100
AcDbEntity
  8
0
 62
     0
370
    -2
100
AcDbCircle
 10
0.0
 20
0.0
 30
0.0
 40
0.5
  0
ENDBLK
  5
B1
330
AD
100
AcDbEntity
  8
0
100
AcDbBlockEnd
  0
BLOCK
  5
B5
330
B2
100
AcDbEntity
  8
0
100
AcDbBlockBegin
  2
CDWK_PTTYP12
 70
     0
 10
0.0
 20
0.0
 30
0.0
  3
CDWK_PTTYP12
  1

  0
CIRCLE
  5
B3
330
B2
100
AcDbEntity
  8
0
 62
     0
370
    -2
100
AcDbCircle
 10
0.25
 20
0.0
 30
0.0
 40
0.25
  0
CIRCLE
  5
B4
330
B2
100
AcDbEntity
  8
0
 62
     0
370
    -2
100
AcDbCircle
 10
0.0
 20
0.0
 30
0.0
 40
0.5
  0
ENDBLK
  5
B6
330
B2
100
AcDbEntity
  8
0
100
AcDbBlockEnd
  0
BLOCK
  5
BB
330
B7
100
AcDbEntity
  8
0
100
AcDbBlockBegin
  2
CDWK_PTTYP13
 70
     0
 10
0.0
 20
0.0
 30
0.0
  3
CDWK_PTTYP13
  1

  0
CIRCLE
  5
B8
330
B7
100
AcDbEntity
  8
0
 62
     0
370
    -2
100
AcDbCircle
 10
-0.25
 20
0.0
 30
0.0
 40
0.25
  0
CIRCLE
  5
B9
330
B7
100
AcDbEntity
  8
0
 62
     0
370
    -2
100
AcDbCircle
 10
0.25
 20
0.0
 30
0.0
 40
0.25
  0
CIRCLE
  5
BA
330
B7
100
AcDbEntity
  8
0
 62
     0
370
    -2
100
AcDbCircle
 10
0.0
 20
0.0
 30
0.0
 40
0.5
  0
ENDBLK
  5
BC
330
B7
100
AcDbEntity
  8
0
100
AcDbBlockEnd
  0
BLOCK
  5
C2
330
BD
100
AcDbEntity
  8
0
100
AcDbBlockBegin
  2
CDWK_PTTYP16
 70
     0
 10
0.0
 20
0.0
 30
0.0
  3
CDWK_PTTYP16
  1

  0
LINE
  5
BE
330
BD
100
AcDbEntity
  8
0
 62
     0
370
    -2
100
AcDbLine
 10
-0.5
 20
-0.289
 30
0.0
 11
0.5
 21
-0.289
 31
0.0
  0
LINE
  5
BF
330
BD
100
AcDbEntity
  8
0
 62
     0
370
    -2
100
AcDbLine
 10
0.5
 20
-0.289
 30
0.0
 11
0.0
 21
0.577
 31
0.0
  0
LINE
  5
C0
330
BD
100
AcDbEntity
  8
0
 62
     0
370
    -2
100
AcDbLine
 10
0.0
 20
0.577
 30
0.0
 11
-0.5
 21
-0.289
 31
0.0
  0
CIRCLE
  5
C1
330
BD
100
AcDbEntity
  8
0
 62
     0
370
    -2
100
AcDbCircle
 10
0.0
 20
0.0
 30
0.0
 40
0.289
  0
ENDBLK
  5
C3
330
BD
100
AcDbEntity
  8
0
100
AcDbBlockEnd
  0
BLOCK
  5
C7
330
C4
100
AcDbEntity
  8
0
100
AcDbBlockBegin
  2
CDWK_PTTYP17
 70
     0
 10
0.0
 20
0.0
 30
0.0
  3
CDWK_PTTYP17
  1

  0
CIRCLE
  5
C5
330
C4
100
AcDbEntity
  8
0
 62
     0
370
    -2
100
AcDbCircle
 10
0.0
 20
0.0
 30
0.0
 40
0.5
  0
HATCH
  5
C6
330
C4
100
AcDbEntity
  8
0
 62
     0
370
    -2
100
AcDbHatch
 10
0.0
 20
0.0
 30
0.0
210
0.0
220
0.0
230
1.0
  2
SOLID
 70
     1
 71
     1
 91
        1
 92
        1
 93
        1
 72
     2
 10
0.0
 20
0.0
 40
0.25
 50
0.0
 51
360.0
 73
     1
 97
        0
 75
     0
 76
     1
 98
        0
  0
ENDBLK
  5
C8
330
C4
100
AcDbEntity
  8
0
100
AcDbBlockEnd
  0
BLOCK
  5
CC
330
C9
100
AcDbEntity
  8
0
100
AcDbBlockBegin
  2
CDWK_PTTYP18
 70
     0
 10
0.0
 20
0.0
 30
0.0
  3
CDWK_PTTYP18
  1

  0
CIRCLE
  5
CA
330
C9
100
AcDbEntity
  8
0
 62
     0
370
    -2
100
AcDbCircle
 10
0.0
 20
0.0
 30
0.0
 40
0.5
  0
CIRCLE
  5
CB
330
C9
100
AcDbEntity
  8
0
 62
     0
370
    -2
100
AcDbCircle
 10
0.0
 20
0.0
 30
0.0
 40
0.208
  0
ENDBLK
  5
CD
330
C9
100
AcDbEntity
  8
0
100
AcDbBlockEnd
  0
BLOCK
  5
D2
330
CE
100
AcDbEntity
  8
0
100
AcDbBlockBegin
  2
CDWK_PTTYP19
 70
     0
 10
0.0
 20
0.0
 30
0.0
  3
CDWK_PTTYP19
  1

  0
CIRCLE
  5
CF
330
CE
100
AcDbEntity
  8
0
 62
     0
370
    -2
100
AcDbCircle
 10
0.0
 20
0.0
 30
0.0
 40
0.25
  0
CIRCLE
  5
D0
330
CE
100
AcDbEntity
  8
0
 62
     0
370
    -2
100
AcDbCircle
 10
0.0
 20
0.0
 30
0.0
 40
0.35
  0
LINE
  5
D1
330
CE
100
AcDbEntity
  8
0
 62
     0
370
    -2
100
AcDbLine
 10
-0.25
 20
0.0
 30
0.0
 11
0.25
 21
0.0
 31
0.0
  0
ENDBLK
  5
D3
330
CE
100
AcDbEntity
  8
0
100
AcDbBlockEnd
  0
BLOCK
  5
D7
330
D4
100
AcDbEntity
  8
0
100
AcDbBlockBegin
  2
CDWK_PTTYP20
 70
     0
 10
0.0
 20
0.0
 30
0.0
  3
CDWK_PTTYP20
  1

  0
CIRCLE
  5
D5
330
D4
100
AcDbEntity
  8
0
 62
     0
370
    -2
100
AcDbCircle
 10
0.0
 20
0.0
 30
0.0
 40
0.3333333333333333
  0
CIRCLE
  5
D6
330
D4
100
AcDbEntity
  8
0
 62
     0
370
    -2
100
AcDbCircle
 10
0.0
 20
0.0
 30
0.0
 40
0.5
  0
ENDBLK
  5
D8
330
D4
100
AcDbEntity
  8
0
100
AcDbBlockEnd
  0
BLOCK
  5
DC
330
D9
100
AcDbEntity
  8
0
100
AcDbBlockBegin
  2
CDWK_PTTYP21
 70
     0
 10
0.0
 20
0.0
 30
0.0
  3
CDWK_PTTYP21
  1

  0
CIRCLE
  5
DA
330
D9
100
AcDbEntity
  8
0
 62
     0
370
    -2
100
AcDbCircle
 10
0.0
 20
0.0
 30
0.0
 40
0.5
  0
LINE
  5
DB
330
D9
100
AcDbEntity
  8
0
 62
     0
370
    -2
100
AcDbLine
 10
-0.5
 20
0.0
 30
0.0
 11
0.5
 21
0.0
 31
0.0
  0
ENDBLK
  5
DD
330
D9
100
AcDbEntity
  8
0
100
AcDbBlockEnd
  0
BLOCK
  5
E3
330
DE
100
AcDbEntity
  8
0
100
AcDbBlockBegin
  2
CDWK_PTTYP25
 70
     0
 10
0.0
 20
0.0
 30
0.0
  3
CDWK_PTTYP25
  1

  0
LINE
  5
DF
330
DE
100
AcDbEntity
  8
0
 62
     0
370
    -2
100
AcDbLine
 10
0.0
 20
0.5
 30
0.0
 11
-0.4330127018922193
 21
-0.25
 31
0.0
  0
LINE
  5
E0
330
DE
100
AcDbEntity
  8
0
 62
     0
370
    -2
100
AcDbLine
 10
-0.4330127018922193
 20
-0.25
 30
0.0
 11
0.4330127018922193
 21
-0.25
 31
0.0
  0
LINE
  5
E1
330
DE
100
AcDbEntity
  8
0
 62
     0
370
    -2
100
AcDbLine
 10
0.4330127018922193
 20
-0.25
 30
0.0
 11
0.0
 21
0.5
 31
0.0
  0
CIRCLE
  5
E2
330
DE
100
AcDbEntity
  8
0
 62
     0
370
    -2
100
AcDbCircle
 10
0.0
 20
0.0
 30
0.0
 40
0.5
  0
ENDBLK
  5
E4
330
DE
100
AcDbEntity
  8
0
100
AcDbBlockEnd
  0
BLOCK
  5
EA
330
E5
100
AcDbEntity
  8
0
100
AcDbBlockBegin
  2
CDWK_PTTYP26
 70
     0
 10
0.0
 20
0.0
 30
0.0
  3
CDWK_PTTYP26
  1

  0
LINE
  5
E6
330
E5
100
AcDbEntity
  8
0
 62
     0
370
    -2
100
AcDbLine
 10
-0.5
 20
-0.289
 30
0.0
 11
0.5
 21
-0.289
 31
0.0
  0
LINE
  5
E7
330
E5
100
AcDbEntity
  8
0
 62
     0
370
    -2
100
AcDbLine
 10
0.5
 20
-0.289
 30
0.0
 11
0.0
 21
0.577
 31
0.0
  0
LINE
  5
E8
330
E5
100
AcDbEntity
  8
0
 62
     0
370
    -2
100
AcDbLine
 10
0.0
 20
0.577
 30
0.0
 11
-0.5
 21
-0.289
 31
0.0
  0
CIRCLE
  5
E9
330
E5
100
AcDbEntity
  8
0
 62
     0
370
    -2
100
AcDbCircle
 10
0.0
 20
0.0
 30
0.0
 40
0.125
  0
ENDBLK
  5
EB
330
E5
100
AcDbEntity
  8
0
100
AcDbBlockEnd
  0
BLOCK
  5
F2
330
EC
100
AcDbEntity
  8
0
100
AcDbBlockBegin
  2
CDWK_PTTYP27
 70
     0
 10
0.0
 20
0.0
 30
0.0
  3
CDWK_PTTYP27
  1

  0
LINE
  5
ED
330
EC
100
AcDbEntity
  8
0
 62
     0
370
    -2
100
AcDbLine
 10
0.0
 20
0.5
 30
0.0
 11
-0.4330127018922193
 21
-0.25
 31
0.0
  0
LINE
  5
EE
330
EC
100
AcDbEntity
  8
0
 62
     0
370
    -2
100
AcDbLine
 10
-0.4330127018922193
 20
-0.25
 30
0.0
 11
0.4330127018922193
 21
-0.25
 31
0.0
  0
LINE
  5
EF
330
EC
100
AcDbEntity
  8
0
 62
     0
370
    -2
100
AcDbLine
 10
0.4330127018922193
 20
-0.25
 30
0.0
 11
0.0
 21
0.5
 31
0.0
  0
CIRCLE
  5
F0
330
EC
100
AcDbEntity
  8
0
 62
     0
370
    -2
100
AcDbCircle
 10
0.0
 20
0.0
 30
0.0
 40
0.125
  0
CIRCLE
  5
F1
330
EC
100
AcDbEntity
  8
0
 62
     0
370
    -2
100
AcDbCircle
 10
0.0
 20
0.0
 30
0.0
 40
0.5
  0
ENDBLK
  5
F3
330
EC
100
AcDbEntity
  8
0
100
AcDbBlockEnd
  0
BLOCK
  5
F9
330
F4
100
AcDbEntity
  8
0
100
AcDbBlockBegin
  2
CDWK_PTTYP28
 70
     0
 10
0.0
 20
0.0
 30
0.0
  3
CDWK_PTTYP28
  1

  0
LINE
  5
F5
330
F4
100
AcDbEntity
  8
0
 62
     0
370
    -2
100
AcDbLine
 10
-0.5
 20
0.5
 30
0.0
 11
0.5
 21
0.5
 31
0.0
  0
LINE
  5
F6
330
F4
100
AcDbEntity
  8
0
 62
     0
370
    -2
100
AcDbLine
 10
0.5
 20
0.5
 30
0.0
 11
-0.5
 21
-0.5
 31
0.0
  0
LINE
  5
F7
330
F4
100
AcDbEntity
  8
0
 62
     0
370
    -2
100
AcDbLine
 10
0.5
 20
-0.5
 30
0.0
 11
-0.5
 21
-0.5
 31
0.0
  0
LINE
  5
F8
330
F4
100
AcDbEntity
  8
0
 62
     0
370
    -2
100
AcDbLine
 10
-0.5
 20
0.5
 30
0.0
 11
0.5
 21
-0.5
 31
0.0
  0
ENDBLK
  5
FA
330
F4
100
AcDbEntity
  8
0
100
AcDbBlockEnd
  0
BLOCK
  5
FF
330
FB
100
AcDbEntity
  8
0
100
AcDbBlockBegin
  2
CDWK_PTTYP29
 70
     0
 10
0.0
 20
0.0
 30
0.0
  3
CDWK_PTTYP29
  1

  0
CIRCLE
  5
FC
330
FB
100
AcDbEntity
  8
0
 62
     0
370
    -2
100
AcDbCircle
 10
0.0
 20
0.0
 30
0.0
 40
0.2
  0
CIRCLE
  5
FD
330
FB
100
AcDbEntity
  8
0
 62
     0
370
    -2
100
AcDbCircle
 10
0.0
 20
0.0
 30
0.0
 40
0.35
  0
CIRCLE
  5
FE
330
FB
100
AcDbEntity
  8
0
 62
     0
370
    -2
100
AcDbCircle
 10
0.0
 20
0.0
 30
0.0
 40
0.5
  0
ENDBLK
  5
100
330
FB
100
AcDbEntity
  8
0
100
AcDbBlockEnd
  0
BLOCK
  5
106
330
101
100
AcDbEntity
  8
0
100
AcDbBlockBegin
  2
CDWK_PTTYP30
 70
     0
 10
0.0
 20
0.0
 30
0.0
  3
CDWK_PTTYP30
  1

  0
LINE
  5
102
330
101
100
AcDbEntity
  8
0
 62
     0
370
    -2
100
AcDbLine
 10
-0.5
 20
0.5
 30
0.0
 11
-0.1
 21
0.1
 31
0.0
  0
LINE
  5
103
330
101
100
AcDbEntity
  8
0
 62
     0
370
    -2
100
AcDbLine
 10
0.5
 20
0.5
 30
0.0
 11
0.1
 21
0.1
 31
0.0
  0
LINE
  5
104
330
101
100
AcDbEntity
  8
0
 62
     0
370
    -2
100
AcDbLine
 10
0.5
 20
-0.5
 30
0.0
 11
0.1
 21
-0.1
 31
0.0
  0
LINE
  5
105
330
101
100
AcDbEntity
  8
0
 62
     0
370
    -2
100
AcDbLine
 10
-0.5
 20
-0.5
 30
0.0
 11
-0.1
 21
-0.1
 31
0.0
  0
ENDBLK
  5
107
330
101
100
AcDbEntity
  8
0
100
AcDbBlockEnd
  0
BLOCK
  5
10E
330
108
100
AcDbEntity
  8
0
100
AcDbBlockBegin
  2
CDWK_PTTYP31
 70
     0
 10
0.0
 20
0.0
 30
0.0
  3
CDWK_PTTYP31
  1

  0
LINE
  5
109
330
108
100
AcDbEntity
  8
0
 62
     0
370
    -2
100
AcDbLine
 10
-0.5
 20
0.0
 30
0.0
 11
-0.1
 21
0.0
 31
0.0
  0
LINE
  5
10A
330
108
100
AcDbEntity
  8
0
 62
     0
370
    -2
100
AcDbLine
 10
0.1
 20
0.0
 30
0.0
 11
0.5
 21
0.0
 31
0.0
  0
LINE
  5
10B
330
108
100
AcDbEntity
  8
0
 62
     0
370
    -2
100
AcDbLine
 10
0.0
 20
0.5
 30
0.0
 11
0.0
 21
0.1
 31
0.0
  0
LINE
  5
10C
330
108
100
AcDbEntity
  8
0
 62
     0
370
    -2
100
AcDbLine
 10
0.0
 20
-0.1
 30
0.0
 11
0.0
 21
-0.5
 31
0.0
  0
CIRCLE
  5
10D
330
108
100
AcDbEntity
  8
0
 62
     0
370
    -2
100
AcDbCircle
 10
0.0
 20
0.0
 30
0.0
 40
0.1
  0
ENDBLK
  5
10F
330
108
100
AcDbEntity
  8
0
100
AcDbBlockEnd
  0
BLOCK
  5
117
330
110
100
AcDbEntity
  8
0
100
AcDbBlockBegin
  2
CDWK_PTTYP32
 70
     0
 10
0.0
 20
0.0
 30
0.0
  3
CDWK_PTTYP32
  1

  0
CIRCLE
  5
111
330
110
100
AcDbEntity
  8
0
 62
     0
370
    -2
100
AcDbCircle
 10
0.0
 20
0.0
 30
0.0
 40
0.2
  0
CIRCLE
  5
112
330
110
100
AcDbEntity
  8
0
 62
     0
370
    -2
100
AcDbCircle
 10
0.0
 20
0.0
 30
0.0
 40
0.5
  0
LINE
  5
113
330
110
100
AcDbEntity
  8
0
 62
     0
370
    -2
100
AcDbLine
 10
0.1414213562373095
 20
0.1414213562373095
 30
0.0
 11
0.3535533905932738
 21
0.3535533905932738
 31
0.0
  0
LINE
  5
114
330
110
100
AcDbEntity
  8
0
 62
     0
370
    -2
100
AcDbLine
 10
-0.1414213562373095
 20
0.1414213562373095
 30
0.0
 11
-0.3535533905932738
 21
0.3535533905932738
 31
0.0
  0
LINE
  5
115
330
110
100
AcDbEntity
  8
0
 62
     0
370
    -2
100
AcDbLine
 10
0.1414213562373095
 20
-0.1414213562373095
 30
0.0
 11
0.3535533905932738
 21
-0.3535533905932738
 31
0.0
  0
LINE
  5
116
330
110
100
AcDbEntity
  8
0
 62
     0
370
    -2
100
AcDbLine
 10
-0.1414213562373095
 20
-0.1414213562373095
 30
0.0
 11
-0.3535533905932738
 21
-0.3535533905932738
 31
0.0
  0
ENDBLK
  5
118
330
110
100
AcDbEntity
  8
0
100
AcDbBlockEnd
  0
BLOCK
  5
11D
330
119
100
AcDbEntity
  8
0
100
AcDbBlockBegin
  2
CDWK_PTTYP33
 70
     0
 10
0.0
 20
0.0
 30
0.0
  3
CDWK_PTTYP33
  1

  0
LINE
  5
11A
330
119
100
AcDbEntity
  8
0
 62
     0
370
    -2
100
AcDbLine
 10
0.0
 20
-0.5
 30
0.0
 11
0.0
 21
0.5
 31
0.0
  0
LINE
  5
11B
330
119
100
AcDbEntity
  8
0
 62
     0
370
    -2
100
AcDbLine
 10
0.5
 20
0.0
 30
0.0
 11
-0.5
 21
0.0
 31
0.0
  0
CIRCLE
  5
11C
330
119
100
AcDbEntity
  8
0
 62
     0
370
    -2
100
AcDbCircle
 10
0.0
 20
0.0
 30
0.0
 40
0.5
  0
ENDBLK
  5
11E
330
119
100
AcDbEntity
  8
0
100
AcDbBlockEnd
  0
BLOCK
  5
123
330
11F
100
AcDbEntity
  8
0
100
AcDbBlockBegin
  2
CDWK_PTTYP34
 70
     0
 10
0.0
 20
0.0
 30
0.0
  3
CDWK_PTTYP34
  1

  0
CIRCLE
  5
120
330
11F
100
AcDbEntity
  8
0
 62
     0
370
    -2
100
AcDbCircle
 10
0.0
 20
0.0
 30
0.0
 40
0.5
  0
LINE
  5
121
330
11F
100
AcDbEntity
  8
0
 62
     0
370
    -2
100
AcDbLine
 10
-0.4
 20
-0.3
 30
0.0
 11
0.3
 21
0.4
 31
0.0
  0
LINE
  5
122
330
11F
100
AcDbEntity
  8
0
 62
     0
370
    -2
100
AcDbLine
 10
-0.3
 20
-0.4
 30
0.0
 11
0.4
 21
0.3
 31
0.0
  0
ENDBLK
  5
124
330
11F
100
AcDbEntity
  8
0
100
AcDbBlockEnd
  0
BLOCK
  5
129
330
125
100
AcDbEntity
  8
0
100
AcDbBlockBegin
  2
CDWK_PTTYP35
 70
     0
 10
0.0
 20
0.0
 30
0.0
  3
CDWK_PTTYP35
  1

  0
LINE
  5
126
330
125
100
AcDbEntity
  8
0
 62
     0
370
    -2
100
AcDbLine
 10
0.0
 20
0.2
 30
0.0
 11
0.0
 21
0.5
 31
0.0
  0
LINE
  5
127
330
125
100
AcDbEntity
  8
0
 62
     0
370
    -2
100
AcDbLine
 10
0.0
 20
-0.2
 30
0.0
 11
0.0
 21
-0.5
 31
0.0
  0
CIRCLE
  5
128
330
125
100
AcDbEntity
  8
0
 62
     0
370
    -2
100
AcDbCircle
 10
0.0
 20
0.0
 30
0.0
 40
0.2
  0
ENDBLK
  5
12A
330
125
100
AcDbEntity
  8
0
100
AcDbBlockEnd
  0
BLOCK
  5
131
330
12B
100
AcDbEntity
  8
0
100
AcDbBlockBegin
  2
CDWK_PTTYP36
 70
     0
 10
0.0
 20
0.0
 30
0.0
  3
CDWK_PTTYP36
  1

  0
LINE
  5
12C
330
12B
100
AcDbEntity
  8
0
 62
     0
370
    -2
100
AcDbLine
 10
-0.5
 20
0.2
 30
0.0
 11
0.5
 21
0.2
 31
0.0
  0
LINE
  5
12D
330
12B
100
AcDbEntity
  8
0
 62
     0
370
    -2
100
AcDbLine
 10
0.5
 20
0.2
 30
0.0
 11
0.5
 21
-0.2
 31
0.0
  0
LINE
  5
12E
330
12B
100
AcDbEntity
  8
0
 62
     0
370
    -2
100
AcDbLine
 10
0.5
 20
-0.2
 30
0.0
 11
-0.5
 21
-0.2
 31
0.0
  0
LINE
  5
12F
330
12B
100
AcDbEntity
  8
0
 62
     0
370
    -2
100
AcDbLine
 10
-0.5
 20
-0.2
 30
0.0
 11
-0.5
 21
0.2
 31
0.0
  0
HATCH
  5
130
330
12B
100
AcDbEntity
  8
0
 62
     0
370
    -2
100
AcDbHatch
 10
0.0
 20
0.0
 30
0.0
210
0.0
220
0.0
230
1.0
  2
SOLID
 70
     1
 71
     1
 91
        1
 92
        3
 72
     0
 73
     1
 93
        3
 10
-0.5
 20
-0.2
 10
0.5
 20
-0.2
 10
0.5
 20
0.2
 97
        0
 75
     0
 76
     1
 98
        0
  0
ENDBLK
  5
132
330
12B
100
AcDbEntity
  8
0
100
AcDbBlockEnd
  0
BLOCK
  5
136
330
133
100
AcDbEntity
  8
0
100
AcDbBlockBegin
  2
CDWK_PTTYP37
 70
     0
 10
0.0
 20
0.0
 30
0.0
  3
CDWK_PTTYP37
  1

  0
HATCH
  5
134
330
133
100
AcDbEntity
  8
0
 62
     0
370
    -2
100
AcDbHatch
 10
0.0
 20
0.0
 30
0.0
210
0.0
220
0.0
230
1.0
  2
SOLID
 70
     1
 71
     1
 91
        1
 92
        3
 72
     0
 73
     1
 93
      202
 10
-0.3535533905932738
 20
-0.3535533905932738
 10
-0.3485533905932738
 20
-0.3535533905932737
 10
-0.3435533905932738
 20
-0.3584836591895546
 10
-0.3385533905932738
 20
-0.3632782236961988
 10
-0.3335533905932738
 20
-0.367942389128785
 10
-0.3285533905932738
 20
-0.372481054046687
 10
-0.3235533905932738
 20
-0.3768987523588579
 10
-0.3185533905932738
 20
-0.3811996897107819
 10
-0.3135533905932738
 20
-0.3853877752881235
 10
-0.3085533905932737
 20
-0.3894666497242888
 10
-0.3035533905932737
 20
-0.3934397096803965
 10
-0.2985533905932737
 20
-0.3973101295704999
 10
-0.2935533905932737
 20
-0.4010808808273714
 10
-0.2885533905932737
 20
-0.4047547490409382
 10
-0.2835533905932737
 20
-0.4083343492496384
 10
-0.2785533905932737
 20
-0.4118221396222626
 10
-0.2735533905932737
 20
-0.4152204337324827
 10
-0.2685533905932737
 20
-0.4185314115988474
 10
-0.2635533905932737
 20
-0.4217571296384408
 10
-0.2585533905932737
 20
-0.4248995296617653
 10
-0.2535533905932737
 20
-0.4279604470190231
 10
-0.2485533905932737
 20
-0.4309416179932669
 10
-0.2435533905932737
 20
-0.4338446865234004
 10
-0.2385533905932737
 20
-0.4366712103293738
 10
-0.2335533905932737
 20
-0.439422666502825
 10
-0.2285533905932737
 20
-0.4421004566186126
 10
-0.2235533905932737
 20
-0.4447059114159811
 10
-0.2185533905932737
 20
-0.4472402950923041
 10
-0.2135533905932737
 20
-0.4497048092473372
 10
-0.2085533905932737
 20
-0.4521005965115692
 10
-0.2035533905932737
 20
-0.4544287438884664
 10
-0.1985533905932736
 20
-0.456690285837111
 10
-0.1935533905932736
 20
-0.45888620711884
 10
-0.1885533905932736
 20
-0.4610174454289638
 10
-0.1835533905932736
 20
-0.4630848938324164
 10
-0.1785533905932736
 20
-0.4650894030202291
 10
-0.1735533905932736
 20
-0.4670317834019928
 10
-0.1685533905932736
 20
-0.46891280704794
 10
-0.1635533905932736
 20
-0.4707332094929264
 10
-0.1585533905932736
 20
-0.4724936914133818
 10
-0.1535533905932736
 20
-0.4741949201872336
 10
-0.1485533905932736
 20
-0.4758375313458466
 10
-0.1435533905932736
 20
-0.4774221299261716
 10
-0.1385533905932736
 20
-0.4789492917305286
 10
-0.1335533905932736
 20
-0.4804195645007682
 10
-0.1285533905932736
 20
-0.4818334690129366
 10
-0.1235533905932736
 20
-0.4831915000980183
 10
-0.1185533905932736
 20
-0.4844941275938295
 10
-0.1135533905932736
 20
-0.4857417972326848
 10
-0.1085533905932736
 20
-0.4869349314690531
 10
-0.1035533905932736
 20
-0.4880739302510473
 10
-0.0985533905932736
 20
-0.489159171739258
 10
-0.0935533905932736
 20
-0.4901910129761353
 10
-0.0885533905932736
 20
-0.4911697905088447
 10
-0.0835533905932735
 20
-0.4920958209682695
 10
-0.0785533905932735
 20
-0.4929694016065986
 10
-0.0735533905932735
 20
-0.4937908107957261
 10
-0.0685533905932735
 20
-0.494560308488493
 10
-0.0635533905932735
 20
-0.4952781366446192
 10
-0.0585533905932735
 20
-0.4959445196230107
 10
-0.0535533905932735
 20
-0.4965596645419678
 10
-0.0485533905932735
 20
-0.4971237616086806
 10
-0.0435533905932735
 20
-0.4976369844192622
 10
-0.0385533905932735
 20
-0.4980994902304456
 10
-0.0335533905932735
 20
-0.4985114202039533
 10
-0.0285533905932735
 20
-0.4988728996244386
 10
-0.0235533905932735
 20
-0.4991840380917923
 10
-0.0185533905932735
 20
-0.49944492968851
 10
-0.0135533905932735
 20
-0.4996556531227215
 10
-0.0085533905932735
 20
-0.4998162718473921
 10
-0.0035533905932735
 20
-0.4999268341561182
 10
0.0014466094067265
 20
-0.499987373255857
 10
0.0064466094067265
 20
-0.4999979073168451
 10
0.0114466094067265
 20
-0.4999584394998819
 10
0.0164466094067265
 20
-0.4998689579610739
 10
0.0214466094067265
 20
-0.4997294358340547
 10
0.0264466094067265
 20
-0.4995398311896213
 10
0.0314466094067265
 20
-0.4993000869726422
 10
0.0364466094067265
 20
-0.4990101309160174
 10
0.0414466094067265
 20
-0.4986698754313855
 10
0.0464466094067265
 20
-0.498279217476192
 10
0.0514466094067265
 20
-0.4978380383966446
 10
0.0564466094067265
 20
-0.497346203745994
 10
0.0614466094067265
 20
-0.4968035630774849
 10
0.0664466094067264
 20
-0.4962099497112257
 10
0.0714466094067265
 20
-0.4955651804741228
 10
0.0764466094067265
 20
-0.4948690554119167
 10
0.0814466094067265
 20
-0.4941213574722463
 10
0.0864466094067265
 20
-0.4933218521575424
 10
0.0914466094067265
 20
-0.4924702871464235
 10
0.0964466094067265
 20
-0.4915663918821278
 10
0.1014466094067265
 20
-0.4906098771263643
 10
0.1064466094067265
 20
-0.4896004344768079
 10
0.1114466094067265
 20
-0.4885377358462822
 10
0.1164466094067265
 20
-0.4874214329014929
 10
0.1214466094067265
 20
-0.4862511564589613
 10
0.1264466094067265
 20
-0.4850265158355881
 10
0.1314466094067265
 20
-0.4837470981510305
 10
0.1364466094067265
 20
-0.482412467578809
 10
0.1414466094067265
 20
-0.4810221645427664
 10
0.1464466094067265
 20
-0.4795757048551781
 10
0.1514466094067265
 20
-0.4780725787924608
 10
0.1564466094067265
 20
-0.4765122501040308
 10
0.1614466094067265
 20
-0.4748941549494363
 10
0.1664466094067265
 20
-0.4732177007584056
 10
0.1714466094067265
 20
-0.4714822650079264
 10
0.1764466094067265
 20
-0.4696871939098801
 10
0.1814466094067266
 20
-0.4678318010021017
 10
0.1864466094067266
 20
-0.4659153656350076
 10
0.1914466094067266
 20
-0.4639371313451162
 10
0.1964466094067266
 20
-0.4618963041058764
 10
0.2014466094067266
 20
-0.4597920504451997
 10
0.2064466094067266
 20
-0.4576234954179405
 10
0.2114466094067266
 20
-0.4553897204202862
 10
0.2164466094067266
 20
-0.4530897608315588
 10
0.2214466094067266
 20
-0.45072260346729
 10
0.2264466094067266
 20
-0.4482871838255748
 10
0.2314466094067266
 20
-0.4457823831065977
 10
0.2364466094067266
 20
-0.4432070249828292
 10
0.2414466094067266
 20
-0.4405598720946596
 10
0.2464466094067266
 20
-0.4378396222431172
 10
0.2514466094067266
 20
-0.4350449042477435
 10
0.2564466094067266
 20
-0.4321742734336012
 10
0.2614466094067266
 20
-0.4292262067066663
 10
0.2664466094067266
 20
-0.4261990971714118
 10
0.2714466094067266
 20
-0.4230912482380831
 10
0.2764466094067266
 20
-0.4199008671598476
 10
0.2814466094067266
 20
-0.4166260579314797
 10
0.2864466094067266
 20
-0.4132648134712868
 10
0.2914466094067266
 20
-0.4098150069963156
 10
0.2964466094067266
 20
-0.4062743824871597
 10
0.3014466094067266
 20
-0.4026405441224911
 10
0.3064466094067266
 20
-0.3989109445442534
 10
0.3114466094067266
 20
-0.3950828717916294
 10
0.3164466094067266
 20
-0.391153434714632
 10
0.3214466094067266
 20
-0.3871195466454601
 10
0.3264466094067267
 20
-0.3829779070663467
 10
0.3314466094067267
 20
-0.3787249809648844
 10
0.3364466094067267
 20
-0.3743569755097196
 10
0.3414466094067267
 20
-0.3698698136084067
 10
0.3464466094067267
 20
-0.3652591038217257
 10
0.3514466094067267
 20
-0.3605201060004601
 10
0.3564466094067267
 20
-0.3556476918757041
 10
0.3614466094067267
 20
-0.3506362996645505
 10
0.3664466094067267
 20
-0.34547988153926
 10
0.3714466094067267
 20
-0.3401718425359658
 10
0.3764466094067267
 20
-0.334704969129899
 10
0.3814466094067267
 20
-0.3290713452523318
 10
0.3864466094067267
 20
-0.3232622529342269
 10
0.3914466094067267
 20
-0.3172680539828188
 10
0.3964466094067267
 20
-0.3110780480586465
 10
0.4014466094067267
 20
-0.304680301118911
 10
0.4064466094067267
 20
-0.2980614362775617
 10
0.4114466094067267
 20
-0.291206376478565
 10
0.4164466094067267
 20
-0.2840980246459106
 10
0.4214466094067267
 20
-0.276716861635935
 10
0.4264466094067267
 20
-0.2690404345439063
 10
0.4314466094067267
 20
-0.2610426963649944
 10
0.4364466094067267
 20
-0.2526931404518915
 10
0.4414466094067268
 20
-0.2439556458403291
 10
0.4464466094067268
 20
-0.2347869056044327
 10
0.4514466094067268
 20
-0.2251342376211081
 10
0.4564466094067268
 20
-0.2149324518428296
 10
0.4614466094067268
 20
-0.2040992228331676
 10
0.4664466094067268
 20
-0.1925279893081412
 10
0.4714466094067268
 20
-0.1800765408735088
 10
0.4764466094067268
 20
-0.1665475742210051
 10
0.4814466094067268
 20
-0.1516529867323223
 10
0.4864466094067268
 20
-0.1349413290684758
 10
0.4914466094067268
 20
-0.1156274024472547
 10
0.4964466094067268
 20
-0.0920881648347501
 10
0.5
 20
0.0
 10
0.495
 20
0.0
 10
0.49
 20
0.0705336798983295
 10
0.485
 20
0.0994987437106621
 10
0.48
 20
0.1215524578114322
 10
0.475
 20
0.14
 10
0.47
 20
0.15612494995996
 10
0.465
 20
0.1705872210923199
 10
0.46
 20
0.1837797594948911
 10
0.455
 20
0.1959591794226544
 10
0.45
 20
0.2073041244162789
 10
0.445
 20
0.2179449471770338
 10
0.4399999999999999
 20
0.2279802623035601
 10
0.4349999999999999
 20
0.2374868417407584
 10
0.4299999999999999
 20
0.2465258607124211
 10
0.4249999999999999
 20
0.2551470164434615
 10
0.4199999999999999
 20
0.2633913438213186
 10
0.4149999999999999
 20
0.2712931993250108
 10
0.4099999999999999
 20
0.2788816953476869
 10
0.4049999999999999
 20
0.2861817604250838
 10
0.3999999999999999
 20
0.2932149382279151
 10
0.3949999999999999
 20
0.3000000000000002
 10
0.3899999999999999
 20
0.3065534211193868
 10
0.3849999999999999
 20
0.3128897569432404
 10
0.3799999999999999
 20
0.3190219428189855
 10
0.3749999999999999
 20
0.3249615361854385
 10
0.3699999999999999
 20
0.330718913883074
 10
0.3649999999999999
 20
0.3363034344160049
 10
0.3599999999999999
 20
0.3417235724968357
 10
0.3549999999999999
 20
0.3469870314579496
 10
0.3535533905932738
 20
0.3535533905932738
 97
        0
 75
     0
 76
     1
 98
        0
  0
CIRCLE
  5
135
330
133
100
AcDbEntity
  8
0
 62
     0
370
    -2
100
AcDbCircle
 10
0.0
 20
0.0
 30
0.0
 40
0.5
  0
ENDBLK
  5
137
330
133
100
AcDbEntity
  8
0
100
AcDbBlockEnd
  0
BLOCK
  5
13C
330
138
100
AcDbEntity
  8
0
100
AcDbBlockBegin
  2
CDWK_PTTYP38
 70
     0
 10
0.0
 20
0.0
 30
0.0
  3
CDWK_PTTYP38
  1

  0
HATCH
  5
139
330
138
100
AcDbEntity
  8
0
 62
     0
370
    -2
100
AcDbHatch
 10
0.0
 20
0.0
 30
0.0
210
0.0
220
0.0
230
1.0
  2
SOLID
 70
     1
 71
     1
 91
        1
 92
        3
 72
     0
 73
     1
 93
      102
 10
0.0
 20
0.0
 10
0.0
 20
0.5
 10
0.005
 20
0.5
 10
0.01
 20
0.4999749993749688
 10
0.015
 20
0.4998999899979995
 10
0.02
 20
0.4997749493522059
 10
0.025
 20
0.4995998398718718
 10
0.03
 20
0.4993746088859545
 10
0.035
 20
0.4990991885387112
 10
0.04
 20
0.4987734956871706
 10
0.045
 20
0.4983974317750845
 10
0.05
 20
0.4979708826829135
 10
0.055
 20
0.49749371855331
 10
0.06
 20
0.4969657935914704
 10
0.065
 20
0.4963869458396343
 10
0.07
 20
0.4957569969249047
 10
0.075
 20
0.4950757517794626
 10
0.08
 20
0.4943429983321297
 10
0.085
 20
0.4935585071701227
 10
0.09
 20
0.4927220311697053
 10
0.095
 20
0.4918333050943175
 10
0.1
 20
0.4908920451586071
 10
0.105
 20
0.4898979485566356
 10
0.11
 20
0.4888506929523574
 10
0.115
 20
0.4877499359302879
 10
0.12
 20
0.4865953144040744
 10
0.125
 20
0.4853864439804639
 10
0.13
 20
0.4841229182759271
 10
0.135
 20
0.4828043081829325
 10
0.14
 20
0.4814301610825811
 10
0.145
 20
0.48
 10
0.15
 20
0.478513322698543
 10
0.1550000000000001
 20
0.4769696007084728
 10
0.1600000000000001
 20
0.4753682782853731
 10
0.1650000000000001
 20
0.4737087712930804
 10
0.1700000000000001
 20
0.4719904660054056
 10
0.1750000000000001
 20
0.4702127178203498
 10
0.1800000000000001
 20
0.4683748498798799
 10
0.1850000000000001
 20
0.466476151587624
 10
0.1900000000000001
 20
0.4645158770160606
 10
0.1950000000000001
 20
0.4624932431938871
 10
0.2000000000000001
 20
0.460407428263272
 10
0.2050000000000001
 20
0.4582575694955839
 10
0.2100000000000001
 20
0.4560427611529427
 10
0.2150000000000001
 20
0.4537620521815371
 10
0.2200000000000001
 20
0.4514144437210665
 10
0.2250000000000001
 20
0.4489988864128729
 10
0.2300000000000001
 20
0.4465142774872937
 10
0.2350000000000001
 20
0.4439594576084622
 10
0.2400000000000001
 20
0.4413332074521472
 10
0.2450000000000001
 20
0.4386342439892261
 10
0.2500000000000001
 20
0.4358612164439502
 10
0.2550000000000001
 20
0.4330127018922192
 10
0.2600000000000001
 20
0.4300872004605577
 10
0.2650000000000001
 20
0.4270831300812524
 10
0.2700000000000001
 20
0.423998820753077
 10
0.2750000000000001
 20
0.4208325082500162
 10
0.2800000000000001
 20
0.4175823272122516
 10
0.2850000000000001
 20
0.4142463035441595
 10
0.2900000000000001
 20
0.4108223460329293
 10
0.2950000000000002
 20
0.4073082370883259
 10
0.3000000000000002
 20
0.403701622488689
 10
0.3050000000000002
 20
0.3999999999999999
 10
0.3100000000000002
 20
0.3962007067131506
 10
0.3150000000000002
 20
0.3923009049186605
 10
0.3200000000000002
 20
0.3882975663070783
 10
0.3250000000000002
 20
0.3841874542459708
 10
0.3300000000000002
 20
0.3799671038392664
 10
0.3350000000000002
 20
0.3756327994198588
 10
0.3400000000000002
 20
0.3711805490593491
 10
0.3450000000000002
 20
0.366606055596467
 10
0.3500000000000002
 20
0.3619046835839512
 10
0.3550000000000002
 20
0.3570714214271423
 10
0.3600000000000002
 20
0.3521008378291649
 10
0.3650000000000002
 20
0.3469870314579492
 10
0.3700000000000002
 20
0.3417235724968353
 10
0.3750000000000002
 20
0.3363034344160045
 10
0.3800000000000002
 20
0.3307189138830736
 10
0.3850000000000002
 20
0.3249615361854382
 10
0.3900000000000002
 20
0.3190219428189851
 10
0.3950000000000002
 20
0.31288975694324
 10
0.4000000000000002
 20
0.3065534211193863
 10
0.4050000000000002
 20
0.2999999999999997
 10
0.4100000000000003
 20
0.2932149382279147
 10
0.4150000000000003
 20
0.2861817604250834
 10
0.4200000000000003
 20
0.2788816953476864
 10
0.4250000000000003
 20
0.2712931993250103
 10
0.4300000000000003
 20
0.263391343821318
 10
0.4350000000000003
 20
0.255147016443461
 10
0.4400000000000003
 20
0.2465258607124206
 10
0.4450000000000003
 20
0.2374868417407578
 10
0.4500000000000003
 20
0.2279802623035594
 10
0.4550000000000003
 20
0.2179449471770331
 10
0.4600000000000003
 20
0.2073041244162782
 10
0.4650000000000003
 20
0.1959591794226536
 10
0.4700000000000003
 20
0.1837797594948903
 10
0.4750000000000003
 20
0.170587221092319
 10
0.4800000000000003
 20
0.156124949959959
 10
0.4850000000000003
 20
0.1399999999999989
 10
0.4900000000000003
 20
0.1215524578114309
 10
0.4950000000000003
 20
0.0994987437106604
 10
0.5
 20
0.0
 97
        0
 75
     0
 76
     1
 98
        0
  0
HATCH
  5
13A
330
138
100
AcDbEntity
  8
0
 62
     0
370
    -2
100
AcDbHatch
 10
0.0
 20
0.0
 30
0.0
210
0.0
220
0.0
230
1.0
  2
SOLID
 70
     1
 71
     1
 91
        1
 92
        3
 72
     0
 73
     1
 93
      102
 10
0.0
 20
0.0
 10
-0.5
 20
0.0
 10
-0.495
 20
0.0
 10
-0.49
 20
-0.0705336798983295
 10
-0.485
 20
-0.0994987437106621
 10
-0.48
 20
-0.1215524578114322
 10
-0.475
 20
-0.14
 10
-0.47
 20
-0.15612494995996
 10
-0.465
 20
-0.1705872210923199
 10
-0.46
 20
-0.1837797594948911
 10
-0.455
 20
-0.1959591794226544
 10
-0.45
 20
-0.2073041244162789
 10
-0.445
 20
-0.2179449471770338
 10
-0.4399999999999999
 20
-0.2279802623035601
 10
-0.4349999999999999
 20
-0.2374868417407584
 10
-0.4299999999999999
 20
-0.2465258607124211
 10
-0.4249999999999999
 20
-0.2551470164434615
 10
-0.4199999999999999
 20
-0.2633913438213186
 10
-0.4149999999999999
 20
-0.2712931993250108
 10
-0.4099999999999999
 20
-0.2788816953476869
 10
-0.4049999999999999
 20
-0.2861817604250838
 10
-0.3999999999999999
 20
-0.2932149382279151
 10
-0.3949999999999999
 20
-0.3000000000000002
 10
-0.3899999999999999
 20
-0.3065534211193868
 10
-0.3849999999999999
 20
-0.3128897569432404
 10
-0.3799999999999999
 20
-0.3190219428189855
 10
-0.3749999999999999
 20
-0.3249615361854385
 10
-0.3699999999999999
 20
-0.330718913883074
 10
-0.3649999999999999
 20
-0.3363034344160049
 10
-0.3599999999999999
 20
-0.3417235724968357
 10
-0.3549999999999999
 20
-0.3469870314579496
 10
-0.3499999999999999
 20
-0.3521008378291652
 10
-0.3449999999999999
 20
-0.3570714214271427
 10
-0.3399999999999999
 20
-0.3619046835839516
 10
-0.3349999999999999
 20
-0.3666060555964674
 10
-0.3299999999999998
 20
-0.3711805490593494
 10
-0.3249999999999998
 20
-0.3756327994198591
 10
-0.3199999999999998
 20
-0.3799671038392667
 10
-0.3149999999999998
 20
-0.3841874542459711
 10
-0.3099999999999998
 20
-0.3882975663070786
 10
-0.3049999999999998
 20
-0.3923009049186608
 10
-0.2999999999999998
 20
-0.3962007067131507
 10
-0.2949999999999998
 20
-0.4000000000000001
 10
-0.2899999999999998
 20
-0.4037016224886891
 10
-0.2849999999999998
 20
-0.4073082370883261
 10
-0.2799999999999998
 20
-0.4108223460329296
 10
-0.2749999999999998
 20
-0.4142463035441597
 10
-0.2699999999999998
 20
-0.4175823272122518
 10
-0.2649999999999998
 20
-0.4208325082500164
 10
-0.2599999999999998
 20
-0.4239988207530773
 10
-0.2549999999999998
 20
-0.4270831300812526
 10
-0.2499999999999998
 20
-0.4300872004605579
 10
-0.2449999999999998
 20
-0.4330127018922195
 10
-0.2399999999999998
 20
-0.4358612164439503
 10
-0.2349999999999998
 20
-0.4386342439892263
 10
-0.2299999999999998
 20
-0.4413332074521473
 10
-0.2249999999999998
 20
-0.4439594576084624
 10
-0.2199999999999998
 20
-0.4465142774872939
 10
-0.2149999999999997
 20
-0.4489988864128731
 10
-0.2099999999999997
 20
-0.4514144437210667
 10
-0.2049999999999997
 20
-0.4537620521815372
 10
-0.1999999999999997
 20
-0.4560427611529429
 10
-0.1949999999999997
 20
-0.4582575694955841
 10
-0.1899999999999997
 20
-0.4604074282632722
 10
-0.1849999999999997
 20
-0.4624932431938872
 10
-0.1799999999999997
 20
-0.4645158770160608
 10
-0.1749999999999997
 20
-0.4664761515876241
 10
-0.1699999999999997
 20
-0.46837484987988
 10
-0.1649999999999997
 20
-0.47021271782035
 10
-0.1599999999999997
 20
-0.4719904660054058
 10
-0.1549999999999997
 20
-0.4737087712930805
 10
-0.1499999999999997
 20
-0.4753682782853733
 10
-0.1449999999999997
 20
-0.4769696007084729
 10
-0.1399999999999997
 20
-0.4785133226985431
 10
-0.1349999999999997
 20
-0.4800000000000001
 10
-0.1299999999999997
 20
-0.4814301610825812
 10
-0.1249999999999997
 20
-0.4828043081829325
 10
-0.1199999999999997
 20
-0.4841229182759272
 10
-0.1149999999999997
 20
-0.485386443980464
 10
-0.1099999999999997
 20
-0.4865953144040744
 10
-0.1049999999999996
 20
-0.487749935930288
 10
-0.0999999999999996
 20
-0.4888506929523574
 10
-0.0949999999999996
 20
-0.4898979485566357
 10
-0.0899999999999996
 20
-0.4908920451586072
 10
-0.0849999999999996
 20
-0.4918333050943176
 10
-0.0799999999999996
 20
-0.4927220311697053
 10
-0.0749999999999996
 20
-0.4935585071701227
 10
-0.0699999999999996
 20
-0.4943429983321298
 10
-0.0649999999999996
 20
-0.4950757517794626
 10
-0.0599999999999996
 20
-0.4957569969249048
 10
-0.0549999999999996
 20
-0.4963869458396343
 10
-0.0499999999999996
 20
-0.4969657935914705
 10
-0.0449999999999996
 20
-0.49749371855331
 10
-0.0399999999999996
 20
-0.4979708826829135
 10
-0.0349999999999996
 20
-0.4983974317750846
 10
-0.0299999999999996
 20
-0.4987734956871706
 10
-0.0249999999999996
 20
-0.4990991885387112
 10
-0.0199999999999996
 20
-0.4993746088859545
 10
-0.0149999999999996
 20
-0.4995998398718719
 10
-0.0099999999999996
 20
-0.499774949352206
 10
-0.0049999999999996
 20
-0.4998999899979995
 10
0.0
 20
-0.5
 97
        0
 75
     0
 76
     1
 98
        0
  0
CIRCLE
  5
13B
330
138
100
AcDbEntity
  8
0
 62
     0
370
    -2
100
AcDbCircle
 10
0.0
 20
0.0
 30
0.0
 40
0.5
  0
ENDBLK
  5
13D
330
138
100
AcDbEntity
  8
0
100
AcDbBlockEnd
  0
BLOCK
  5
146
330
13E
100
AcDbEntity
  8
0
100
AcDbBlockBegin
  2
CDWK_PTTYP41
 70
     0
 10
0.0
 20
0.0
 30
0.0
  3
CDWK_PTTYP41
  1

  0
LINE
  5
13F
330
13E
100
AcDbEntity
  8
0
 62
     0
370
    -2
100
AcDbLine
 10
-0.5
 20
0.5
 30
0.0
 11
0.5
 21
0.5
 31
0.0
  0
LINE
  5
140
330
13E
100
AcDbEntity
  8
0
 62
     0
370
    -2
100
AcDbLine
 10
0.5
 20
0.5
 30
0.0
 11
0.5
 21
-0.5
 31
0.0
  0
LINE
  5
141
330
13E
100
AcDbEntity
  8
0
 62
     0
370
    -2
100
AcDbLine
 10
0.5
 20
-0.5
 30
0.0
 11
-0.5
 21
-0.5
 31
0.0
  0
LINE
  5
142
330
13E
100
AcDbEntity
  8
0
 62
     0
370
    -2
100
AcDbLine
 10
-0.5
 20
-0.5
 30
0.0
 11
-0.5
 21
0.5
 31
0.0
  0
LINE
  5
143
330
13E
100
AcDbEntity
  8
0
 62
     0
370
    -2
100
AcDbLine
 10
-0.375
 20
0.25
 30
0.0
 11
0.375
 21
0.25
 31
0.0
  0
LINE
  5
144
330
13E
100
AcDbEntity
  8
0
 62
     0
370
    -2
100
AcDbLine
 10
-0.375
 20
0.0
 30
0.0
 11
0.375
 21
0.0
 31
0.0
  0
LINE
  5
145
330
13E
100
AcDbEntity
  8
0
 62
     0
370
    -2
100
AcDbLine
 10
-0.375
 20
-0.25
 30
0.0
 11
0.375
 21
-0.25
 31
0.0
  0
ENDBLK
  5
147
330
13E
100
AcDbEntity
  8
0
100
AcDbBlockEnd
  0
BLOCK
  5
14F
330
148
100
AcDbEntity
  8
0
100
AcDbBlockBegin
  2
CDWK_PTTYP42
 70
     0
 10
0.0
 20
0.0
 30
0.0
  3
CDWK_PTTYP42
  1

  0
LINE
  5
149
330
148
100
AcDbEntity
  8
0
 62
     0
370
    -2
100
AcDbLine
 10
-0.5
 20
0.5
 30
0.0
 11
0.5
 21
0.5
 31
0.0
  0
LINE
  5
14A
330
148
100
AcDbEntity
  8
0
 62
     0
370
    -2
100
AcDbLine
 10
0.5
 20
0.5
 30
0.0
 11
0.5
 21
-0.5
 31
0.0
  0
LINE
  5
14B
330
148
100
AcDbEntity
  8
0
 62
     0
370
    -2
100
AcDbLine
 10
0.5
 20
-0.5
 30
0.0
 11
-0.5
 21
-0.5
 31
0.0
  0
LINE
  5
14C
330
148
100
AcDbEntity
  8
0
 62
     0
370
    -2
100
AcDbLine
 10
-0.5
 20
-0.5
 30
0.0
 11
-0.5
 21
0.5
 31
0.0
  0
LINE
  5
14D
330
148
100
AcDbEntity
  8
0
 62
     0
370
    -2
100
AcDbLine
 10
-0.375
 20
0.125
 30
0.0
 11
0.375
 21
0.125
 31
0.0
  0
LINE
  5
14E
330
148
100
AcDbEntity
  8
0
 62
     0
370
    -2
100
AcDbLine
 10
-0.375
 20
-0.125
 30
0.0
 11
0.375
 21
-0.125
 31
0.0
  0
ENDBLK
  5
150
330
148
100
AcDbEntity
  8
0
100
AcDbBlockEnd
  0
BLOCK
  5
155
330
151
100
AcDbEntity
  8
0
100
AcDbBlockBegin
  2
CDWK_PTTYP43
 70
     0
 10
0.0
 20
0.0
 30
0.0
  3
CDWK_PTTYP43
  1

  0
CIRCLE
  5
152
330
151
100
AcDbEntity
  8
0
 62
     0
370
    -2
100
AcDbCircle
 10
0.0
 20
0.0
 30
0.0
 40
0.5
  0
LINE
  5
153
330
151
100
AcDbEntity
  8
0
 62
     0
370
    -2
100
AcDbLine
 10
-0.375
 20
0.166
 30
0.0
 11
0.375
 21
0.166
 31
0.0
  0
LINE
  5
154
330
151
100
AcDbEntity
  8
0
 62
     0
370
    -2
100
AcDbLine
 10
-0.375
 20
-0.166
 30
0.0
 11
0.375
 21
-0.166
 31
0.0
  0
ENDBLK
  5
156
330
151
100
AcDbEntity
  8
0
100
AcDbBlockEnd
  0
BLOCK
  5
15E
330
157
100
AcDbEntity
  8
0
100
AcDbBlockBegin
  2
CDWK_PTTYP44
 70
     0
 10
0.0
 20
0.0
 30
0.0
  3
CDWK_PTTYP44
  1

  0
CIRCLE
  5
158
330
157
100
AcDbEntity
  8
0
 62
     0
370
    -2
100
AcDbCircle
 10
0.0
 20
0.0
 30
0.0
 40
0.5
  0
LINE
  5
159
330
157
100
AcDbEntity
  8
0
 62
     0
370
    -2
100
AcDbLine
 10
-0.375
 20
0.333
 30
0.0
 11
0.375
 21
0.333
 31
0.0
  0
LINE
  5
15A
330
157
100
AcDbEntity
  8
0
 62
     0
370
    -2
100
AcDbLine
 10
-0.375
 20
0.166
 30
0.0
 11
0.375
 21
0.166
 31
0.0
  0
LINE
  5
15B
330
157
100
AcDbEntity
  8
0
 62
     0
370
    -2
100
AcDbLine
 10
-0.375
 20
0.0
 30
0.0
 11
0.375
 21
0.0
 31
0.0
  0
LINE
  5
15C
330
157
100
AcDbEntity
  8
0
 62
     0
370
    -2
100
AcDbLine
 10
-0.375
 20
-0.166
 30
0.0
 11
0.375
 21
-0.166
 31
0.0
  0
LINE
  5
15D
330
157
100
AcDbEntity
  8
0
 62
     0
370
    -2
100
AcDbLine
 10
-0.375
 20
-0.333
 30
0.0
 11
0.375
 21
-0.333
 31
0.0
  0
ENDBLK
  5
15F
330
157
100
AcDbEntity
  8
0
100
AcDbBlockEnd
  0
BLOCK
  5
163
330
160
100
AcDbEntity
  8
0
100
AcDbBlockBegin
  2
CDWK_PTTYP45
 70
     0
 10
0.0
 20
0.0
 30
0.0
  3
CDWK_PTTYP45
  1

  0
ELLIPSE
  5
161
330
160
100
AcDbEntity
  8
0
 62
     0
370
    -2
100
AcDbEllipse
 10
0.0
 20
0.0
 30
0.0
 11
0.5
 21
0.0
 31
0.0
210
0.0
220
0.0
230
1.0
 40
0.82
 41
0.0
 42
6.283185307179586
  0
CIRCLE
  5
162
330
160
100
AcDbEntity
  8
0
 62
     0
370
    -2
100
AcDbCircle
 10
-0.235
 20
0.0
 30
0.0
 40
0.26
  0
ENDBLK
  5
164
330
160
100
AcDbEntity
  8
0
100
AcDbBlockEnd
  0
BLOCK
  5
168
330
165
100
AcDbEntity
  8
0
100
AcDbBlockBegin
  2
CDWK_PTTYP46
 70
     0
 10
0.0
 20
0.0
 30
0.0
  3
CDWK_PTTYP46
  1

  0
ELLIPSE
  5
166
330
165
100
AcDbEntity
  8
0
 62
     0
370
    -2
100
AcDbEllipse
 10
0.0
 20
0.0
 30
0.0
 11
0.5
 21
0.0
 31
0.0
210
0.0
220
0.0
230
1.0
 40
0.82
 41
0.0
 42
6.283185307179586
  0
CIRCLE
  5
167
330
165
100
AcDbEntity
  8
0
 62
     0
370
    -2
100
AcDbCircle
 10
0.0
 20
0.15
 30
0.0
 40
0.26
  0
ENDBLK
  5
169
330
165
100
AcDbEntity
  8
0
100
AcDbBlockEnd
  0
BLOCK
  5
170
330
16A
100
AcDbEntity
  8
0
100
AcDbBlockBegin
  2
CDWK_PTTYP47
 70
     0
 10
0.0
 20
0.0
 30
0.0
  3
CDWK_PTTYP47
  1

  0
LINE
  5
16B
330
16A
100
AcDbEntity
  8
0
 62
     0
370
    -2
100
AcDbLine
 10
-0.5
 20
0.166
 30
0.0
 11
0.5
 21
0.166
 31
0.0
  0
LINE
  5
16C
330
16A
100
AcDbEntity
  8
0
 62
     0
370
    -2
100
AcDbLine
 10
0.5
 20
0.166
 30
0.0
 11
0.5
 21
-0.166
 31
0.0
  0
LINE
  5
16D
330
16A
100
AcDbEntity
  8
0
 62
     0
370
    -2
100
AcDbLine
 10
0.5
 20
-0.166
 30
0.0
 11
-0.5
 21
-0.166
 31
0.0
  0
LINE
  5
16E
330
16A
100
AcDbEntity
  8
0
 62
     0
370
    -2
100
AcDbLine
 10
-0.5
 20
-0.166
 30
0.0
 11
-0.5
 21
0.166
 31
0.0
  0
CIRCLE
  5
16F
330
16A
100
AcDbEntity
  8
0
 62
     0
370
    -2
100
AcDbCircle
 10
0.0
 20
-0.313
 30
0.0
 40
0.4
  0
ENDBLK
  5
171
330
16A
100
AcDbEntity
  8
0
100
AcDbBlockEnd
  0
BLOCK
  5
176
330
173
100
AcDbEntity
  8
0
100
AcDbBlockBegin
  2
CDWK_PTTYP48
 70
     0
 10
0.0
 20
0.0
 30
0.0
  3
CDWK_PTTYP48
  1

  0
CIRCLE
  5
174
330
173
100
AcDbEntity
  8
0
  6
CADWORK_3
 62
     0
 48
0.1
370
    -2
100
AcDbCircle
 10
0.0
 20
0.0
 30
0.0
 40
0.5
  0
CIRCLE
  5
175
330
173
100
AcDbEntity
  8
0
 62
     0
370
    -2
100
AcDbCircle
 10
0.0
 20
0.0
 30
0.0
 40
0.25
  0
ENDBLK
  5
177
330
173
100
AcDbEntity
  8
0
100
AcDbBlockEnd
  0
BLOCK
  5
17D
330
178
100
AcDbEntity
  8
0
100
AcDbBlockBegin
  2
CDWK_PTTYP49
 70
     0
 10
0.0
 20
0.0
 30
0.0
  3
CDWK_PTTYP49
  1

  0
LINE
  5
179
330
178
100
AcDbEntity
  8
0
 62
     0
370
    -2
100
AcDbLine
 10
-0.5
 20
0.166
 30
0.0
 11
0.5
 21
0.166
 31
0.0
  0
LINE
  5
17A
330
178
100
AcDbEntity
  8
0
 62
     0
370
    -2
100
AcDbLine
 10
0.5
 20
0.166
 30
0.0
 11
0.5
 21
-0.166
 31
0.0
  0
LINE
  5
17B
330
178
100
AcDbEntity
  8
0
 62
     0
370
    -2
100
AcDbLine
 10
0.5
 20
-0.166
 30
0.0
 11
-0.5
 21
-0.166
 31
0.0
  0
LINE
  5
17C
330
178
100
AcDbEntity
  8
0
 62
     0
370
    -2
100
AcDbLine
 10
-0.5
 20
-0.166
 30
0.0
 11
-0.5
 21
0.166
 31
0.0
  0
ENDBLK
  5
17E
330
178
100
AcDbEntity
  8
0
100
AcDbBlockEnd
  0
BLOCK
  5
187
330
17F
100
AcDbEntity
  8
0
100
AcDbBlockBegin
  2
CDWK_PTTYP50
 70
     0
 10
0.0
 20
0.0
 30
0.0
  3
CDWK_PTTYP50
  1

  0
LINE
  5
180
330
17F
100
AcDbEntity
  8
0
 62
     0
370
    -2
100
AcDbLine
 10
-0.5
 20
0.166
 30
0.0
 11
0.5
 21
0.166
 31
0.0
  0
LINE
  5
181
330
17F
100
AcDbEntity
  8
0
 62
     0
370
    -2
100
AcDbLine
 10
0.5
 20
0.166
 30
0.0
 11
0.5
 21
-0.166
 31
0.0
  0
LINE
  5
182
330
17F
100
AcDbEntity
  8
0
 62
     0
370
    -2
100
AcDbLine
 10
0.5
 20
-0.166
 30
0.0
 11
-0.5
 21
-0.166
 31
0.0
  0
LINE
  5
183
330
17F
100
AcDbEntity
  8
0
 62
     0
370
    -2
100
AcDbLine
 10
-0.5
 20
-0.166
 30
0.0
 11
-0.5
 21
0.166
 31
0.0
  0
LINE
  5
184
330
17F
100
AcDbEntity
  8
0
 62
     0
370
    -2
100
AcDbLine
 10
-0.25
 20
-0.166
 30
0.0
 11
-0.25
 21
0.166
 31
0.0
  0
LINE
  5
185
330
17F
100
AcDbEntity
  8
0
 62
     0
370
    -2
100
AcDbLine
 10
0.0
 20
-0.166
 30
0.0
 11
0.0
 21
0.166
 31
0.0
  0
LINE
  5
186
330
17F
100
AcDbEntity
  8
0
 62
     0
370
    -2
100
AcDbLine
 10
0.25
 20
-0.166
 30
0.0
 11
0.25
 21
0.166
 31
0.0
  0
ENDBLK
  5
188
330
17F
100
AcDbEntity
  8
0
100
AcDbBlockEnd
  0
BLOCK
  5
18C
330
189
100
AcDbEntity
  8
0
100
AcDbBlockBegin
  2
CDWK_PTTYP51
 70
     0
 10
0.0
 20
0.0
 30
0.0
  3
CDWK_PTTYP51
  1

  0
SPLINE
  5
18A
330
189
100
AcDbEntity
  8
0
 62
     0
370
    -2
100
AcDbSpline
210
0.0
220
0.0
230
1.0
 70
  1064
 71
     3
 72
    12
 73
     8
 74
     6
 42
0.000000001
 43
0.0000000001
 44
0.0000000001
 40
0.0
 40
0.0
 40
0.0
 40
0.0
 40
0.1690118339052032
 40
0.5175774661755118
 40
0.8011704844252565
 40
0.9154070810132151
 40
0.975822310881188
 40
0.975822310881188
 40
0.975822310881188
 40
0.975822310881188
 10
-0.5
 20
-0.077
 30
0.0
 10
-0.443824324006723
 20
-0.0900581618560981
 30
0.0
 10
-0.2717933876546281
 20
-0.1300471387828842
 30
0.0
 10
-0.0276699186086479
 20
-0.0006977790990417
 30
0.0
 10
0.2303349729129116
 20
0.0817803270207037
 30
0.0
 10
0.3686157174766292
 20
0.0066250198607167
 30
0.0
 10
0.4216533294581816
 20
-0.0168719667726145
 30
0.0
 10
0.44
 20
-0.025
 30
0.0
 11
-0.5
 21
-0.077
 31
0.0
 11
-0.333
 21
-0.103
 31
0.0
 11
0.0
 21
0.0
 31
0.0
 11
0.28
 21
0.045
 31
0.0
 11
0.385
 21
0.0
 31
0.0
 11
0.44
 21
-0.025
 31
0.0
  0
HATCH
  5
18B
330
189
100
AcDbEntity
  8
0
 62
     0
370
    -2
100
AcDbHatch
 10
0.0
 20
0.0
 30
0.0
210
0.0
220
0.0
230
1.0
  2
SOLID
 70
     1
 71
     1
 91
        1
 92
        3
 72
     0
 73
     1
 93
        3
 10
0.365
 20
-0.05
 10
0.5
 20
-0.042
 10
0.395
 20
0.045
 97
        0
 75
     0
 76
     1
 98
        0
  0
ENDBLK
  5
18D
330
189
100
AcDbEntity
  8
0
100
AcDbBlockEnd
  0
BLOCK
  5
192
330
18E
100
AcDbEntity
  8
0
100
AcDbBlockBegin
  2
CDWK_PTTYP52
 70
     0
 10
0.0
 20
0.0
 30
0.0
  3
CDWK_PTTYP52
  1

  0
LINE
  5
18F
330
18E
100
AcDbEntity
  8
0
 62
     0
370
    -2
100
AcDbLine
 10
-0.5
 20
-0.289
 30
0.0
 11
0.5
 21
-0.289
 31
0.0
  0
LINE
  5
190
330
18E
100
AcDbEntity
  8
0
 62
     0
370
    -2
100
AcDbLine
 10
0.5
 20
-0.289
 30
0.0
 11
0.0
 21
0.577
 31
0.0
  0
LINE
  5
191
330
18E
100
AcDbEntity
  8
0
 62
     0
370
    -2
100
AcDbLine
 10
0.0
 20
0.577
 30
0.0
 11
-0.5
 21
-0.289
 31
0.0
  0
ENDBLK
  5
193
330
18E
100
AcDbEntity
  8
0
100
AcDbBlockEnd
  0
BLOCK
  5
199
330
194
100
AcDbEntity
  8
0
100
AcDbBlockBegin
  2
cw-dimension-symbol1
 70
     0
 10
0.0
 20
0.0
 30
0.0
  3
cw-dimension-symbol1
  1

  0
LINE
  5
195
330
194
100
AcDbEntity
  8
0
 62
     0
370
    -2
100
AcDbLine
 10
0.0
 20
0.0
 30
0.0
 11
-1.0
 21
0.25
 31
0.0
  0
LINE
  5
196
330
194
100
AcDbEntity
  8
0
 62
     0
370
    -2
100
AcDbLine
 10
0.0
 20
0.0
 30
0.0
 11
-1.0
 21
-0.25
 31
0.0
  0
LINE
  5
197
330
194
100
AcDbEntity
  8
0
 62
     0
370
    -2
100
AcDbLine
 10
-1.0
 20
0.25
 30
0.0
 11
-1.0
 21
-0.25
 31
0.0
  0
LINE
  5
198
330
194
100
AcDbEntity
  8
0
 62
     0
370
    -2
100
AcDbLine
 10
0.0
 20
0.0
 30
0.0
 11
-1.0
 21
0.0
 31
0.0
  0
ENDBLK
  5
19A
330
194
100
AcDbEntity
  8
0
100
AcDbBlockEnd
  0
BLOCK
  5
19E
330
19B
100
AcDbEntity
  8
0
100
AcDbBlockBegin
  2
cw-dimension-symbol2
 70
     0
 10
0.0
 20
0.0
 30
0.0
  3
cw-dimension-symbol2
  1

  0
LINE
  5
19C
330
19B
100
AcDbEntity
  8
0
 62
     0
370
    -2
100
AcDbLine
 10
-1.0
 20
0.0
 30
0.0
 11
1.0
 21
0.0
 31
0.0
  0
LINE
  5
19D
330
19B
100
AcDbEntity
  8
0
 62
     0
370
    -2
100
AcDbLine
 10
-0.5
 20
-0.5
 30
0.0
 11
0.5
 21
0.5
 31
0.0
  0
ENDBLK
  5
19F
330
19B
100
AcDbEntity
  8
0
100
AcDbBlockEnd
  0
BLOCK
  5
1A3
330
1A0
100
AcDbEntity
  8
0
100
AcDbBlockBegin
  2
cw-dimension-symbol3
 70
     0
 10
0.0
 20
0.0
 30
0.0
  3
cw-dimension-symbol3
  1

  0
LINE
  5
1A1
330
1A0
100
AcDbEntity
  8
0
 62
     0
370
    -2
100
AcDbLine
 10
-1.0
 20
0.0
 30
0.0
 11
1.0
 21
0.0
 31
0.0
  0
CIRCLE
  5
1A2
330
1A0
100
AcDbEntity
  8
0
 62
     0
370
    -2
100
AcDbCircle
 10
0.0
 20
0.0
 30
0.0
 40
0.25
  0
ENDBLK
  5
1A4
330
1A0
100
AcDbEntity
  8
0
100
AcDbBlockEnd
  0
BLOCK
  5
1AA
330
1A5
100
AcDbEntity
  8
0
100
AcDbBlockBegin
  2
cw-dimension-symbol5
 70
     0
 10
0.0
 20
0.0
 30
0.0
  3
cw-dimension-symbol5
  1

  0
HATCH
  5
1A6
330
1A5
100
AcDbEntity
  8
0
 62
     0
370
    -2
100
AcDbHatch
 10
0.0
 20
0.0
 30
0.0
210
0.0
220
0.0
230
1.0
  2
SOLID
 70
     1
 71
     1
 91
        1
 92
        3
 72
     0
 73
     1
 93
        3
 10
0.0
 20
0.0
 10
-1.0
 20
0.25
 10
-1.0
 20
-0.25
 97
        0
 75
     0
 76
     1
 98
        0
  0
LINE
  5
1A7
330
1A5
100
AcDbEntity
  8
0
 62
     0
370
    -2
100
AcDbLine
 10
0.0
 20
0.0
 30
0.0
 11
-1.0
 21
0.25
 31
0.0
  0
LINE
  5
1A8
330
1A5
100
AcDbEntity
  8
0
 62
     0
370
    -2
100
AcDbLine
 10
-1.0
 20
0.25
 30
0.0
 11
-1.0
 21
-0.25
 31
0.0
  0
LINE
  5
1A9
330
1A5
100
AcDbEntity
  8
0
 62
     0
370
    -2
100
AcDbLine
 10
-1.0
 20
-0.25
 30
0.0
 11
0.0
 21
0.0
 31
0.0
  0
ENDBLK
  5
1AB
330
1A5
100
AcDbEntity
  8
0
100
AcDbBlockEnd
  0
BLOCK
  5
1B0
330
1AC
100
AcDbEntity
  8
0
100
AcDbBlockBegin
  2
cw-dimension-symbol6
 70
     0
 10
0.0
 20
0.0
 30
0.0
  3
cw-dimension-symbol6
  1

  0
LINE
  5
1AD
330
1AC
100
AcDbEntity
  8
0
 62
     0
370
    -2
100
AcDbLine
 10
0.0
 20
0.0
 30
0.0
 11
-1.0
 21
0.25
 31
0.0
  0
LINE
  5
1AE
330
1AC
100
AcDbEntity
  8
0
 62
     0
370
    -2
100
AcDbLine
 10
0.0
 20
0.0
 30
0.0
 11
-1.0
 21
-0.25
 31
0.0
  0
LINE
  5
1AF
330
1AC
100
AcDbEntity
  8
0
 62
     0
370
    -2
100
AcDbLine
 10
0.0
 20
0.0
 30
0.0
 11
-1.0
 21
0.0
 31
0.0
  0
ENDBLK
  5
1B1
330
1AC
100
AcDbEntity
  8
0
100
AcDbBlockEnd
  0
BLOCK
  5
1B6
330
1B2
100
AcDbEntity
  8
0
100
AcDbBlockBegin
  2
cw-dimension-symbol11
 70
     0
 10
0.0
 20
0.0
 30
0.0
  3
cw-dimension-symbol11
  1

  0
LINE
  5
1B3
330
1B2
100
AcDbEntity
  8
0
 62
     0
370
    -2
100
AcDbLine
 10
-1.0
 20
1.0
 30
0.0
 11
1.0
 21
1.0
 31
0.0
  0
LINE
  5
1B4
330
1B2
100
AcDbEntity
  8
0
 62
     0
370
    -2
100
AcDbLine
 10
0.0
 20
0.0
 30
0.0
 11
-1.0
 21
1.0
 31
0.0
  0
LINE
  5
1B5
330
1B2
100
AcDbEntity
  8
0
 62
     0
370
    -2
100
AcDbLine
 10
0.0
 20
0.0
 30
0.0
 11
1.0
 21
1.0
 31
0.0
  0
ENDBLK
  5
1B7
330
1B2
100
AcDbEntity
  8
0
100
AcDbBlockEnd
  0
BLOCK
  5
1BC
330
1B8
100
AcDbEntity
  8
0
100
AcDbBlockBegin
  2
cw-dimension-symbol13
 70
     0
 10
0.0
 20
0.0
 30
0.0
  3
cw-dimension-symbol13
  1

  0
LINE
  5
1B9
330
1B8
100
AcDbEntity
  8
0
 62
     0
370
    -2
100
AcDbLine
 10
-1.0
 20
-1.0
 30
0.0
 11
1.0
 21
-1.0
 31
0.0
  0
LINE
  5
1BA
330
1B8
100
AcDbEntity
  8
0
 62
     0
370
    -2
100
AcDbLine
 10
0.0
 20
0.0
 30
0.0
 11
-1.0
 21
-1.0
 31
0.0
  0
LINE
  5
1BB
330
1B8
100
AcDbEntity
  8
0
 62
     0
370
    -2
100
AcDbLine
 10
0.0
 20
0.0
 30
0.0
 11
1.0
 21
-1.0
 31
0.0
  0
ENDBLK
  5
1BD
330
1B8
100
AcDbEntity
  8
0
100
AcDbBlockEnd
  0
BLOCK
  5
1C3
330
1BE
100
AcDbEntity
  8
0
100
AcDbBlockBegin
  2
cw-dimension-symbol15
 70
     0
 10
0.0
 20
0.0
 30
0.0
  3
cw-dimension-symbol15
  1

  0
HATCH
  5
1BF
330
1BE
100
AcDbEntity
  8
0
 62
     0
370
    -2
100
AcDbHatch
 10
0.0
 20
0.0
 30
0.0
210
0.0
220
0.0
230
1.0
  2
SOLID
 70
     1
 71
     1
 91
        1
 92
        3
 72
     0
 73
     1
 93
        3
 10
0.0
 20
0.0
 10
-1.0
 20
1.0
 10
1.0
 20
1.0
 97
        0
 75
     0
 76
     1
 98
        0
  0
LINE
  5
1C0
330
1BE
100
AcDbEntity
  8
0
 62
     0
370
    -2
100
AcDbLine
 10
0.0
 20
0.0
 30
0.0
 11
-1.0
 21
1.0
 31
0.0
  0
LINE
  5
1C1
330
1BE
100
AcDbEntity
  8
0
 62
     0
370
    -2
100
AcDbLine
 10
-1.0
 20
1.0
 30
0.0
 11
1.0
 21
1.0
 31
0.0
  0
LINE
  5
1C2
330
1BE
100
AcDbEntity
  8
0
 62
     0
370
    -2
100
AcDbLine
 10
1.0
 20
1.0
 30
0.0
 11
0.0
 21
0.0
 31
0.0
  0
ENDBLK
  5
1C4
330
1BE
100
AcDbEntity
  8
0
100
AcDbBlockEnd
  0
BLOCK
  5
1CA
330
1C5
100
AcDbEntity
  8
0
100
AcDbBlockBegin
  2
cw-dimension-symbol16
 70
     0
 10
0.0
 20
0.0
 30
0.0
  3
cw-dimension-symbol16
  1

  0
HATCH
  5
1C6
330
1C5
100
AcDbEntity
  8
0
 62
     0
370
    -2
100
AcDbHatch
 10
0.0
 20
0.0
 30
0.0
210
0.0
220
0.0
230
1.0
  2
SOLID
 70
     1
 71
     1
 91
        1
 92
        3
 72
     0
 73
     1
 93
        3
 10
0.0
 20
0.0
 10
-1.0
 20
-1.0
 10
1.0
 20
-1.0
 97
        0
 75
     0
 76
     1
 98
        0
  0
LINE
  5
1C7
330
1C5
100
AcDbEntity
  8
0
 62
     0
370
    -2
100
AcDbLine
 10
0.0
 20
0.0
 30
0.0
 11
-1.0
 21
-1.0
 31
0.0
  0
LINE
  5
1C8
330
1C5
100
AcDbEntity
  8
0
 62
     0
370
    -2
100
AcDbLine
 10
-1.0
 20
-1.0
 30
0.0
 11
1.0
 21
-1.0
 31
0.0
  0
LINE
  5
1C9
330
1C5
100
AcDbEntity
  8
0
 62
     0
370
    -2
100
AcDbLine
 10
1.0
 20
-1.0
 30
0.0
 11
0.0
 21
0.0
 31
0.0
  0
ENDBLK
  5
1CB
330
1C5
100
AcDbEntity
  8
0
100
AcDbBlockEnd
  0
BLOCK
  5
1D1
330
1CC
100
AcDbEntity
  8
0
100
AcDbBlockBegin
  2
cw-dimension-symbol17
 70
     0
 10
0.0
 20
0.0
 30
0.0
  3
cw-dimension-symbol17
  1

  0
LINE
  5
1CD
330
1CC
100
AcDbEntity
  8
0
 62
     0
370
    -2
100
AcDbLine
 10
0.0
 20
0.0
 30
0.0
 11
1.0
 21
1.0
 31
0.0
  0
LINE
  5
1CE
330
1CC
100
AcDbEntity
  8
0
 62
     0
370
    -2
100
AcDbLine
 10
1.0
 20
1.0
 30
0.0
 11
-1.0
 21
1.0
 31
0.0
  0
LINE
  5
1CF
330
1CC
100
AcDbEntity
  8
0
 62
     0
370
    -2
100
AcDbLine
 10
-1.0
 20
1.0
 30
0.0
 11
0.0
 21
0.0
 31
0.0
  0
HATCH
  5
1D0
330
1CC
100
AcDbEntity
  8
0
 62
     0
370
    -2
100
AcDbHatch
 10
0.0
 20
0.0
 30
0.0
210
0.0
220
0.0
230
1.0
  2
SOLID
 70
     1
 71
     1
 91
        1
 92
        3
 72
     0
 73
     1
 93
        3
 10
0.0
 20
0.0
 10
-1.0
 20
1.0
 10
0.0
 20
1.0
 97
        0
 75
     0
 76
     1
 98
        0
  0
ENDBLK
  5
1D2
330
1CC
100
AcDbEntity
  8
0
100
AcDbBlockEnd
  0
BLOCK
  5
1D8
330
1D3
100
AcDbEntity
  8
0
100
AcDbBlockBegin
  2
cw-dimension-symbol18
 70
     0
 10
0.0
 20
0.0
 30
0.0
  3
cw-dimension-symbol18
  1

  0
LINE
  5
1D4
330
1D3
100
AcDbEntity
  8
0
 62
     0
370
    -2
100
AcDbLine
 10
0.0
 20
0.0
 30
0.0
 11
1.0
 21
-1.0
 31
0.0
  0
LINE
  5
1D5
330
1D3
100
AcDbEntity
  8
0
 62
     0
370
    -2
100
AcDbLine
 10
1.0
 20
-1.0
 30
0.0
 11
-1.0
 21
-1.0
 31
0.0
  0
LINE
  5
1D6
330
1D3
100
AcDbEntity
  8
0
 62
     0
370
    -2
100
AcDbLine
 10
-1.0
 20
-1.0
 30
0.0
 11
0.0
 21
0.0
 31
0.0
  0
HATCH
  5
1D7
330
1D3
100
AcDbEntity
  8
0
 62
     0
370
    -2
100
AcDbHatch
 10
0.0
 20
0.0
 30
0.0
210
0.0
220
0.0
230
1.0
  2
SOLID
 70
     1
 71
     1
 91
        1
 92
        3
 72
     0
 73
     1
 93
        3
 10
0.0
 20
0.0
 10
-1.0
 20
-1.0
 10
0.0
 20
-1.0
 97
        0
 75
     0
 76
     1
 98
        0
  0
ENDBLK
  5
1D9
330
1D3
100
AcDbEntity
  8
0
100
AcDbBlockEnd
  0
BLOCK
  5
1DB
330
1DA
100
AcDbEntity
  8
0
100
AcDbBlockBegin
  2
cw-dimension-symbol19
 70
     0
 10
0.0
 20
0.0
 30
0.0
  3
cw-dimension-symbol19
  1

  0
ENDBLK
  5
1DC
330
1DA
100
AcDbEntity
  8
0
100
AcDbBlockEnd
  0
BLOCK
  5
1E2
330
1DD
100
AcDbEntity
  8
0
100
AcDbBlockBegin
  2
cw-dimension-symbol20
 70
     0
 10
0.0
 20
0.0
 30
0.0
  3
cw-dimension-symbol20
  1

  0
LINE
  5
1DE
330
1DD
100
AcDbEntity
  8
0
 62
     0
370
    -2
100
AcDbLine
 10
0.0
 20
0.0
 30
0.0
 11
0.0
 21
2.0
 31
0.0
  0
LINE
  5
1DF
330
1DD
100
AcDbEntity
  8
0
 62
     0
370
    -2
100
AcDbLine
 10
0.0
 20
0.0
 30
0.0
 11
-1.0
 21
0.33
 31
0.0
  0
LINE
  5
1E0
330
1DD
100
AcDbEntity
  8
0
 62
     0
370
    -2
100
AcDbLine
 10
0.0
 20
0.0
 30
0.0
 11
1.0
 21
0.33
 31
0.0
  0
LINE
  5
1E1
330
1DD
100
AcDbEntity
  8
0
 62
     0
370
    -2
100
AcDbLine
 10
0.0
 20
2.0
 30
0.0
 11
4.15
 21
2.0
 31
0.0
  0
ENDBLK
  5
1E3
330
1DD
100
AcDbEntity
  8
0
100
AcDbBlockEnd
  0
BLOCK
  5
1E9
330
1E4
100
AcDbEntity
  8
0
100
AcDbBlockBegin
  2
cw-dimension-symbol21
 70
     0
 10
0.0
 20
0.0
 30
0.0
  3
cw-dimension-symbol21
  1

  0
LINE
  5
1E5
330
1E4
100
AcDbEntity
  8
0
 62
     0
370
    -2
100
AcDbLine
 10
0.0
 20
0.0
 30
0.0
 11
0.0
 21
-2.0
 31
0.0
  0
LINE
  5
1E6
330
1E4
100
AcDbEntity
  8
0
 62
     0
370
    -2
100
AcDbLine
 10
0.0
 20
0.0
 30
0.0
 11
-1.0
 21
-0.33
 31
0.0
  0
LINE
  5
1E7
330
1E4
100
AcDbEntity
  8
0
 62
     0
370
    -2
100
AcDbLine
 10
0.0
 20
0.0
 30
0.0
 11
1.0
 21
-0.33
 31
0.0
  0
LINE
  5
1E8
330
1E4
100
AcDbEntity
  8
0
 62
     0
370
    -2
100
AcDbLine
 10
0.0
 20
-2.0
 30
0.0
 11
4.15
 21
-2.0
 31
0.0
  0
ENDBLK
  5
1EA
330
1E4
100
AcDbEntity
  8
0
100
AcDbBlockEnd
  0
BLOCK
  5
21B
330
1EB
100
AcDbEntity
  8
0
100
AcDbBlockBegin
  2
cw-line-extremity0
 70
     0
 10
0.0
 20
0.0
 30
0.0
  3
cw-line-extremity0
  1

  0
LINE
  5
1EC
330
1EB
100
AcDbEntity
  8
0
 62
     0
370
    -2
100
AcDbLine
 10
0.0
 20
0.0
 30
0.0
 11
2.0
 21
0.5
 31
0.0
  0
LINE
  5
1ED
330
1EB
100
AcDbEntity
  8
0
 62
     0
370
    -2
100
AcDbLine
 10
0.0
 20
0.0
 30
0.0
 11
2.0
 21
-0.5
 31
0.0
  0
LINE
  5
1EE
330
1EB
100
AcDbEntity
  8
0
 62
     0
370
    -2
100
AcDbLine
 10
2.0
 20
0.5
 30
0.0
 11
2.0
 21
-0.5
 31
0.0
  0
ENDBLK
  5
21C
330
1EB
100
AcDbEntity
  8
0
100
AcDbBlockEnd
  0
BLOCK
  5
219
330
1EF
100
AcDbEntity
  8
0
100
AcDbBlockBegin
  2
cw-line-extremity2
 70
     0
 10
0.0
 20
0.0
 30
0.0
  3
cw-line-extremity2
  1

  0
HATCH
  5
1F0
330
1EF
100
AcDbEntity
  8
0
 62
     0
370
     0
100
AcDbHatch
 10
0.0
 20
0.0
 30
0.0
210
0.0
220
0.0
230
1.0
  2
SOLID
 70
     1
 71
     1
 91
        1
 92
        3
 72
     0
 73
     1
 93
        3
 10
0.0
 20
0.0
 10
2.0
 20
0.5
 10
2.0
 20
-0.5
 97
        0
 75
     0
 76
     1
 98
        0
  0
LINE
  5
1F1
330
1EF
100
AcDbEntity
  8
0
 62
     0
370
    -2
100
AcDbLine
 10
0.0
 20
0.0
 30
0.0
 11
2.0
 21
0.5
 31
0.0
  0
LINE
  5
1F2
330
1EF
100
AcDbEntity
  8
0
 62
     0
370
    -2
100
AcDbLine
 10
2.0
 20
0.5
 30
0.0
 11
2.0
 21
-0.5
 31
0.0
  0
LINE
  5
1F3
330
1EF
100
AcDbEntity
  8
0
 62
     0
370
    -2
100
AcDbLine
 10
2.0
 20
-0.5
 30
0.0
 11
0.0
 21
0.0
 31
0.0
  0
ENDBLK
  5
21A
330
1EF
100
AcDbEntity
  8
0
100
AcDbBlockEnd
  0
BLOCK
  5
217
330
1F4
100
AcDbEntity
  8
0
100
AcDbBlockBegin
  2
cw-line-extremity3
 70
     0
 10
0.0
 20
0.0
 30
0.0
  3
cw-line-extremity3
  1

  0
HATCH
  5
1F5
330
1F4
100
AcDbEntity
  8
0
 62
     0
370
     0
100
AcDbHatch
 10
0.0
 20
0.0
 30
0.0
210
0.0
220
0.0
230
1.0
  2
SOLID
 70
     1
 71
     1
 91
        1
 92
        3
 72
     0
 73
     1
 93
        3
 10
0.0
 20
0.0
 10
2.0
 20
0.5
 10
2.0
 20
-0.5
 97
        0
 75
     0
 76
     1
 98
        0
  0
LINE
  5
1F6
330
1F4
100
AcDbEntity
  8
0
 62
     0
370
    -2
100
AcDbLine
 10
0.0
 20
0.0
 30
0.0
 11
2.0
 21
0.5
 31
0.0
  0
LINE
  5
1F7
330
1F4
100
AcDbEntity
  8
0
 62
     0
370
    -2
100
AcDbLine
 10
2.0
 20
0.5
 30
0.0
 11
2.0
 21
-0.5
 31
0.0
  0
LINE
  5
1F8
330
1F4
100
AcDbEntity
  8
0
 62
     0
370
    -2
100
AcDbLine
 10
2.0
 20
-0.5
 30
0.0
 11
0.0
 21
0.0
 31
0.0
  0
ENDBLK
  5
218
330
1F4
100
AcDbEntity
  8
0
100
AcDbBlockEnd
  0
BLOCK
  5
215
330
1F9
100
AcDbEntity
  8
0
100
AcDbBlockBegin
  2
cw-line-extremity301
 70
     0
 10
0.0
 20
0.0
 30
0.0
  3
cw-line-extremity301
  1

  0
LINE
  5
1FA
330
1F9
100
AcDbEntity
  8
0
 62
     0
370
    -2
100
AcDbLine
 10
0.0
 20
1.33333
 30
0.0
 11
0.0
 21
-1.33333
 31
0.0
  0
ENDBLK
  5
216
330
1F9
100
AcDbEntity
  8
0
100
AcDbBlockEnd
  0
BLOCK
  5
213
330
1FB
100
AcDbEntity
  8
0
100
AcDbBlockBegin
  2
cw-line-extremity4
 70
     0
 10
0.0
 20
0.0
 30
0.0
  3
cw-line-extremity4
  1

  0
HATCH
  5
1FC
330
1FB
100
AcDbEntity
  8
0
 62
     0
370
     5
100
AcDbHatch
 10
0.0
 20
0.0
 30
0.0
210
0.0
220
0.0
230
1.0
  2
SOLID
 70
     1
 71
     1
 91
        1
 92
        1
 93
        1
 72
     2
 10
0.0
 20
0.0
 40
0.5
 50
0.0
 51
360.0
 73
     1
 97
        0
 75
     0
 76
     1
 98
        0
  0
ENDBLK
  5
214
330
1FB
100
AcDbEntity
  8
0
100
AcDbBlockEnd
  0
BLOCK
  5
211
330
1FD
100
AcDbEntity
  8
0
100
AcDbBlockBegin
  2
cw-line-extremity5
 70
     0
 10
0.0
 20
0.0
 30
0.0
  3
cw-line-extremity5
  1

  0
LINE
  5
1FE
330
1FD
100
AcDbEntity
  8
0
 62
     0
370
    -2
100
AcDbLine
 10
0.0
 20
0.0
 30
0.0
 11
-0.5
 21
0.0
 31
0.0
  0
ENDBLK
  5
212
330
1FD
100
AcDbEntity
  8
0
100
AcDbBlockEnd
  0
BLOCK
  5
20F
330
1FF
100
AcDbEntity
  8
0
100
AcDbBlockBegin
  2
cw-line-extremity6
 70
     0
 10
0.0
 20
0.0
 30
0.0
  3
cw-line-extremity6
  1

  0
LINE
  5
200
330
1FF
100
AcDbEntity
  8
0
 62
     0
370
    18
100
AcDbLine
 10
0.0
 20
0.5
 30
0.0
 11
0.0
 21
-0.5
 31
0.0
  0
ENDBLK
  5
210
330
1FF
100
AcDbEntity
  8
0
100
AcDbBlockEnd
  0
BLOCK
  5
20D
330
201
100
AcDbEntity
  8
0
100
AcDbBlockBegin
  2
cw-line-extremity9
 70
     0
 10
0.0
 20
0.0
 30
0.0
  3
cw-line-extremity9
  1

  0
LINE
  5
202
330
201
100
AcDbEntity
  8
0
 62
     0
370
    18
100
AcDbLine
 10
-0.5
 20
-0.5
 30
0.0
 11
0.5
 21
0.5
 31
0.0
  0
ENDBLK
  5
20E
330
201
100
AcDbEntity
  8
0
100
AcDbBlockEnd
  0
BLOCK
  5
20B
330
203
100
AcDbEntity
  8
0
100
AcDbBlockBegin
  2
cw-line-extremity10
 70
     0
 10
0.0
 20
0.0
 30
0.0
  3
cw-line-extremity10
  1

  0
CIRCLE
  5
204
330
203
100
AcDbEntity
  8
0
 62
     0
370
    -2
100
AcDbCircle
 10
0.0
 20
0.0
 30
0.0
 40
0.5
  0
ENDBLK
  5
20C
330
203
100
AcDbEntity
  8
0
100
AcDbBlockEnd
  0
BLOCK
  5
209
330
205
100
AcDbEntity
  8
0
100
AcDbBlockBegin
  2
cw-line-extremity1
 70
     0
 10
0.0
 20
0.0
 30
0.0
  3
cw-line-extremity1
  1

  0
LINE
  5
206
330
205
100
AcDbEntity
  8
0
 62
     0
370
    -2
100
AcDbLine
 10
0.0
 20
0.0
 30
0.0
 11
0.0
 21
0.5
 31
0.0
  0
LINE
  5
207
330
205
100
AcDbEntity
  8
0
 62
     0
370
    -2
100
AcDbLine
 10
0.0
 20
0.5
 30
0.0
 11
0.25
 21
0.75
 31
0.0
  0
LINE
  5
208
330
205
100
AcDbEntity
  8
0
 62
     0
370
    -2
100
AcDbLine
 10
0.25
 20
0.75
 30
0.0
 11
0.75
 21
0.75
 31
0.0
  0
ENDBLK
  5
20A
330
205
100
AcDbEntity
  8
0
100
AcDbBlockEnd
  0
BLOCK
  5
1C
330
1B
100
AcDbEntity
  8
0
100
AcDbBlockBegin
  2
*Paper_Space69
 70
     0
 10
0.0
 20
0.0
 30
0.0
  3
*Paper_Space69
  1

  0
ENDBLK
  5
1D
330
1B
100
AcDbEntity
  8
0
100
AcDbBlockEnd
  0
ENDSEC
  0
SECTION
  2
ENTITIES
  0
LWPOLYLINE
  5
227
330
1F
100
AcDbEntity
  8
Mst 1_1
  6
CADWORK_4
 62
     7
370
    25
100
AcDbPolyline
 90
        2
 70
     0
 43
0.0
 10
-492.644596687807
 20
61.36958210106241
 10
-492.644596687807
 20
26.36958210106241
1001
Cadwork
1000
entity-cdw-id
1071
        1
1000
entity-cdw-type
1071
        2
1000
entity-name
1000
line_1
  0
HATCH
  5
228
330
1F
100
AcDbEntity
  8
Mst 1_1
 62
   242
420
 14811162
440
 33554687
370
     9
100
AcDbHatch
 10
0.0
 20
0.0
 30
0.0
210
0.0
220
0.0
230
1.0
  2
SOLID
 70
     1
 71
     1
 91
        1
 92
        3
 72
     0
 73
     1
 93
       46
 10
-288.5280186824061
 20
220.5231901184161
 10
-288.6588400157394
 20
220.5338284517493
 10
-288.7829893490727
 20
220.5646167850864
 10
-288.8987946824061
 20
220.6138651184156
 10
-289.0045840157394
 20
220.6798834517467
 10
-289.0986853490728
 20
220.7609817850825
 10
-289.1794266824062
 20
220.8554701184185
 10
-289.2451360157394
 20
220.9616584517498
 10
-289.2941413490728
 20
221.0778567850866
 10
-289.3247706824061
 20
221.202375118417
 10
-289.3353520157394
 20
221.3335234517508
 10
-289.3353520157394
 20
221.3335234517508
 10
-289.3247706824061
 20
221.4647356184214
 10
-289.2941413490728
 20
221.589340785089
 10
-289.2451360157394
 20
221.7056419517539
 10
-289.1794266824062
 20
221.8119421184165
 10
-289.0986853490728
 20
221.9065442850842
 10
-289.0045840157394
 20
221.9877514517502
 10
-288.8987946824061
 20
222.053866618422
 10
-288.7829893490727
 20
222.1031927850854
 10
-288.6588400157394
 20
222.1340329517479
 10
-288.5280186824061
 20
222.1446901184172
 10
-288.5280186824061
 20
222.1446901184172
 10
-288.3973640157394
 20
222.1340329517479
 10
-288.2733213490728
 20
222.1031927850854
 10
-288.1575726824061
 20
222.053866618422
 10
-288.0518000157394
 20
221.9877514517502
 10
-287.9576853490728
 20
221.9065442850842
 10
-287.8769106824061
 20
221.8119421184165
 10
-287.8111580157395
 20
221.7056419517539
 10
-287.7621093490728
 20
221.589340785089
 10
-287.7314466824062
 20
221.4647356184214
 10
-287.7208520157394
 20
221.3335234517508
 10
-287.7208520157394
 20
221.3335234517508
 10
-287.7314466824062
 20
221.202375118417
 10
-287.7621093490728
 20
221.0778567850866
 10
-287.8111580157395
 20
220.9616584517498
 10
-287.8769106824061
 20
220.8554701184185
 10
-287.9576853490728
 20
220.7609817850825
 10
-288.0518000157394
 20
220.6798834517467
 10
-288.1575726824061
 20
220.6138651184156
 10
-288.2733213490728
 20
220.5646167850864
 10
-288.3973640157394
 20
220.5338284517493
 10
-288.5280186824061
 20
220.5231901184161
 10
-288.5280186824061
 20
220.5231901184161
 10
-288.5280186824061
 20
220.5231901184161
 97
        0
 75
     0
 76
     1
 98
        0
1001
Cadwork
1000
entity-cdw-id
1071
        3
1000
entity-cdw-type
1071
        2
1000
entity-name
1000
line_3
  0
LWPOLYLINE
  5
229
330
1F
100
AcDbEntity
  8
Mst 1_1
 62
   242
420
 14811162
370
    18
100
AcDbPolyline
 90
       47
 70
     0
 43
0.0
 10
-288.5280186824061
 20
220.5231901184161
 10
-288.6588400157394
 20
220.5338284517493
 10
-288.7829893490727
 20
220.5646167850864
 10
-288.8987946824061
 20
220.6138651184156
 10
-289.0045840157394
 20
220.6798834517467
 10
-289.0986853490728
 20
220.7609817850825
 10
-289.1794266824062
 20
220.8554701184185
 10
-289.2451360157394
 20
220.9616584517498
 10
-289.2941413490728
 20
221.0778567850866
 10
-289.3247706824061
 20
221.202375118417
 10
-289.3353520157394
 20
221.3335234517508
 10
-289.3353520157394
 20
221.3335234517508
 10
-289.3247706824061
 20
221.4647356184214
 10
-289.2941413490728
 20
221.589340785089
 10
-289.2451360157394
 20
221.7056419517539
 10
-289.1794266824062
 20
221.8119421184165
 10
-289.0986853490728
 20
221.9065442850842
 10
-289.0045840157394
 20
221.9877514517502
 10
-288.8987946824061
 20
222.053866618422
 10
-288.7829893490727
 20
222.1031927850854
 10
-288.6588400157394
 20
222.1340329517479
 10
-288.5280186824061
 20
222.1446901184172
 10
-288.5280186824061
 20
222.1446901184172
 10
-288.3973640157394
 20
222.1340329517479
 10
-288.2733213490728
 20
222.1031927850854
 10
-288.1575726824061
 20
222.053866618422
 10
-288.0518000157394
 20
221.9877514517502
 10
-287.9576853490728
 20
221.9065442850842
 10
-287.8769106824061
 20
221.8119421184165
 10
-287.8111580157395
 20
221.7056419517539
 10
-287.7621093490728
 20
221.589340785089
 10
-287.7314466824062
 20
221.4647356184214
 10
-287.7208520157394
 20
221.3335234517508
 10
-287.7208520157394
 20
221.3335234517508
 10
-287.7314466824062
 20
221.202375118417
 10
-287.7621093490728
 20
221.0778567850866
 10
-287.8111580157395
 20
220.9616584517498
 10
-287.8769106824061
 20
220.8554701184185
 10
-287.9576853490728
 20
220.7609817850825
 10
-288.0518000157394
 20
220.6798834517467
 10
-288.1575726824061
 20
220.6138651184156
 10
-288.2733213490728
 20
220.5646167850864
 10
-288.3973640157394
 20
220.5338284517493
 10
-288.5280186824061
 20
220.5231901184161
 10
-288.5280186824061
 20
220.5231901184161
 10
-288.5280186824061
 20
220.5231901184161
 10
-288.5280186824061
 20
220.5231901184161
1001
Cadwork
1000
entity-cdw-id
1071
        3
1000
entity-cdw-type
1071
        2
1000
entity-name
1000
line_3
  0
HATCH
  5
22A
330
1F
100
AcDbEntity
  8
Mst 1_1
 62
   242
420
 14811162
440
 33554687
370
    25
100
AcDbHatch
 10
0.0
 20
0.0
 30
0.0
210
0.0
220
0.0
230
1.0
  2
SOLID
 70
     1
 71
     1
 91
        1
 92
        3
 72
     0
 73
     1
 93
        8
 10
-355.9930186824062
 20
219.9574401184145
 10
-290.0251853490728
 20
219.9574401184145
 10
-290.0251853490728
 20
219.9574401184145
 10
-290.0251853490728
 20
203.3761901184189
 10
-290.0251853490728
 20
203.3761901184189
 10
-355.9930186824062
 20
203.3761901184189
 10
-355.9930186824062
 20
203.3761901184189
 10
-355.9930186824062
 20
219.9574401184145
 97
        0
 75
     0
 76
     1
 98
        0
1001
Cadwork
1000
entity-cdw-id
1071
        4
1000
entity-cdw-type
1071
        2
1000
entity-name
1000
line_4
  0
LWPOLYLINE
  5
22B
330
1F
100
AcDbEntity
  8
Mst 1_1
 62
   242
420
 14811162
370
    18
100
AcDbPolyline
 90
        9
 70
     0
 43
0.0
 10
-355.9930186824062
 20
219.9574401184145
 10
-290.0251853490728
 20
219.9574401184145
 10
-290.0251853490728
 20
219.9574401184145
 10
-290.0251853490728
 20
203.3761901184189
 10
-290.0251853490728
 20
203.3761901184189
 10
-355.9930186824062
 20
203.3761901184189
 10
-355.9930186824062
 20
203.3761901184189
 10
-355.9930186824062
 20
219.9574401184145
 10
-355.9930186824062
 20
219.9574401184145
1001
Cadwork
1000
entity-cdw-id
1071
        4
1000
entity-cdw-type
1071
        2
1000
entity-name
1000
line_4
  0
HATCH
  5
22C
330
1F
100
AcDbEntity
  8
Mst 1_1
 62
     7
420
 16777215
440
 33554687
370
     9
100
AcDbHatch
 10
0.0
 20
0.0
 30
0.0
210
0.0
220
0.0
230
1.0
  2
SOLID
 70
     1
 71
     1
 91
        1
 92
        3
 72
     0
 73
     1
 93
        8
 10
-323.1865186824061
 20
218.8077734517501
 10
-291.1716853490727
 20
218.8077734517501
 10
-291.1716853490727
 20
218.8077734517501
 10
-291.1716853490727
 20
204.5240217850878
 10
-291.1716853490727
 20
204.5240217850878
 10
-323.1865186824061
 20
204.5240217850878
 10
-323.1865186824061
 20
204.5240217850878
 10
-323.1865186824061
 20
218.8077734517501
 97
        0
 75
     0
 76
     1
 98
        0
1001
Cadwork
1000
entity-cdw-id
1071
       16
1000
entity-cdw-type
1071
        2
1000
entity-name
1000
line_16
  0
LWPOLYLINE
  5
22D
330
1F
100
AcDbEntity
  8
Mst 1_1
 62
     7
420
 16777215
370
    25
100
AcDbPolyline
 90
        9
 70
     0
 43
0.0
 10
-323.1865186824061
 20
218.8077734517501
 10
-291.1716853490727
 20
218.8077734517501
 10
-291.1716853490727
 20
218.8077734517501
 10
-291.1716853490727
 20
204.5240217850878
 10
-291.1716853490727
 20
204.5240217850878
 10
-323.1865186824061
 20
204.5240217850878
 10
-323.1865186824061
 20
204.5240217850878
 10
-323.1865186824061
 20
218.8077734517501
 10
-323.1865186824061
 20
218.8077734517501
1001
Cadwork
1000
entity-cdw-id
1071
       16
1000
entity-cdw-type
1071
        2
1000
entity-name
1000
line_16
  0
HATCH
  5
22E
330
1F
100
AcDbEntity
  8
Mst 1_1
 62
   242
420
 14811162
440
 33554687
370
     9
100
AcDbHatch
 10
0.0
 20
0.0
 30
0.0
210
0.0
220
0.0
230
1.0
  2
SOLID
 70
     1
 71
     1
 91
        1
 92
        3
 72
     0
 73
     1
 93
       22
 10
-321.2686853490728
 20
206.8172901184153
 10
-321.2686853490728
 20
215.9038067850852
 10
-321.2686853490728
 20
215.9038067850852
 10
-313.0893520157393
 20
215.9038067850852
 10
-313.0893520157393
 20
215.9038067850852
 10
-313.0893520157393
 20
213.4394567850832
 10
-313.0893520157393
 20
213.4394567850832
 10
-316.8653520157394
 20
213.4394567850832
 10
-316.8653520157394
 20
213.4394567850832
 10
-316.8653520157394
 20
212.384840118415
 10
-316.8653520157394
 20
212.384840118415
 10
-313.4476853490728
 20
212.384840118415
 10
-313.4476853490728
 20
212.384840118415
 10
-313.4476853490728
 20
210.0570401184159
 10
-313.4476853490728
 20
210.0570401184159
 10
-316.8653520157394
 20
210.0570401184159
 10
-316.8653520157394
 20
210.0570401184159
 10
-316.8653520157394
 20
206.8172901184153
 10
-316.8653520157394
 20
206.8172901184153
 10
-321.2686853490728
 20
206.8172901184153
 10
-321.2686853490728
 20
206.8172901184153
 10
-321.2686853490728
 20
206.8172901184153
 97
        0
 75
     0
 76
     1
 98
        0
1001
Cadwork
1000
entity-cdw-id
1071
       17
1000
entity-cdw-type
1071
        2
1000
entity-name
1000
line_17
  0
LWPOLYLINE
  5
22F
330
1F
100
AcDbEntity
  8
Mst 1_1
 62
   242
420
 14811162
370
    18
100
AcDbPolyline
 90
       23
 70
     0
 43
0.0
 10
-321.2686853490728
 20
206.8172901184153
 10
-321.2686853490728
 20
215.9038067850852
 10
-321.2686853490728
 20
215.9038067850852
 10
-313.0893520157393
 20
215.9038067850852
 10
-313.0893520157393
 20
215.9038067850852
 10
-313.0893520157393
 20
213.4394567850832
 10
-313.0893520157393
 20
213.4394567850832
 10
-316.8653520157394
 20
213.4394567850832
 10
-316.8653520157394
 20
213.4394567850832
 10
-316.8653520157394
 20
212.384840118415
 10
-316.8653520157394
 20
212.384840118415
 10
-313.4476853490728
 20
212.384840118415
 10
-313.4476853490728
 20
212.384840118415
 10
-313.4476853490728
 20
210.0570401184159
 10
-313.4476853490728
 20
210.0570401184159
 10
-316.8653520157394
 20
210.0570401184159
 10
-316.8653520157394
 20
210.0570401184159
 10
-316.8653520157394
 20
206.8172901184153
 10
-316.8653520157394
 20
206.8172901184153
 10
-321.2686853490728
 20
206.8172901184153
 10
-321.2686853490728
 20
206.8172901184153
 10
-321.2686853490728
 20
206.8172901184153
 10
-321.2686853490728
 20
206.8172901184153
1001
Cadwork
1000
entity-cdw-id
1071
       17
1000
entity-cdw-type
1071
        2
1000
entity-name
1000
line_17
  0
HATCH
  5
230
330
1F
100
AcDbEntity
  8
Mst 1_1
 62
     7
420
 16777215
440
 33554687
370
     9
100
AcDbHatch
 10
0.0
 20
0.0
 30
0.0
210
0.0
220
0.0
230
1.0
  2
SOLID
 70
     1
 71
     1
 91
        1
 92
        3
 72
     0
 73
     1
 93
      178
 10
-325.0440186824061
 20
211.3424401184166
 10
-325.0475906824061
 20
211.1442734017546
 10
-325.0582946824061
 20
210.9488063850804
 10
-325.0761126824061
 20
210.7560587684202
 10
-325.1010266824061
 20
210.5660502517494
 10
-325.133018682406
 20
210.3788005350871
 10
-325.1720706824061
 20
210.1943293184158
 10
-325.218164682406
 20
210.0126563017475
 10
-325.2712826824061
 20
209.8338011850865
 10
-325.3314066824062
 20
209.6577836684155
 10
-325.3985186824061
 20
209.4846234517536
 10
-325.3985186824061
 20
209.4846234517536
 10
-325.4722516824061
 20
209.3141495850869
 10
-325.5526426824061
 20
209.1474025184216
 10
-325.639679682406
 20
208.9843740517535
 10
-325.7333506824061
 20
208.8250559850858
 10
-325.8336436824061
 20
208.6694401184141
 10
-325.9405466824061
 20
208.5175182517487
 10
-326.0540476824061
 20
208.3692821850855
 10
-326.1741346824061
 20
208.2247237184201
 10
-326.300795682406
 20
208.0838346517485
 10
-326.4340186824061
 20
207.9466067850808
 10
-326.4340186824061
 20
207.9466067850808
 10
-326.5727573490728
 20
207.8168260017483
 10
-326.7156680157394
 20
207.6932585184186
 10
-326.8627426824061
 20
207.5759116350819
 10
-327.0139733490728
 20
207.46479265175
 10
-327.1693520157395
 20
207.3599088684205
 10
-327.3288706824061
 20
207.2612675850833
 10
-327.4925213490728
 20
207.1688761017504
 10
-327.6602960157395
 20
207.0827417184191
 10
-327.8321866824061
 20
207.002871735087
 10
-328.0081853490728
 20
206.9292734517512
 10
-328.0081853490728
 20
206.9292734517512
 10
-328.1872333490727
 20
206.8622753184172
 10
-328.3687493490728
 20
206.8022183850844
 10
-328.5526913490728
 20
206.7491288517485
 10
-328.7390173490727
 20
206.7030329184199
 10
-328.9276853490728
 20
206.6639567850871
 10
-329.1186533490728
 20
206.631926651753
 10
-329.3118793490728
 20
206.6069687184136
 10
-329.5073213490729
 20
206.5891091850863
 10
-329.7049373490728
 20
206.5783742517524
 10
-329.9046853490728
 20
206.574790118415
 10
-329.9046853490728
 20
206.574790118415
 10
-330.1066056824061
 20
206.5783742517524
 10
-330.3060480157394
 20
206.5891091850863
 10
-330.5029843490728
 20
206.6069687184136
 10
-330.6973866824061
 20
206.631926651753
 10
-330.8892270157394
 20
206.6639567850871
 10
-331.0784773490727
 20
206.7030329184199
 10
-331.2651096824061
 20
206.7491288517485
 10
-331.4490960157394
 20
206.8022183850844
 10
-331.6304083490727
 20
206.8622753184172
 10
-331.8090186824062
 20
206.9292734517512
 10
-331.8090186824062
 20
206.9292734517512
 10
-331.984945182406
 20
207.0029890850856
 10
-332.1568306824061
 20
207.083212518417
 10
-332.3246841824061
 20
207.1699385517495
 10
-332.488514682406
 20
207.2631619850799
 10
-332.6483311824061
 20
207.3628776184196
 10
-332.8041426824061
 20
207.4690802517507
 10
-332.9559581824061
 20
207.5817646850846
 10
-333.1037866824061
 20
207.7009257184181
 10
-333.2476371824062
 20
207.8265581517553
 10
-333.387518682406
 20
207.9586567850856
 10
-333.387518682406
 20
207.9586567850856
 10
-333.5190775157394
 20
208.0924316684177
 10
-333.6442293490728
 20
208.2301758517497
 10
-333.7629371824061
 20
208.3718736350856
 10
-333.8751640157394
 20
208.5175093184153
 10
-333.9808728490727
 20
208.6670672017499
 10
-334.080026682406
 20
208.8205315850864
 10
-334.1725885157393
 20
208.9778867684145
 10
-334.2585213490728
 20
209.1391170517527
 10
-334.337788182406
 20
209.3042067350834
 10
-334.4103520157394
 20
209.4731401184181
 10
-334.4103520157394
 20
209.4731401184181
 10
-334.4761698490728
 20
209.6462627684159
 10
-334.5351146824061
 20
209.8224673184159
 10
-334.5871735157394
 20
210.0017486684155
 10
-334.6323333490728
 20
210.1841017184197
 10
-334.6705811824061
 20
210.3695213684186
 10
-334.7019040157394
 20
210.5580025184172
 10
-334.7262888490728
 20
210.7495400684202
 10
-334.7437226824061
 20
210.9441289184178
 10
-334.7541925157394
 20
211.141763968415
 10
-334.7576853490727
 20
211.3424401184166
 10
-334.7576853490727
 20
211.3424401184166
 10
-334.7541925157394
 20
211.543112151754
 10
-334.7437226824061
 20
211.7408343850839
 10
-334.7262888490728
 20
211.9356160184179
 10
-334.7019040157394
 20
212.1274662517535
 10
-334.6705811824061
 20
212.3163942850879
 10
-334.6323333490728
 20
212.5024093184184
 10
-334.5871735157394
 20
212.6855205517495
 10
-334.5351146824061
 20
212.8657371850859
 10
-334.4761698490728
 20
213.0430684184175
 10
-334.4103520157394
 20
213.217523451749
 10
-334.4103520157394
 20
213.217523451749
 10
-334.337788182406
 20
213.3875899017512
 10
-334.2585213490728
 20
213.5537630517501
 10
-334.1725885157393
 20
213.7160036017522
 10
-334.080026682406
 20
213.8742722517491
 10
-333.9808728490727
 20
214.0285297017472
 10
-333.8751640157394
 20
214.1787366517528
 10
-333.7629371824061
 20
214.3248538017506
 10
-333.6442293490728
 20
214.4668418517467
 10
-333.5190775157394
 20
214.6046615017476
 10
-333.387518682406
 20
214.7382734517523
 10
-333.387518682406
 20
214.7382734517523
 10
-333.2487148490727
 20
214.8686652850811
 10
-333.1058880157394
 20
214.9927881184194
 10
-332.9590151824061
 20
215.1106229517536
 10
-332.8080733490727
 20
215.2221507850845
 10
-332.6530395157395
 20
215.3273526184203
 10
-332.4938906824061
 20
215.4262094517544
 10
-332.3306038490728
 20
215.5187022850805
 10
-332.1631560157394
 20
215.6048121184213
 10
-331.991524182406
 20
215.6845199517484
 10
-331.8156853490727
 20
215.7578067850845
 10
-331.8156853490727
 20
215.7578067850845
 10
-331.6367713490728
 20
215.8248383684186
 10
-331.4551333490728
 20
215.8847354517493
 10
-331.2707773490728
 20
215.9375165350866
 10
-331.0837093490727
 20
215.9832001184186
 10
-330.8939353490728
 20
216.0218047017479
 10
-330.7014613490727
 20
216.0533487850844
 10
-330.5062933490727
 20
216.0778508684161
 10
-330.3084373490727
 20
216.0953294517531
 10
-330.1078993490728
 20
216.1058030350832
 10
-329.9046853490728
 20
216.1092901184165
 10
-329.9046853490728
 20
216.1092901184165
 10
-329.7013136824061
 20
216.1058030350832
 10
-329.5006120157394
 20
216.0953294517531
 10
-329.3026003490727
 20
216.0778508684161
 10
-329.1072986824061
 20
216.0533487850844
 10
-328.9147270157393
 20
216.0218047017479
 10
-328.7249053490727
 20
215.9832001184186
 10
-328.5378536824061
 20
215.9375165350866
 10
-328.3535920157394
 20
215.8847354517493
 10
-328.1721403490727
 20
215.8248383684186
 10
-327.993518682406
 20
215.7578067850845
 10
-327.993518682406
 20
215.7578067850845
 10
-327.8175160157393
 20
215.6845199517484
 10
-327.6455973490728
 20
215.6048121184213
 10
-327.4777466824061
 20
215.5187022850805
 10
-327.3139480157394
 20
215.4262094517544
 10
-327.1541853490728
 20
215.3273526184203
 10
-326.9984426824061
 20
215.2221507850845
 10
-326.8467040157394
 20
215.1106229517536
 10
-326.6989533490728
 20
214.9927881184194
 10
-326.5551746824061
 20
214.8686652850811
 10
-326.4153520157394
 20
214.7382734517523
 10
-326.4153520157394
 20
214.7382734517523
 10
-326.2850071824062
 20
214.603498935081
 10
-326.1608933490728
 20
214.4646713184193
 10
-326.0430415157393
 20
214.3218145017527
 10
-325.9314826824061
 20
214.1749523850813
 10
-325.8262478490728
 20
214.0241088684197
 10
-325.7273680157393
 20
213.8693078517535
 10
-325.6348741824061
 20
213.7105732350828
 10
-325.5487973490729
 20
213.5479289184223
 10
-325.4691685157394
 20
213.38139880175
 10
-325.3960186824061
 20
213.2110067850808
 10
-325.3960186824061
 20
213.2110067850808
 10
-325.3289766824062
 20
213.0367148684163
 10
-325.2690426824062
 20
212.859637451751
 10
-325.2162046824061
 20
212.6797720350805
 10
-325.1704506824061
 20
212.4971161184149
 10
-325.1317686824061
 20
212.3116672017495
 10
-325.1001466824061
 20
212.1234227850873
 10
-325.0755726824061
 20
211.9323803684165
 10
-325.0580346824062
 20
211.7385374517544
 10
-325.0475206824061
 20
211.541891535082
 10
-325.0440186824061
 20
211.3424401184166
 10
-325.0440186824061
 20
211.3424401184166
 10
-325.0440186824061
 20
211.3424401184166
 97
        0
 75
     0
 76
     1
 98
        0
1001
Cadwork
1000
entity-cdw-id
1071
       18
1000
entity-cdw-type
1071
        2
1000
entity-name
1000
line_18
  0
LWPOLYLINE
  5
231
330
1F
100
AcDbEntity
  8
Mst 1_1
 62
     7
420
 16777215
370
    25
100
AcDbPolyline
 90
      179
 70
     0
 43
0.0
 10
-325.0440186824061
 20
211.3424401184166
 10
-325.0475906824061
 20
211.1442734017546
 10
-325.0582946824061
 20
210.9488063850804
 10
-325.0761126824061
 20
210.7560587684202
 10
-325.1010266824061
 20
210.5660502517494
 10
-325.133018682406
 20
210.3788005350871
 10
-325.1720706824061
 20
210.1943293184158
 10
-325.218164682406
 20
210.0126563017475
 10
-325.2712826824061
 20
209.8338011850865
 10
-325.3314066824062
 20
209.6577836684155
 10
-325.3985186824061
 20
209.4846234517536
 10
-325.3985186824061
 20
209.4846234517536
 10
-325.4722516824061
 20
209.3141495850869
 10
-325.5526426824061
 20
209.1474025184216
 10
-325.639679682406
 20
208.9843740517535
 10
-325.7333506824061
 20
208.8250559850858
 10
-325.8336436824061
 20
208.6694401184141
 10
-325.9405466824061
 20
208.5175182517487
 10
-326.0540476824061
 20
208.3692821850855
 10
-326.1741346824061
 20
208.2247237184201
 10
-326.300795682406
 20
208.0838346517485
 10
-326.4340186824061
 20
207.9466067850808
 10
-326.4340186824061
 20
207.9466067850808
 10
-326.5727573490728
 20
207.8168260017483
 10
-326.7156680157394
 20
207.6932585184186
 10
-326.8627426824061
 20
207.5759116350819
 10
-327.0139733490728
 20
207.46479265175
 10
-327.1693520157395
 20
207.3599088684205
 10
-327.3288706824061
 20
207.2612675850833
 10
-327.4925213490728
 20
207.1688761017504
 10
-327.6602960157395
 20
207.0827417184191
 10
-327.8321866824061
 20
207.002871735087
 10
-328.0081853490728
 20
206.9292734517512
 10
-328.0081853490728
 20
206.9292734517512
 10
-328.1872333490727
 20
206.8622753184172
 10
-328.3687493490728
 20
206.8022183850844
 10
-328.5526913490728
 20
206.7491288517485
 10
-328.7390173490727
 20
206.7030329184199
 10
-328.9276853490728
 20
206.6639567850871
 10
-329.1186533490728
 20
206.631926651753
 10
-329.3118793490728
 20
206.6069687184136
 10
-329.5073213490729
 20
206.5891091850863
 10
-329.7049373490728
 20
206.5783742517524
 10
-329.9046853490728
 20
206.574790118415
 10
-329.9046853490728
 20
206.574790118415
 10
-330.1066056824061
 20
206.5783742517524
 10
-330.3060480157394
 20
206.5891091850863
 10
-330.5029843490728
 20
206.6069687184136
 10
-330.6973866824061
 20
206.631926651753
 10
-330.8892270157394
 20
206.6639567850871
 10
-331.0784773490727
 20
206.7030329184199
 10
-331.2651096824061
 20
206.7491288517485
 10
-331.4490960157394
 20
206.8022183850844
 10
-331.6304083490727
 20
206.8622753184172
 10
-331.8090186824062
 20
206.9292734517512
 10
-331.8090186824062
 20
206.9292734517512
 10
-331.984945182406
 20
207.0029890850856
 10
-332.1568306824061
 20
207.083212518417
 10
-332.3246841824061
 20
207.1699385517495
 10
-332.488514682406
 20
207.2631619850799
 10
-332.6483311824061
 20
207.3628776184196
 10
-332.8041426824061
 20
207.4690802517507
 10
-332.9559581824061
 20
207.5817646850846
 10
-333.1037866824061
 20
207.7009257184181
 10
-333.2476371824062
 20
207.8265581517553
 10
-333.387518682406
 20
207.9586567850856
 10
-333.387518682406
 20
207.9586567850856
 10
-333.5190775157394
 20
208.0924316684177
 10
-333.6442293490728
 20
208.2301758517497
 10
-333.7629371824061
 20
208.3718736350856
 10
-333.8751640157394
 20
208.5175093184153
 10
-333.9808728490727
 20
208.6670672017499
 10
-334.080026682406
 20
208.8205315850864
 10
-334.1725885157393
 20
208.9778867684145
 10
-334.2585213490728
 20
209.1391170517527
 10
-334.337788182406
 20
209.3042067350834
 10
-334.4103520157394
 20
209.4731401184181
 10
-334.4103520157394
 20
209.4731401184181
 10
-334.4761698490728
 20
209.6462627684159
 10
-334.5351146824061
 20
209.8224673184159
 10
-334.5871735157394
 20
210.0017486684155
 10
-334.6323333490728
 20
210.1841017184197
 10
-334.6705811824061
 20
210.3695213684186
 10
-334.7019040157394
 20
210.5580025184172
 10
-334.7262888490728
 20
210.7495400684202
 10
-334.7437226824061
 20
210.9441289184178
 10
-334.7541925157394
 20
211.141763968415
 10
-334.7576853490727
 20
211.3424401184166
 10
-334.7576853490727
 20
211.3424401184166
 10
-334.7541925157394
 20
211.543112151754
 10
-334.7437226824061
 20
211.7408343850839
 10
-334.7262888490728
 20
211.9356160184179
 10
-334.7019040157394
 20
212.1274662517535
 10
-334.6705811824061
 20
212.3163942850879
 10
-334.6323333490728
 20
212.5024093184184
 10
-334.5871735157394
 20
212.6855205517495
 10
-334.5351146824061
 20
212.8657371850859
 10
-334.4761698490728
 20
213.0430684184175
 10
-334.4103520157394
 20
213.217523451749
 10
-334.4103520157394
 20
213.217523451749
 10
-334.337788182406
 20
213.3875899017512
 10
-334.2585213490728
 20
213.5537630517501
 10
-334.1725885157393
 20
213.7160036017522
 10
-334.080026682406
 20
213.8742722517491
 10
-333.9808728490727
 20
214.0285297017472
 10
-333.8751640157394
 20
214.1787366517528
 10
-333.7629371824061
 20
214.3248538017506
 10
-333.6442293490728
 20
214.4668418517467
 10
-333.5190775157394
 20
214.6046615017476
 10
-333.387518682406
 20
214.7382734517523
 10
-333.387518682406
 20
214.7382734517523
 10
-333.2487148490727
 20
214.8686652850811
 10
-333.1058880157394
 20
214.9927881184194
 10
-332.9590151824061
 20
215.1106229517536
 10
-332.8080733490727
 20
215.2221507850845
 10
-332.6530395157395
 20
215.3273526184203
 10
-332.4938906824061
 20
215.4262094517544
 10
-332.3306038490728
 20
215.5187022850805
 10
-332.1631560157394
 20
215.6048121184213
 10
-331.991524182406
 20
215.6845199517484
 10
-331.8156853490727
 20
215.7578067850845
 10
-331.8156853490727
 20
215.7578067850845
 10
-331.6367713490728
 20
215.8248383684186
 10
-331.4551333490728
 20
215.8847354517493
 10
-331.2707773490728
 20
215.9375165350866
 10
-331.0837093490727
 20
215.9832001184186
 10
-330.8939353490728
 20
216.0218047017479
 10
-330.7014613490727
 20
216.0533487850844
 10
-330.5062933490727
 20
216.0778508684161
 10
-330.3084373490727
 20
216.0953294517531
 10
-330.1078993490728
 20
216.1058030350832
 10
-329.9046853490728
 20
216.1092901184165
 10
-329.9046853490728
 20
216.1092901184165
 10
-329.7013136824061
 20
216.1058030350832
 10
-329.5006120157394
 20
216.0953294517531
 10
-329.3026003490727
 20
216.0778508684161
 10
-329.1072986824061
 20
216.0533487850844
 10
-328.9147270157393
 20
216.0218047017479
 10
-328.7249053490727
 20
215.9832001184186
 10
-328.5378536824061
 20
215.9375165350866
 10
-328.3535920157394
 20
215.8847354517493
 10
-328.1721403490727
 20
215.8248383684186
 10
-327.993518682406
 20
215.7578067850845
 10
-327.993518682406
 20
215.7578067850845
 10
-327.8175160157393
 20
215.6845199517484
 10
-327.6455973490728
 20
215.6048121184213
 10
-327.4777466824061
 20
215.5187022850805
 10
-327.3139480157394
 20
215.4262094517544
 10
-327.1541853490728
 20
215.3273526184203
 10
-326.9984426824061
 20
215.2221507850845
 10
-326.8467040157394
 20
215.1106229517536
 10
-326.6989533490728
 20
214.9927881184194
 10
-326.5551746824061
 20
214.8686652850811
 10
-326.4153520157394
 20
214.7382734517523
 10
-326.4153520157394
 20
214.7382734517523
 10
-326.2850071824062
 20
214.603498935081
 10
-326.1608933490728
 20
214.4646713184193
 10
-326.0430415157393
 20
214.3218145017527
 10
-325.9314826824061
 20
214.1749523850813
 10
-325.8262478490728
 20
214.0241088684197
 10
-325.7273680157393
 20
213.8693078517535
 10
-325.6348741824061
 20
213.7105732350828
 10
-325.5487973490729
 20
213.5479289184223
 10
-325.4691685157394
 20
213.38139880175
 10
-325.3960186824061
 20
213.2110067850808
 10
-325.3960186824061
 20
213.2110067850808
 10
-325.3289766824062
 20
213.0367148684163
 10
-325.2690426824062
 20
212.859637451751
 10
-325.2162046824061
 20
212.6797720350805
 10
-325.1704506824061
 20
212.4971161184149
 10
-325.1317686824061
 20
212.3116672017495
 10
-325.1001466824061
 20
212.1234227850873
 10
-325.0755726824061
 20
211.9323803684165
 10
-325.0580346824062
 20
211.7385374517544
 10
-325.0475206824061
 20
211.541891535082
 10
-325.0440186824061
 20
211.3424401184166
 10
-325.0440186824061
 20
211.3424401184166
 10
-325.0440186824061
 20
211.3424401184166
 10
-325.0440186824061
 20
211.3424401184166
1001
Cadwork
1000
entity-cdw-id
1071
       18
1000
entity-cdw-type
1071
        2
1000
entity-name
1000
line_18
  0
HATCH
  5
232
330
1F
100
AcDbEntity
  8
Mst 1_1
 62
   242
420
 14811162
440
 33554687
370
     9
100
AcDbHatch
 10
0.0
 20
0.0
 30
0.0
210
0.0
220
0.0
230
1.0
  2
SOLID
 70
     1
 71
     1
 91
        1
 92
        3
 72
     0
 73
     1
 93
       90
 10
-329.9046853490728
 20
209.6282567850867
 10
-329.7694681824061
 20
209.6329921017532
 10
-329.6397080157394
 20
209.647175318416
 10
-329.5153918490728
 20
209.6707723350846
 10
-329.3965066824061
 20
209.7037490517469
 10
-329.2830395157395
 20
209.7460713684195
 10
-329.1749773490727
 20
209.797705185083
 10
-329.0723071824061
 20
209.8586164017543
 10
-328.9750160157395
 20
209.9287709184209
 10
-328.8830908490728
 20
210.0081346350853
 10
-328.7965186824061
 20
210.0966734517497
 10
-328.7965186824061
 20
210.0966734517497
 10
-328.7168261824061
 20
210.1937984684191
 10
-328.6454586824061
 20
210.2969195850819
 10
-328.5824311824061
 20
210.406075901752
 10
-328.5277586824061
 20
210.5213065184143
 10
-328.4814561824062
 20
210.6426505350828
 10
-328.4435386824061
 20
210.7701470517495
 10
-328.414021182406
 20
210.9038351684212
 10
-328.3929186824062
 20
211.0437539850827
 10
-328.3802461824062
 20
211.1899426017553
 10
-328.3760186824061
 20
211.3424401184166
 10
-328.3760186824061
 20
211.3424401184166
 10
-328.3802461824062
 20
211.4956856517529
 10
-328.3929186824062
 20
211.642694385082
 10
-328.414021182406
 20
211.7834995184166
 10
-328.4435386824061
 20
211.9181342517477
 10
-328.4814561824062
 20
212.0466317850878
 10
-328.5277586824061
 20
212.1690253184133
 10
-328.5824311824061
 20
212.2853480517515
 10
-328.6454586824061
 20
212.3956331850859
 10
-328.7168261824061
 20
212.4999139184147
 10
-328.7965186824061
 20
212.5982234517505
 10
-328.7965186824061
 20
212.5982234517505
 10
-328.8830908490728
 20
212.688248835082
 10
-328.9750160157395
 20
212.7688645184171
 10
-329.0723071824061
 20
212.8400548017526
 10
-329.1749773490727
 20
212.9018039850853
 10
-329.2830395157395
 20
212.9540963684194
 10
-329.3965066824061
 20
212.9969162517518
 10
-329.5153918490728
 20
213.0302479350867
 10
-329.6397080157394
 20
213.0540757184135
 10
-329.7694681824061
 20
213.0683839017511
 10
-329.9046853490728
 20
213.0731567850817
 10
-329.9046853490728
 20
213.0731567850817
 10
-330.0398383490727
 20
213.0683798350874
 10
-330.1696893490728
 20
213.0540431850823
 10
-330.2942263490727
 20
213.0301381350801
 10
-330.4134373490728
 20
212.99665598508
 10
-330.5273103490728
 20
212.9535880350813
 10
-330.6358333490728
 20
212.9009255850833
 10
-330.7389943490728
 20
212.8386599350852
 10
-330.8367813490728
 20
212.7667823850861
 10
-330.9291823490728
 20
212.6852842350854
 10
-331.0161853490728
 20
212.5941567850823
 10
-331.0161853490728
 20
212.5941567850823
 10
-331.0965320157395
 20
212.4957928184158
 10
-331.1683786824061
 20
212.3914710517492
 10
-331.2317353490728
 20
212.2811916850842
 10
-331.2866120157395
 20
212.1649549184149
 10
-331.3330186824061
 20
212.0427609517501
 10
-331.3709653490728
 20
211.9146099850841
 10
-331.4004620157394
 20
211.7805022184184
 10
-331.4215186824061
 20
211.6404378517545
 10
-331.4341453490728
 20
211.4944170850868
 10
-331.4383520157395
 20
211.3424401184166
 10
-331.4383520157395
 20
211.3424401184166
 10
-331.4341453490728
 20
211.1899426017553
 10
-331.4215186824061
 20
211.0437539850827
 10
-331.4004620157394
 20
210.9038351684212
 10
-331.3709653490728
 20
210.7701470517495
 10
-331.3330186824061
 20
210.6426505350828
 10
-331.2866120157395
 20
210.5213065184143
 10
-331.2317353490728
 20
210.406075901752
 10
-331.1683786824061
 20
210.2969195850819
 10
-331.0965320157395
 20
210.1937984684191
 10
-331.0161853490728
 20
210.0966734517497
 10
-331.0161853490728
 20
210.0966734517497
 10
-330.9291823490728
 20
210.0081346350853
 10
-330.8367813490728
 20
209.9287709184209
 10
-330.7389943490728
 20
209.8586164017543
 10
-330.6358333490728
 20
209.797705185083
 10
-330.5273103490728
 20
209.7460713684195
 10
-330.4134373490728
 20
209.7037490517469
 10
-330.2942263490727
 20
209.6707723350846
 10
-330.1696893490728
 20
209.647175318416
 10
-330.0398383490727
 20
209.6329921017532
 10
-329.9046853490728
 20
209.6282567850867
 10
-329.9046853490728
 20
209.6282567850867
 10
-329.9046853490728
 20
209.6282567850867
 97
        0
 75
     0
 76
     1
 98
        0
1001
Cadwork
1000
entity-cdw-id
1071
       19
1000
entity-cdw-type
1071
        2
1000
entity-name
1000
line_19
  0
LWPOLYLINE
  5
233
330
1F
100
AcDbEntity
  8
Mst 1_1
 62
   242
420
 14811162
370
    18
100
AcDbPolyline
 90
       91
 70
     0
 43
0.0
 10
-329.9046853490728
 20
209.6282567850867
 10
-329.7694681824061
 20
209.6329921017532
 10
-329.6397080157394
 20
209.647175318416
 10
-329.5153918490728
 20
209.6707723350846
 10
-329.3965066824061
 20
209.7037490517469
 10
-329.2830395157395
 20
209.7460713684195
 10
-329.1749773490727
 20
209.797705185083
 10
-329.0723071824061
 20
209.8586164017543
 10
-328.9750160157395
 20
209.9287709184209
 10
-328.8830908490728
 20
210.0081346350853
 10
-328.7965186824061
 20
210.0966734517497
 10
-328.7965186824061
 20
210.0966734517497
 10
-328.7168261824061
 20
210.1937984684191
 10
-328.6454586824061
 20
210.2969195850819
 10
-328.5824311824061
 20
210.406075901752
 10
-328.5277586824061
 20
210.5213065184143
 10
-328.4814561824062
 20
210.6426505350828
 10
-328.4435386824061
 20
210.7701470517495
 10
-328.414021182406
 20
210.9038351684212
 10
-328.3929186824062
 20
211.0437539850827
 10
-328.3802461824062
 20
211.1899426017553
 10
-328.3760186824061
 20
211.3424401184166
 10
-328.3760186824061
 20
211.3424401184166
 10
-328.3802461824062
 20
211.4956856517529
 10
-328.3929186824062
 20
211.642694385082
 10
-328.414021182406
 20
211.7834995184166
 10
-328.4435386824061
 20
211.9181342517477
 10
-328.4814561824062
 20
212.0466317850878
 10
-328.5277586824061
 20
212.1690253184133
 10
-328.5824311824061
 20
212.2853480517515
 10
-328.6454586824061
 20
212.3956331850859
 10
-328.7168261824061
 20
212.4999139184147
 10
-328.7965186824061
 20
212.5982234517505
 10
-328.7965186824061
 20
212.5982234517505
 10
-328.8830908490728
 20
212.688248835082
 10
-328.9750160157395
 20
212.7688645184171
 10
-329.0723071824061
 20
212.8400548017526
 10
-329.1749773490727
 20
212.9018039850853
 10
-329.2830395157395
 20
212.9540963684194
 10
-329.3965066824061
 20
212.9969162517518
 10
-329.5153918490728
 20
213.0302479350867
 10
-329.6397080157394
 20
213.0540757184135
 10
-329.7694681824061
 20
213.0683839017511
 10
-329.9046853490728
 20
213.0731567850817
 10
-329.9046853490728
 20
213.0731567850817
 10
-330.0398383490727
 20
213.0683798350874
 10
-330.1696893490728
 20
213.0540431850823
 10
-330.2942263490727
 20
213.0301381350801
 10
-330.4134373490728
 20
212.99665598508
 10
-330.5273103490728
 20
212.9535880350813
 10
-330.6358333490728
 20
212.9009255850833
 10
-330.7389943490728
 20
212.8386599350852
 10
-330.8367813490728
 20
212.7667823850861
 10
-330.9291823490728
 20
212.6852842350854
 10
-331.0161853490728
 20
212.5941567850823
 10
-331.0161853490728
 20
212.5941567850823
 10
-331.0965320157395
 20
212.4957928184158
 10
-331.1683786824061
 20
212.3914710517492
 10
-331.2317353490728
 20
212.2811916850842
 10
-331.2866120157395
 20
212.1649549184149
 10
-331.3330186824061
 20
212.0427609517501
 10
-331.3709653490728
 20
211.9146099850841
 10
-331.4004620157394
 20
211.7805022184184
 10
-331.4215186824061
 20
211.6404378517545
 10
-331.4341453490728
 20
211.4944170850868
 10
-331.4383520157395
 20
211.3424401184166
 10
-331.4383520157395
 20
211.3424401184166
 10
-331.4341453490728
 20
211.1899426017553
 10
-331.4215186824061
 20
211.0437539850827
 10
-331.4004620157394
 20
210.9038351684212
 10
-331.3709653490728
 20
210.7701470517495
 10
-331.3330186824061
 20
210.6426505350828
 10
-331.2866120157395
 20
210.5213065184143
 10
-331.2317353490728
 20
210.406075901752
 10
-331.1683786824061
 20
210.2969195850819
 10
-331.0965320157395
 20
210.1937984684191
 10
-331.0161853490728
 20
210.0966734517497
 10
-331.0161853490728
 20
210.0966734517497
 10
-330.9291823490728
 20
210.0081346350853
 10
-330.8367813490728
 20
209.9287709184209
 10
-330.7389943490728
 20
209.8586164017543
 10
-330.6358333490728
 20
209.797705185083
 10
-330.5273103490728
 20
209.7460713684195
 10
-330.4134373490728
 20
209.7037490517469
 10
-330.2942263490727
 20
209.6707723350846
 10
-330.1696893490728
 20
209.647175318416
 10
-330.0398383490727
 20
209.6329921017532
 10
-329.9046853490728
 20
209.6282567850867
 10
-329.9046853490728
 20
209.6282567850867
 10
-329.9046853490728
 20
209.6282567850867
 10
-329.9046853490728
 20
209.6282567850867
1001
Cadwork
1000
entity-cdw-id
1071
       19
1000
entity-cdw-type
1071
        2
1000
entity-name
1000
line_19
  0
HATCH
  5
234
330
1F
100
AcDbEntity
  8
Mst 1_1
 62
     7
420
 16777215
440
 33554687
370
     9
100
AcDbHatch
 10
0.0
 20
0.0
 30
0.0
210
0.0
220
0.0
230
1.0
  2
SOLID
 70
     1
 71
     1
 91
        1
 92
        3
 72
     0
 73
     1
 93
       60
 10
-343.5437186824061
 20
206.8172901184153
 10
-343.5437186824061
 20
215.9038067850852
 10
-343.5437186824061
 20
215.9038067850852
 10
-339.4334520157395
 20
215.9038067850852
 10
-339.4334520157395
 20
215.9038067850852
 10
-339.0847162490727
 20
215.8959061517526
 10
-338.752773882406
 20
215.8722137184159
 10
-338.4376323157394
 20
215.8327436850886
 10
-338.1392989490728
 20
215.7775102517553
 10
-337.857781182406
 20
215.7065276184221
 10
-337.5930864157394
 20
215.6198099850808
 10
-337.3452220490727
 20
215.5173715517521
 10
-337.1141954824061
 20
215.3992265184133
 10
-336.9000141157394
 20
215.2653890850852
 10
-336.7026853490728
 20
215.1158734517521
 10
-336.7026853490728
 20
215.1158734517521
 10
-336.5234795157395
 20
214.9512844017518
 10
-336.363158682406
 20
214.7727190517544
 10
-336.2217178490728
 20
214.5802101017543
 10
-336.0991520157395
 20
214.3737902517532
 10
-335.9954561824061
 20
214.1534922017527
 10
-335.9106253490727
 20
213.9193486517543
 10
-335.8446545157394
 20
213.6713923017523
 10
-335.7975386824061
 20
213.4096558517485
 10
-335.7692728490728
 20
213.1341720017517
 10
-335.7598520157395
 20
212.844973451749
 10
-335.7598520157395
 20
212.844973451749
 10
-335.7646336824062
 20
212.654488885084
 10
-335.7789653490728
 20
212.4708429184175
 10
-335.8028270157395
 20
212.2940471517504
 10
-335.8361986824061
 20
212.1241131850838
 10
-335.8790603490728
 20
211.9610526184188
 10
-335.9313920157394
 20
211.8048770517489
 10
-335.9931736824061
 20
211.6555980850826
 10
-336.0643853490728
 20
211.5132273184208
 10
-336.1450070157395
 20
211.3777763517501
 10
-336.2350186824061
 20
211.2492567850859
 10
-336.2350186824061
 20
211.2492567850859
 10
-336.3334596824061
 20
211.1286645350847
 10
-336.4384066824061
 20
211.0186287850884
 10
-336.5498956824061
 20
210.9191360350887
 10
-336.6679626824061
 20
210.8301727850849
 10
-336.7926436824062
 20
210.7517255350831
 10
-336.9239746824061
 20
210.6837807850825
 10
-337.0619916824062
 20
210.6263250350821
 10
-337.2067306824061
 20
210.579344785081
 10
-337.3582276824061
 20
210.5428265350856
 10
-337.5165186824062
 20
210.5167567850804
 10
-337.5165186824062
 20
210.5167567850804
 10
-335.0901853490727
 20
206.8172901184153
 10
-335.0901853490727
 20
206.8172901184153
 10
-338.7506853490728
 20
206.8172901184153
 10
-338.7506853490728
 20
206.8172901184153
 10
-340.3406686824061
 20
209.814606785083
 10
-340.3406686824061
 20
209.814606785083
 10
-340.3406686824061
 20
206.8172901184153
 10
-340.3406686824061
 20
206.8172901184153
 10
-343.5437186824061
 20
206.8172901184153
 10
-343.5437186824061
 20
206.8172901184153
 10
-343.5437186824061
 20
206.8172901184153
 97
        0
 75
     0
 76
     1
 98
        0
1001
Cadwork
1000
entity-cdw-id
1071
       20
1000
entity-cdw-type
1071
        2
1000
entity-name
1000
line_20
  0
LWPOLYLINE
  5
235
330
1F
100
AcDbEntity
  8
Mst 1_1
 62
     7
420
 16777215
370
    25
100
AcDbPolyline
 90
       61
 70
     0
 43
0.0
 10
-343.5437186824061
 20
206.8172901184153
 10
-343.5437186824061
 20
215.9038067850852
 10
-343.5437186824061
 20
215.9038067850852
 10
-339.4334520157395
 20
215.9038067850852
 10
-339.4334520157395
 20
215.9038067850852
 10
-339.0847162490727
 20
215.8959061517526
 10
-338.752773882406
 20
215.8722137184159
 10
-338.4376323157394
 20
215.8327436850886
 10
-338.1392989490728
 20
215.7775102517553
 10
-337.857781182406
 20
215.7065276184221
 10
-337.5930864157394
 20
215.6198099850808
 10
-337.3452220490727
 20
215.5173715517521
 10
-337.1141954824061
 20
215.3992265184133
 10
-336.9000141157394
 20
215.2653890850852
 10
-336.7026853490728
 20
215.1158734517521
 10
-336.7026853490728
 20
215.1158734517521
 10
-336.5234795157395
 20
214.9512844017518
 10
-336.363158682406
 20
214.7727190517544
 10
-336.2217178490728
 20
214.5802101017543
 10
-336.0991520157395
 20
214.3737902517532
 10
-335.9954561824061
 20
214.1534922017527
 10
-335.9106253490727
 20
213.9193486517543
 10
-335.8446545157394
 20
213.6713923017523
 10
-335.7975386824061
 20
213.4096558517485
 10
-335.7692728490728
 20
213.1341720017517
 10
-335.7598520157395
 20
212.844973451749
 10
-335.7598520157395
 20
212.844973451749
 10
-335.7646336824062
 20
212.654488885084
 10
-335.7789653490728
 20
212.4708429184175
 10
-335.8028270157395
 20
212.2940471517504
 10
-335.8361986824061
 20
212.1241131850838
 10
-335.8790603490728
 20
211.9610526184188
 10
-335.9313920157394
 20
211.8048770517489
 10
-335.9931736824061
 20
211.6555980850826
 10
-336.0643853490728
 20
211.5132273184208
 10
-336.1450070157395
 20
211.3777763517501
 10
-336.2350186824061
 20
211.2492567850859
 10
-336.2350186824061
 20
211.2492567850859
 10
-336.3334596824061
 20
211.1286645350847
 10
-336.4384066824061
 20
211.0186287850884
 10
-336.5498956824061
 20
210.9191360350887
 10
-336.6679626824061
 20
210.8301727850849
 10
-336.7926436824062
 20
210.7517255350831
 10
-336.9239746824061
 20
210.6837807850825
 10
-337.0619916824062
 20
210.6263250350821
 10
-337.2067306824061
 20
210.579344785081
 10
-337.3582276824061
 20
210.5428265350856
 10
-337.5165186824062
 20
210.5167567850804
 10
-337.5165186824062
 20
210.5167567850804
 10
-335.0901853490727
 20
206.8172901184153
 10
-335.0901853490727
 20
206.8172901184153
 10
-338.7506853490728
 20
206.8172901184153
 10
-338.7506853490728
 20
206.8172901184153
 10
-340.3406686824061
 20
209.814606785083
 10
-340.3406686824061
 20
209.814606785083
 10
-340.3406686824061
 20
206.8172901184153
 10
-340.3406686824061
 20
206.8172901184153
 10
-343.5437186824061
 20
206.8172901184153
 10
-343.5437186824061
 20
206.8172901184153
 10
-343.5437186824061
 20
206.8172901184153
 10
-343.5437186824061
 20
206.8172901184153
1001
Cadwork
1000
entity-cdw-id
1071
       20
1000
entity-cdw-type
1071
        2
1000
entity-name
1000
line_20
  0
HATCH
  5
236
330
1F
100
AcDbEntity
  8
Mst 1_1
 62
   242
420
 14811162
440
 33554687
370
     9
100
AcDbHatch
 10
0.0
 20
0.0
 30
0.0
210
0.0
220
0.0
230
1.0
  2
SOLID
 70
     1
 71
     1
 91
        1
 92
        3
 72
     0
 73
     1
 93
       52
 10
-340.3406686824061
 20
213.5651734517523
 10
-340.3406686824061
 20
211.7901234517485
 10
-340.3406686824061
 20
211.7901234517485
 10
-339.8315520157395
 20
211.7901234517485
 10
-339.8315520157395
 20
211.7901234517485
 10
-339.7405055657393
 20
211.7923948517491
 10
-339.6538264157393
 20
211.7992046517538
 10
-339.5714998657394
 20
211.8105462517487
 10
-339.4935112157394
 20
211.8264130517491
 10
-339.4198457657394
 20
211.8467984517556
 10
-339.3504888157394
 20
211.8716958517543
 10
-339.2854256657394
 20
211.9010986517533
 10
-339.2246416157394
 20
211.9350002517531
 10
-339.1681219657394
 20
211.9733940517544
 10
-339.1158520157394
 20
212.0162734517507
 10
-339.1158520157394
 20
212.0162734517507
 10
-339.0680078490728
 20
212.063356935083
 10
-339.025178682406
 20
212.1143793184165
 10
-338.9873695157394
 20
212.1693435017514
 10
-338.9545853490728
 20
212.2282523850809
 10
-338.9268311824061
 20
212.2911088684195
 10
-338.9041120157394
 20
212.3579158517532
 10
-338.8864328490728
 20
212.4286762350821
 10
-338.8737986824061
 20
212.503392918421
 10
-338.8662145157393
 20
212.5820688017484
 10
-338.8636853490729
 20
212.6647067850863
 10
-338.8636853490729
 20
212.6647067850863
 10
-338.8662145157393
 20
212.7495455850803
 10
-338.8737986824061
 20
212.8303751850835
 10
-338.8864328490728
 20
212.9071853850837
 10
-338.9041120157394
 20
212.9799659850833
 10
-338.9268311824061
 20
213.0487067850845
 10
-338.9545853490728
 20
213.1133975850826
 10
-338.9873695157394
 20
213.1740281850871
 10
-339.025178682406
 20
213.2305883850859
 10
-339.0680078490728
 20
213.2830679850813
 10
-339.1158520157394
 20
213.331456785083
 10
-339.1158520157394
 20
213.331456785083
 10
-339.1681219657394
 20
213.3755929517501
 10
-339.2246416157394
 20
213.4151681184157
 10
-339.2854256657394
 20
213.4501622850876
 10
-339.3504888157394
 20
213.4805554517516
 10
-339.4198457657394
 20
213.5063276184155
 10
-339.4935112157394
 20
213.5274587850799
 10
-339.5714998657394
 20
213.5439289517526
 10
-339.6538264157393
 20
213.5557181184195
 10
-339.7405055657393
 20
213.562806285081
 10
-339.8315520157395
 20
213.5651734517523
 10
-339.8315520157395
 20
213.5651734517523
 10
-340.3406686824061
 20
213.5651734517523
 10
-340.3406686824061
 20
213.5651734517523
 10
-340.3406686824061
 20
213.5651734517523
 97
        0
 75
     0
 76
     1
 98
        0
1001
Cadwork
1000
entity-cdw-id
1071
       21
1000
entity-cdw-type
1071
        2
1000
entity-name
1000
line_21
  0
LWPOLYLINE
  5
237
330
1F
100
AcDbEntity
  8
Mst 1_1
 62
   242
420
 14811162
370
    18
100
AcDbPolyline
 90
       53
 70
     0
 43
0.0
 10
-340.3406686824061
 20
213.5651734517523
 10
-340.3406686824061
 20
211.7901234517485
 10
-340.3406686824061
 20
211.7901234517485
 10
-339.8315520157395
 20
211.7901234517485
 10
-339.8315520157395
 20
211.7901234517485
 10
-339.7405055657393
 20
211.7923948517491
 10
-339.6538264157393
 20
211.7992046517538
 10
-339.5714998657394
 20
211.8105462517487
 10
-339.4935112157394
 20
211.8264130517491
 10
-339.4198457657394
 20
211.8467984517556
 10
-339.3504888157394
 20
211.8716958517543
 10
-339.2854256657394
 20
211.9010986517533
 10
-339.2246416157394
 20
211.9350002517531
 10
-339.1681219657394
 20
211.9733940517544
 10
-339.1158520157394
 20
212.0162734517507
 10
-339.1158520157394
 20
212.0162734517507
 10
-339.0680078490728
 20
212.063356935083
 10
-339.025178682406
 20
212.1143793184165
 10
-338.9873695157394
 20
212.1693435017514
 10
-338.9545853490728
 20
212.2282523850809
 10
-338.9268311824061
 20
212.2911088684195
 10
-338.9041120157394
 20
212.3579158517532
 10
-338.8864328490728
 20
212.4286762350821
 10
-338.8737986824061
 20
212.503392918421
 10
-338.8662145157393
 20
212.5820688017484
 10
-338.8636853490729
 20
212.6647067850863
 10
-338.8636853490729
 20
212.6647067850863
 10
-338.8662145157393
 20
212.7495455850803
 10
-338.8737986824061
 20
212.8303751850835
 10
-338.8864328490728
 20
212.9071853850837
 10
-338.9041120157394
 20
212.9799659850833
 10
-338.9268311824061
 20
213.0487067850845
 10
-338.9545853490728
 20
213.1133975850826
 10
-338.9873695157394
 20
213.1740281850871
 10
-339.025178682406
 20
213.2305883850859
 10
-339.0680078490728
 20
213.2830679850813
 10
-339.1158520157394
 20
213.331456785083
 10
-339.1158520157394
 20
213.331456785083
 10
-339.1681219657394
 20
213.3755929517501
 10
-339.2246416157394
 20
213.4151681184157
 10
-339.2854256657394
 20
213.4501622850876
 10
-339.3504888157394
 20
213.4805554517516
 10
-339.4198457657394
 20
213.5063276184155
 10
-339.4935112157394
 20
213.5274587850799
 10
-339.5714998657394
 20
213.5439289517526
 10
-339.6538264157393
 20
213.5557181184195
 10
-339.7405055657393
 20
213.562806285081
 10
-339.8315520157395
 20
213.5651734517523
 10
-339.8315520157395
 20
213.5651734517523
 10
-340.3406686824061
 20
213.5651734517523
 10
-340.3406686824061
 20
213.5651734517523
 10
-340.3406686824061
 20
213.5651734517523
 10
-340.3406686824061
 20
213.5651734517523
1001
Cadwork
1000
entity-cdw-id
1071
       21
1000
entity-cdw-type
1071
        2
1000
entity-name
1000
line_21
  0
HATCH
  5
238
330
1F
100
AcDbEntity
  8
Mst 1_1
 62
     7
420
 16777215
440
 33554687
370
     9
100
AcDbHatch
 10
0.0
 20
0.0
 30
0.0
210
0.0
220
0.0
230
1.0
  2
SOLID
 70
     1
 71
     1
 91
        1
 92
        3
 72
     0
 73
     1
 93
       56
 10
-352.5433186824062
 20
206.8172901184153
 10
-352.5433186824062
 20
215.9038067850852
 10
-352.5433186824062
 20
215.9038067850852
 10
-348.6386020157395
 20
215.9038067850852
 10
-348.6386020157395
 20
215.9038067850852
 10
-348.2378258657394
 20
215.8958581184197
 10
-347.8591748157395
 20
215.8720154517505
 10
-347.5026449657395
 20
215.8322837850865
 10
-347.1682324157395
 20
215.7766681184221
 10
-346.8559332657394
 20
215.7051734517518
 10
-346.5657436157394
 20
215.6178047850844
 10
-346.2976595657394
 20
215.5145671184218
 10
-346.0516772157395
 20
215.3954654517511
 10
-345.8277926657395
 20
215.2605047850884
 10
-345.6260020157395
 20
215.1096901184137
 10
-345.6260020157395
 20
215.1096901184137
 10
-345.4449468157394
 20
214.9413287850839
 10
-345.2829424157394
 20
214.7544414517542
 10
-345.1399906157394
 20
214.549008118418
 10
-345.0160932157395
 20
214.3250087850829
 10
-344.9112520157395
 20
214.0824234517495
 10
-344.8254688157394
 20
213.8212321184183
 10
-344.7587454157394
 20
213.5414147850825
 10
-344.7110836157394
 20
213.2429514517498
 10
-344.6824852157395
 20
212.9258221184209
 10
-344.6729520157394
 20
212.5900067850816
 10
-344.6729520157394
 20
212.5900067850816
 10
-344.6815219157394
 20
212.2770147684205
 10
-344.7072252157394
 20
211.9813526517537
 10
-344.7500523157395
 20
211.7030263350825
 10
-344.8099936157395
 20
211.4420417184156
 10
-344.8870395157394
 20
211.198404701754
 10
-344.9811804157395
 20
210.9721211850847
 10
-345.0924067157395
 20
210.763197068416
 10
-345.2207088157394
 20
210.5716382517494
 10
-345.3660771157395
 20
210.397450635086
 10
-345.5285020157394
 20
210.2406401184198
 10
-345.5285020157394
 20
210.2406401184198
 10
-345.7102546824061
 20
210.1000826684176
 10
-345.9120573490728
 20
209.9742685184174
 10
-346.1339170157395
 20
209.8632099684182
 10
-346.3758406824061
 20
209.7669193184192
 10
-346.6378353490728
 20
209.6854088684195
 10
-346.9199080157395
 20
209.618690918418
 10
-347.2220656824061
 20
209.5667777684212
 10
-347.5443153490728
 20
209.5296817184208
 10
-347.8866640157395
 20
209.5074150684159
 10
-348.2491186824061
 20
209.4999901184201
 10
-348.2491186824061
 20
209.4999901184201
 10
-349.2720686824061
 20
209.4999901184201
 10
-349.2720686824061
 20
209.4999901184201
 10
-349.2720686824061
 20
206.8172901184153
 10
-349.2720686824061
 20
206.8172901184153
 10
-352.5433186824062
 20
206.8172901184153
 10
-352.5433186824062
 20
206.8172901184153
 10
-352.5433186824062
 20
206.8172901184153
 97
        0
 75
     0
 76
     1
 98
        0
1001
Cadwork
1000
entity-cdw-id
1071
       22
1000
entity-cdw-type
1071
        2
1000
entity-name
1000
line_22
  0
LWPOLYLINE
  5
239
330
1F
100
AcDbEntity
  8
Mst 1_1
 62
     7
420
 16777215
370
    25
100
AcDbPolyline
 90
       57
 70
     0
 43
0.0
 10
-352.5433186824062
 20
206.8172901184153
 10
-352.5433186824062
 20
215.9038067850852
 10
-352.5433186824062
 20
215.9038067850852
 10
-348.6386020157395
 20
215.9038067850852
 10
-348.6386020157395
 20
215.9038067850852
 10
-348.2378258657394
 20
215.8958581184197
 10
-347.8591748157395
 20
215.8720154517505
 10
-347.5026449657395
 20
215.8322837850865
 10
-347.1682324157395
 20
215.7766681184221
 10
-346.8559332657394
 20
215.7051734517518
 10
-346.5657436157394
 20
215.6178047850844
 10
-346.2976595657394
 20
215.5145671184218
 10
-346.0516772157395
 20
215.3954654517511
 10
-345.8277926657395
 20
215.2605047850884
 10
-345.6260020157395
 20
215.1096901184137
 10
-345.6260020157395
 20
215.1096901184137
 10
-345.4449468157394
 20
214.9413287850839
 10
-345.2829424157394
 20
214.7544414517542
 10
-345.1399906157394
 20
214.549008118418
 10
-345.0160932157395
 20
214.3250087850829
 10
-344.9112520157395
 20
214.0824234517495
 10
-344.8254688157394
 20
213.8212321184183
 10
-344.7587454157394
 20
213.5414147850825
 10
-344.7110836157394
 20
213.2429514517498
 10
-344.6824852157395
 20
212.9258221184209
 10
-344.6729520157394
 20
212.5900067850816
 10
-344.6729520157394
 20
212.5900067850816
 10
-344.6815219157394
 20
212.2770147684205
 10
-344.7072252157394
 20
211.9813526517537
 10
-344.7500523157395
 20
211.7030263350825
 10
-344.8099936157395
 20
211.4420417184156
 10
-344.8870395157394
 20
211.198404701754
 10
-344.9811804157395
 20
210.9721211850847
 10
-345.0924067157395
 20
210.763197068416
 10
-345.2207088157394
 20
210.5716382517494
 10
-345.3660771157395
 20
210.397450635086
 10
-345.5285020157394
 20
210.2406401184198
 10
-345.5285020157394
 20
210.2406401184198
 10
-345.7102546824061
 20
210.1000826684176
 10
-345.9120573490728
 20
209.9742685184174
 10
-346.1339170157395
 20
209.8632099684182
 10
-346.3758406824061
 20
209.7669193184192
 10
-346.6378353490728
 20
209.6854088684195
 10
-346.9199080157395
 20
209.618690918418
 10
-347.2220656824061
 20
209.5667777684212
 10
-347.5443153490728
 20
209.5296817184208
 10
-347.8866640157395
 20
209.5074150684159
 10
-348.2491186824061
 20
209.4999901184201
 10
-348.2491186824061
 20
209.4999901184201
 10
-349.2720686824061
 20
209.4999901184201
 10
-349.2720686824061
 20
209.4999901184201
 10
-349.2720686824061
 20
206.8172901184153
 10
-349.2720686824061
 20
206.8172901184153
 10
-352.5433186824062
 20
206.8172901184153
 10
-352.5433186824062
 20
206.8172901184153
 10
-352.5433186824062
 20
206.8172901184153
 10
-352.5433186824062
 20
206.8172901184153
1001
Cadwork
1000
entity-cdw-id
1071
       22
1000
entity-cdw-type
1071
        2
1000
entity-name
1000
line_22
  0
HATCH
  5
23A
330
1F
100
AcDbEntity
  8
Mst 1_1
 62
   242
420
 14811162
440
 33554687
370
     9
100
AcDbHatch
 10
0.0
 20
0.0
 30
0.0
210
0.0
220
0.0
230
1.0
  2
SOLID
 70
     1
 71
     1
 91
        1
 92
        3
 72
     0
 73
     1
 93
       52
 10
-349.2593020157394
 20
213.3782567850867
 10
-349.2593020157394
 20
211.8636901184145
 10
-349.2593020157394
 20
211.8636901184145
 10
-348.7516520157394
 20
211.8636901184145
 10
-348.7516520157394
 20
211.8636901184145
 10
-348.6608138990728
 20
211.8656584184137
 10
-348.5742090824061
 20
211.8715565184175
 10
-348.4918668657394
 20
211.8813742184211
 10
-348.4138165490727
 20
211.8951013184196
 10
-348.3400874324061
 20
211.9127276184154
 10
-348.2707088157395
 20
211.934242918418
 10
-348.2057099990727
 20
211.9596370184154
 10
-348.1451202824061
 20
211.9888997184171
 10
-348.0889689657395
 20
212.0220208184182
 10
-348.0372853490728
 20
212.0589901184212
 10
-348.0372853490728
 20
212.0589901184212
 10
-347.9902165990728
 20
212.0998074850868
 10
-347.9480833490728
 20
212.143895051755
 10
-347.9108900990727
 20
212.1912610184154
 10
-347.8786413490727
 20
212.2419135850869
 10
-347.8513415990727
 20
212.2958609517518
 10
-347.8289953490728
 20
212.3531113184217
 10
-347.8116070990727
 20
212.4136728850863
 10
-347.7991813490728
 20
212.4775538517497
 10
-347.7917225990727
 20
212.5447624184162
 10
-347.7892353490728
 20
212.6153067850828
 10
-347.7892353490728
 20
212.6153067850828
 10
-347.7917691157394
 20
212.6855644684183
 10
-347.7993774824062
 20
212.7526802517532
 10
-347.8120710490728
 20
212.8166582350823
 10
-347.8298604157394
 20
212.8775025184223
 10
-347.8527561824061
 20
212.9352172017534
 10
-347.8807689490727
 20
212.9898063850851
 10
-347.9139093157395
 20
213.0412741684195
 10
-347.9521878824061
 20
213.0896246517514
 10
-347.9956152490728
 20
213.1348619350829
 10
-348.0442020157394
 20
213.1769901184161
 10
-348.0442020157394
 20
213.1769901184161
 10
-348.0969479157394
 20
213.2150215350848
 10
-348.1536712157395
 20
213.2491154517556
 10
-348.2143803157394
 20
213.2792563684197
 10
-348.2790836157394
 20
213.3054287850828
 10
-348.3477895157395
 20
213.3276172017504
 10
-348.4205064157394
 20
213.3458061184137
 10
-348.4972427157394
 20
213.3599800350858
 10
-348.5780068157394
 20
213.3701234517503
 10
-348.6628071157394
 20
213.3762208684202
 10
-348.7516520157394
 20
213.3782567850867
 10
-348.7516520157394
 20
213.3782567850867
 10
-349.2593020157394
 20
213.3782567850867
 10
-349.2593020157394
 20
213.3782567850867
 10
-349.2593020157394
 20
213.3782567850867
 97
        0
 75
     0
 76
     1
 98
        0
1001
Cadwork
1000
entity-cdw-id
1071
       23
1000
entity-cdw-type
1071
        2
1000
entity-name
1000
line_23
  0
LWPOLYLINE
  5
23B
330
1F
100
AcDbEntity
  8
Mst 1_1
 62
   242
420
 14811162
370
    18
100
AcDbPolyline
 90
       53
 70
     0
 43
0.0
 10
-349.2593020157394
 20
213.3782567850867
 10
-349.2593020157394
 20
211.8636901184145
 10
-349.2593020157394
 20
211.8636901184145
 10
-348.7516520157394
 20
211.8636901184145
 10
-348.7516520157394
 20
211.8636901184145
 10
-348.6608138990728
 20
211.8656584184137
 10
-348.5742090824061
 20
211.8715565184175
 10
-348.4918668657394
 20
211.8813742184211
 10
-348.4138165490727
 20
211.8951013184196
 10
-348.3400874324061
 20
211.9127276184154
 10
-348.2707088157395
 20
211.934242918418
 10
-348.2057099990727
 20
211.9596370184154
 10
-348.1451202824061
 20
211.9888997184171
 10
-348.0889689657395
 20
212.0220208184182
 10
-348.0372853490728
 20
212.0589901184212
 10
-348.0372853490728
 20
212.0589901184212
 10
-347.9902165990728
 20
212.0998074850868
 10
-347.9480833490728
 20
212.143895051755
 10
-347.9108900990727
 20
212.1912610184154
 10
-347.8786413490727
 20
212.2419135850869
 10
-347.8513415990727
 20
212.2958609517518
 10
-347.8289953490728
 20
212.3531113184217
 10
-347.8116070990727
 20
212.4136728850863
 10
-347.7991813490728
 20
212.4775538517497
 10
-347.7917225990727
 20
212.5447624184162
 10
-347.7892353490728
 20
212.6153067850828
 10
-347.7892353490728
 20
212.6153067850828
 10
-347.7917691157394
 20
212.6855644684183
 10
-347.7993774824062
 20
212.7526802517532
 10
-347.8120710490728
 20
212.8166582350823
 10
-347.8298604157394
 20
212.8775025184223
 10
-347.8527561824061
 20
212.9352172017534
 10
-347.8807689490727
 20
212.9898063850851
 10
-347.9139093157395
 20
213.0412741684195
 10
-347.9521878824061
 20
213.0896246517514
 10
-347.9956152490728
 20
213.1348619350829
 10
-348.0442020157394
 20
213.1769901184161
 10
-348.0442020157394
 20
213.1769901184161
 10
-348.0969479157394
 20
213.2150215350848
 10
-348.1536712157395
 20
213.2491154517556
 10
-348.2143803157394
 20
213.2792563684197
 10
-348.2790836157394
 20
213.3054287850828
 10
-348.3477895157395
 20
213.3276172017504
 10
-348.4205064157394
 20
213.3458061184137
 10
-348.4972427157394
 20
213.3599800350858
 10
-348.5780068157394
 20
213.3701234517503
 10
-348.6628071157394
 20
213.3762208684202
 10
-348.7516520157394
 20
213.3782567850867
 10
-348.7516520157394
 20
213.3782567850867
 10
-349.2593020157394
 20
213.3782567850867
 10
-349.2593020157394
 20
213.3782567850867
 10
-349.2593020157394
 20
213.3782567850867
 10
-349.2593020157394
 20
213.3782567850867
1001
Cadwork
1000
entity-cdw-id
1071
       23
1000
entity-cdw-type
1071
        2
1000
entity-name
1000
line_23
  0
HATCH
  5
23C
330
1F
100
AcDbEntity
  8
Mst 1_1
 62
   242
420
 14811162
440
 33554687
370
     9
100
AcDbHatch
 10
0.0
 20
0.0
 30
0.0
210
0.0
220
0.0
230
1.0
  2
SOLID
 70
     1
 71
     1
 91
        1
 92
        3
 72
     0
 73
     1
 93
       10
 10
-311.4968520157395
 20
206.8172901184153
 10
-311.4968520157395
 20
215.9038067850852
 10
-311.4968520157395
 20
215.9038067850852
 10
-307.0290186824061
 20
215.9038067850852
 10
-307.0290186824061
 20
215.9038067850852
 10
-307.0290186824061
 20
206.8172901184153
 10
-307.0290186824061
 20
206.8172901184153
 10
-311.4968520157395
 20
206.8172901184153
 10
-311.4968520157395
 20
206.8172901184153
 10
-311.4968520157395
 20
206.8172901184153
 97
        0
 75
     0
 76
     1
 98
        0
1001
Cadwork
1000
entity-cdw-id
1071
       24
1000
entity-cdw-type
1071
        2
1000
entity-name
1000
line_24
  0
LWPOLYLINE
  5
23D
330
1F
100
AcDbEntity
  8
Mst 1_1
 62
   242
420
 14811162
370
    18
100
AcDbPolyline
 90
       11
 70
     0
 43
0.0
 10
-311.4968520157395
 20
206.8172901184153
 10
-311.4968520157395
 20
215.9038067850852
 10
-311.4968520157395
 20
215.9038067850852
 10
-307.0290186824061
 20
215.9038067850852
 10
-307.0290186824061
 20
215.9038067850852
 10
-307.0290186824061
 20
206.8172901184153
 10
-307.0290186824061
 20
206.8172901184153
 10
-311.4968520157395
 20
206.8172901184153
 10
-311.4968520157395
 20
206.8172901184153
 10
-311.4968520157395
 20
206.8172901184153
 10
-311.4968520157395
 20
206.8172901184153
1001
Cadwork
1000
entity-cdw-id
1071
       24
1000
entity-cdw-type
1071
        2
1000
entity-name
1000
line_24
  0
HATCH
  5
23E
330
1F
100
AcDbEntity
  8
Mst 1_1
 62
   242
420
 14811162
440
 33554687
370
    18
100
AcDbHatch
 10
0.0
 20
0.0
 30
0.0
210
0.0
220
0.0
230
1.0
  2
SOLID
 70
     1
 71
     1
 91
        1
 92
        3
 72
     0
 73
     1
 93
      114
 10
-299.2796853490728
 20
208.8784067850866
 10
-299.3140393490727
 20
208.9332251350861
 10
-299.3465973490728
 20
208.9857755850826
 10
-299.3773533490728
 20
209.0360812350846
 10
-299.4063013490727
 20
209.084165185086
 10
-299.4334353490727
 20
209.1300505350882
 10
-299.4587493490728
 20
209.1737603850852
 10
-299.4822373490728
 20
209.2153178350854
 10
-299.5038933490728
 20
209.254745985083
 10
-299.5237113490728
 20
209.2920679350864
 10
-299.5416853490727
 20
209.3273067850823
 10
-299.5416853490727
 20
209.3273067850823
 10
-299.5589880157394
 20
209.3612579517503
 10
-299.5753066824061
 20
209.3944681184148
 10
-299.5906573490728
 20
209.4269472850865
 10
-299.6050560157395
 20
209.4587054517542
 10
-299.6185186824061
 20
209.4897526184141
 10
-299.6310613490728
 20
209.520098785084
 10
-299.6427000157395
 20
209.5497539517528
 10
-299.6534506824061
 20
209.5787281184166
 10
-299.6633293490728
 20
209.6070312850861
 10
-299.6723520157394
 20
209.6346734517501
 10
-299.6723520157394
 20
209.6346734517501
 10
-299.6800163490728
 20
209.6084694684178
 10
-299.688446682406
 20
209.5817055850857
 10
-299.6976990157394
 20
209.5543789017538
 10
-299.7078293490729
 20
209.5264865184217
 10
-299.718893682406
 20
209.498025535082
 10
-299.7309480157394
 20
209.4689930517488
 10
-299.7440483490728
 20
209.4393861684148
 10
-299.758250682406
 20
209.4092019850868
 10
-299.7736110157394
 20
209.3784376017502
 10
-299.7901853490727
 20
209.3470901184191
 10
-299.7901853490727
 20
209.3470901184191
 10
-299.8075216824061
 20
209.3136841350861
 10
-299.8275160157394
 20
209.2772462517532
 10
-299.8501463490728
 20
209.2377915684192
 10
-299.8753906824061
 20
209.1953351850825
 10
-299.9032270157394
 20
209.149892201749
 10
-299.9336333490728
 20
209.1014777184173
 10
-299.9665876824062
 20
209.0501068350859
 10
-300.0020680157394
 20
208.9957946517534
 10
-300.0400523490729
 20
208.9385562684183
 10
-300.0805186824061
 20
208.8784067850866
 10
-300.0805186824061
 20
208.8784067850866
 10
-301.4701853490728
 20
206.8172901184153
 10
-301.4701853490728
 20
206.8172901184153
 10
-306.4978520157395
 20
206.8172901184153
 10
-306.4978520157395
 20
206.8172901184153
 10
-302.1550186824061
 20
211.6573067850841
 10
-302.1550186824061
 20
211.6573067850841
 10
-305.9870186824061
 20
215.9038067850852
 10
-305.9870186824061
 20
215.9038067850852
 10
-300.9675186824062
 20
215.9038067850852
 10
-300.9675186824062
 20
215.9038067850852
 10
-300.0641853490728
 20
214.4207234517526
 10
-300.0641853490728
 20
214.4207234517526
 10
-300.0613593490727
 20
214.4152103684173
 10
-300.0579973490727
 20
214.4091127850843
 10
-300.0541233490728
 20
214.4024332017507
 10
-300.0497613490728
 20
214.395174118421
 10
-300.0449353490727
 20
214.3873380350851
 10
-300.0396693490728
 20
214.3789274517549
 10
-300.0339873490727
 20
214.3699448684201
 10
-300.0279133490727
 20
214.3603927850854
 10
-300.0214713490727
 20
214.3502737017479
 10
-300.0146853490728
 20
214.3395901184194
 10
-300.0146853490728
 20
214.3395901184194
 10
-299.9659500157394
 20
214.2569372017533
 10
-299.920442682406
 20
214.1776887850865
 10
-299.8781613490728
 20
214.1018603684133
 10
-299.8391040157394
 20
214.02946745175
 10
-299.803268682406
 20
213.9605255350834
 10
-299.7706533490727
 20
213.8950501184154
 10
-299.7412560157394
 20
213.8330567017474
 10
-299.7150746824061
 20
213.7745607850884
 10
-299.6921073490728
 20
213.7195778684181
 10
-299.6723520157394
 20
213.6681234517528
 10
-299.6723520157394
 20
213.6681234517528
 10
-299.6602383490728
 20
213.7007667517537
 10
-299.6475826824061
 20
213.7335158517526
 10
-299.6343630157394
 20
213.7663845517527
 10
-299.6205573490728
 20
213.79938665175
 10
-299.6061436824061
 20
213.8325359517548
 10
-299.5911000157395
 20
213.8658462517487
 10
-299.5754043490728
 20
213.8993313517494
 10
-299.5590346824061
 20
213.9330050517528
 10
-299.5419690157394
 20
213.9668811517549
 10
-299.5241853490728
 20
214.0009734517516
 10
-299.5241853490728
 20
214.0009734517516
 10
-299.5068990157395
 20
214.0360558017492
 10
-299.4882746824061
 20
214.072696251751
 10
-299.4683643490728
 20
214.1108849017546
 10
-299.4472200157394
 20
214.15061185175
 10
-299.424893682406
 20
214.1918672017491
 10
-299.4014373490728
 20
214.2346410517493
 10
-299.3769030157395
 20
214.2789235017481
 10
-299.3513426824061
 20
214.3247046517499
 10
-299.3248083490728
 20
214.3719746017523
 10
-299.2973520157394
 20
214.4207234517526
 10
-299.2973520157394
 20
214.4207234517526
 10
-298.3698520157394
 20
215.9038067850852
 10
-298.3698520157394
 20
215.9038067850852
 10
-293.3731853490729
 20
215.9038067850852
 10
-293.3731853490729
 20
215.9038067850852
 10
-297.1925186824061
 20
211.6573067850841
 10
-297.1925186824061
 20
211.6573067850841
 10
-292.8448520157394
 20
206.8172901184153
 10
-292.8448520157394
 20
206.8172901184153
 10
-297.8770186824061
 20
206.8172901184153
 10
-297.8770186824061
 20
206.8172901184153
 10
-299.2796853490728
 20
208.8784067850866
 10
-299.2796853490728
 20
208.8784067850866
 10
-299.2796853490728
 20
208.8784067850866
 97
        0
 75
     0
 76
     1
 98
        0
1001
Cadwork
1000
entity-cdw-id
1071
       25
1000
entity-cdw-type
1071
        2
1000
entity-name
1000
line_25
  0
LWPOLYLINE
  5
23F
330
1F
100
AcDbEntity
  8
Mst 1_1
 62
   242
420
 14811162
370
    18
100
AcDbPolyline
 90
      115
 70
     0
 43
0.0
 10
-299.2796853490728
 20
208.8784067850866
 10
-299.3140393490727
 20
208.9332251350861
 10
-299.3465973490728
 20
208.9857755850826
 10
-299.3773533490728
 20
209.0360812350846
 10
-299.4063013490727
 20
209.084165185086
 10
-299.4334353490727
 20
209.1300505350882
 10
-299.4587493490728
 20
209.1737603850852
 10
-299.4822373490728
 20
209.2153178350854
 10
-299.5038933490728
 20
209.254745985083
 10
-299.5237113490728
 20
209.2920679350864
 10
-299.5416853490727
 20
209.3273067850823
 10
-299.5416853490727
 20
209.3273067850823
 10
-299.5589880157394
 20
209.3612579517503
 10
-299.5753066824061
 20
209.3944681184148
 10
-299.5906573490728
 20
209.4269472850865
 10
-299.6050560157395
 20
209.4587054517542
 10
-299.6185186824061
 20
209.4897526184141
 10
-299.6310613490728
 20
209.520098785084
 10
-299.6427000157395
 20
209.5497539517528
 10
-299.6534506824061
 20
209.5787281184166
 10
-299.6633293490728
 20
209.6070312850861
 10
-299.6723520157394
 20
209.6346734517501
 10
-299.6723520157394
 20
209.6346734517501
 10
-299.6800163490728
 20
209.6084694684178
 10
-299.688446682406
 20
209.5817055850857
 10
-299.6976990157394
 20
209.5543789017538
 10
-299.7078293490729
 20
209.5264865184217
 10
-299.718893682406
 20
209.498025535082
 10
-299.7309480157394
 20
209.4689930517488
 10
-299.7440483490728
 20
209.4393861684148
 10
-299.758250682406
 20
209.4092019850868
 10
-299.7736110157394
 20
209.3784376017502
 10
-299.7901853490727
 20
209.3470901184191
 10
-299.7901853490727
 20
209.3470901184191
 10
-299.8075216824061
 20
209.3136841350861
 10
-299.8275160157394
 20
209.2772462517532
 10
-299.8501463490728
 20
209.2377915684192
 10
-299.8753906824061
 20
209.1953351850825
 10
-299.9032270157394
 20
209.149892201749
 10
-299.9336333490728
 20
209.1014777184173
 10
-299.9665876824062
 20
209.0501068350859
 10
-300.0020680157394
 20
208.9957946517534
 10
-300.0400523490729
 20
208.9385562684183
 10
-300.0805186824061
 20
208.8784067850866
 10
-300.0805186824061
 20
208.8784067850866
 10
-301.4701853490728
 20
206.8172901184153
 10
-301.4701853490728
 20
206.8172901184153
 10
-306.4978520157395
 20
206.8172901184153
 10
-306.4978520157395
 20
206.8172901184153
 10
-302.1550186824061
 20
211.6573067850841
 10
-302.1550186824061
 20
211.6573067850841
 10
-305.9870186824061
 20
215.9038067850852
 10
-305.9870186824061
 20
215.9038067850852
 10
-300.9675186824062
 20
215.9038067850852
 10
-300.9675186824062
 20
215.9038067850852
 10
-300.0641853490728
 20
214.4207234517526
 10
-300.0641853490728
 20
214.4207234517526
 10
-300.0613593490727
 20
214.4152103684173
 10
-300.0579973490727
 20
214.4091127850843
 10
-300.0541233490728
 20
214.4024332017507
 10
-300.0497613490728
 20
214.395174118421
 10
-300.0449353490727
 20
214.3873380350851
 10
-300.0396693490728
 20
214.3789274517549
 10
-300.0339873490727
 20
214.3699448684201
 10
-300.0279133490727
 20
214.3603927850854
 10
-300.0214713490727
 20
214.3502737017479
 10
-300.0146853490728
 20
214.3395901184194
 10
-300.0146853490728
 20
214.3395901184194
 10
-299.9659500157394
 20
214.2569372017533
 10
-299.920442682406
 20
214.1776887850865
 10
-299.8781613490728
 20
214.1018603684133
 10
-299.8391040157394
 20
214.02946745175
 10
-299.803268682406
 20
213.9605255350834
 10
-299.7706533490727
 20
213.8950501184154
 10
-299.7412560157394
 20
213.8330567017474
 10
-299.7150746824061
 20
213.7745607850884
 10
-299.6921073490728
 20
213.7195778684181
 10
-299.6723520157394
 20
213.6681234517528
 10
-299.6723520157394
 20
213.6681234517528
 10
-299.6602383490728
 20
213.7007667517537
 10
-299.6475826824061
 20
213.7335158517526
 10
-299.6343630157394
 20
213.7663845517527
 10
-299.6205573490728
 20
213.79938665175
 10
-299.6061436824061
 20
213.8325359517548
 10
-299.5911000157395
 20
213.8658462517487
 10
-299.5754043490728
 20
213.8993313517494
 10
-299.5590346824061
 20
213.9330050517528
 10
-299.5419690157394
 20
213.9668811517549
 10
-299.5241853490728
 20
214.0009734517516
 10
-299.5241853490728
 20
214.0009734517516
 10
-299.5068990157395
 20
214.0360558017492
 10
-299.4882746824061
 20
214.072696251751
 10
-299.4683643490728
 20
214.1108849017546
 10
-299.4472200157394
 20
214.15061185175
 10
-299.424893682406
 20
214.1918672017491
 10
-299.4014373490728
 20
214.2346410517493
 10
-299.3769030157395
 20
214.2789235017481
 10
-299.3513426824061
 20
214.3247046517499
 10
-299.3248083490728
 20
214.3719746017523
 10
-299.2973520157394
 20
214.4207234517526
 10
-299.2973520157394
 20
214.4207234517526
 10
-298.3698520157394
 20
215.9038067850852
 10
-298.3698520157394
 20
215.9038067850852
 10
-293.3731853490729
 20
215.9038067850852
 10
-293.3731853490729
 20
215.9038067850852
 10
-297.1925186824061
 20
211.6573067850841
 10
-297.1925186824061
 20
211.6573067850841
 10
-292.8448520157394
 20
206.8172901184153
 10
-292.8448520157394
 20
206.8172901184153
 10
-297.8770186824061
 20
206.8172901184153
 10
-297.8770186824061
 20
206.8172901184153
 10
-299.2796853490728
 20
208.8784067850866
 10
-299.2796853490728
 20
208.8784067850866
 10
-299.2796853490728
 20
208.8784067850866
 10
-299.2796853490728
 20
208.8784067850866
1001
Cadwork
1000
entity-cdw-id
1071
       25
1000
entity-cdw-type
1071
        2
1000
entity-name
1000
line_25
  0
HATCH
  5
240
330
1F
100
AcDbEntity
  8
Mst 1_1
 62
     7
440
 33554687
370
    25
100
AcDbHatch
 10
0.0
 20
0.0
 30
0.0
210
0.0
220
0.0
230
1.0
  2
SOLID
 70
     1
 71
     1
 91
        1
 92
        3
 72
     0
 73
     1
 93
       46
 10
-288.5296853490728
 20
222.0298567850841
 10
-288.4171548490727
 20
222.0207432850802
 10
-288.3102413490728
 20
221.9943687850828
 10
-288.2104118490728
 20
221.9521822850875
 10
-288.1191333490727
 20
221.8956327850829
 10
-288.0378728490729
 20
221.8261692850865
 10
-287.9680973490729
 20
221.7452407850869
 10
-287.9112738490728
 20
221.6542962850872
 10
-287.8688693490727
 20
221.554784785083
 10
-287.8423508490727
 20
221.4481552850848
 10
-287.8331853490728
 20
221.3358567850883
 10
-287.8331853490728
 20
221.3358567850883
 10
-287.8423508490727
 20
221.2237031184195
 10
-287.8688693490727
 20
221.1172074517526
 10
-287.9112738490728
 20
221.017817785083
 10
-287.9680973490729
 20
220.9269821184207
 10
-288.0378728490729
 20
220.8461484517538
 10
-288.1191333490727
 20
220.7767647850851
 10
-288.2104118490728
 20
220.7202791184172
 10
-288.3102413490728
 20
220.6781394517529
 10
-288.4171548490727
 20
220.6517937850804
 10
-288.5296853490728
 20
220.6426901184168
 10
-288.5296853490728
 20
220.6426901184168
 10
-288.6428061824062
 20
220.6517937850804
 10
-288.7501120157394
 20
220.6781394517529
 10
-288.8501678490727
 20
220.7202791184172
 10
-288.9415386824062
 20
220.7767647850851
 10
-289.0227895157394
 20
220.8461484517538
 10
-289.0924853490728
 20
220.9269821184207
 10
-289.1491911824062
 20
221.017817785083
 10
-289.1914720157394
 20
221.1172074517526
 10
-289.2178928490729
 20
221.2237031184195
 10
-289.2270186824062
 20
221.3358567850883
 10
-289.2270186824062
 20
221.3358567850883
 10
-289.2178928490729
 20
221.4481552850848
 10
-289.1914720157394
 20
221.554784785083
 10
-289.1491911824062
 20
221.6542962850872
 10
-289.0924853490728
 20
221.7452407850869
 10
-289.0227895157394
 20
221.8261692850865
 10
-288.9415386824062
 20
221.8956327850829
 10
-288.8501678490727
 20
221.9521822850875
 10
-288.7501120157394
 20
221.9943687850828
 10
-288.6428061824062
 20
222.0207432850802
 10
-288.5296853490728
 20
222.0298567850841
 10
-288.5296853490728
 20
222.0298567850841
 10
-288.5296853490728
 20
222.0298567850841
 97
        0
 75
     0
 76
     1
 98
        0
1001
Cadwork
1000
entity-cdw-id
1071
       26
1000
entity-cdw-type
1071
        2
1000
entity-name
1000
line_26
  0
LWPOLYLINE
  5
241
330
1F
100
AcDbEntity
  8
Mst 1_1
 62
     7
370
    25
100
AcDbPolyline
 90
       47
 70
     0
 43
0.0
 10
-288.5296853490728
 20
222.0298567850841
 10
-288.4171548490727
 20
222.0207432850802
 10
-288.3102413490728
 20
221.9943687850828
 10
-288.2104118490728
 20
221.9521822850875
 10
-288.1191333490727
 20
221.8956327850829
 10
-288.0378728490729
 20
221.8261692850865
 10
-287.9680973490729
 20
221.7452407850869
 10
-287.9112738490728
 20
221.6542962850872
 10
-287.8688693490727
 20
221.554784785083
 10
-287.8423508490727
 20
221.4481552850848
 10
-287.8331853490728
 20
221.3358567850883
 10
-287.8331853490728
 20
221.3358567850883
 10
-287.8423508490727
 20
221.2237031184195
 10
-287.8688693490727
 20
221.1172074517526
 10
-287.9112738490728
 20
221.017817785083
 10
-287.9680973490729
 20
220.9269821184207
 10
-288.0378728490729
 20
220.8461484517538
 10
-288.1191333490727
 20
220.7767647850851
 10
-288.2104118490728
 20
220.7202791184172
 10
-288.3102413490728
 20
220.6781394517529
 10
-288.4171548490727
 20
220.6517937850804
 10
-288.5296853490728
 20
220.6426901184168
 10
-288.5296853490728
 20
220.6426901184168
 10
-288.6428061824062
 20
220.6517937850804
 10
-288.7501120157394
 20
220.6781394517529
 10
-288.8501678490727
 20
220.7202791184172
 10
-288.9415386824062
 20
220.7767647850851
 10
-289.0227895157394
 20
220.8461484517538
 10
-289.0924853490728
 20
220.9269821184207
 10
-289.1491911824062
 20
221.017817785083
 10
-289.1914720157394
 20
221.1172074517526
 10
-289.2178928490729
 20
221.2237031184195
 10
-289.2270186824062
 20
221.3358567850883
 10
-289.2270186824062
 20
221.3358567850883
 10
-289.2178928490729
 20
221.4481552850848
 10
-289.1914720157394
 20
221.554784785083
 10
-289.1491911824062
 20
221.6542962850872
 10
-289.0924853490728
 20
221.7452407850869
 10
-289.0227895157394
 20
221.8261692850865
 10
-288.9415386824062
 20
221.8956327850829
 10
-288.8501678490727
 20
221.9521822850875
 10
-288.7501120157394
 20
221.9943687850828
 10
-288.6428061824062
 20
222.0207432850802
 10
-288.5296853490728
 20
222.0298567850841
 10
-288.5296853490728
 20
222.0298567850841
 10
-288.5296853490728
 20
222.0298567850841
 10
-288.5296853490728
 20
222.0298567850841
1001
Cadwork
1000
entity-cdw-id
1071
       26
1000
entity-cdw-type
1071
        2
1000
entity-name
1000
line_26
  0
HATCH
  5
242
330
1F
100
AcDbEntity
  8
Mst 1_1
 62
   242
420
 14811162
440
 33554687
370
     9
100
AcDbHatch
 10
0.0
 20
0.0
 30
0.0
210
0.0
220
0.0
230
1.0
  2
SOLID
 70
     1
 71
     1
 91
        1
 92
        3
 72
     0
 73
     1
 93
       29
 10
-288.8493520157393
 20
221.8178567850846
 10
-288.8493520157393
 20
220.9111901184151
 10
-288.8493520157393
 20
220.9111901184151
 10
-288.7151853490728
 20
220.9111901184151
 10
-288.7151853490728
 20
220.9111901184151
 10
-288.7151853490728
 20
221.3181901184216
 10
-288.7151853490728
 20
221.3181901184216
 10
-288.5368520157394
 20
221.3181901184216
 10
-288.5368520157394
 20
221.3181901184216
 10
-288.2775186824061
 20
220.9171901184163
 10
-288.2775186824061
 20
220.9171901184163
 10
-288.1413520157394
 20
220.9171901184163
 10
-288.1413520157394
 20
220.9171901184163
 10
-288.4001853490728
 20
221.3255234517492
 10
-288.4001853490728
 20
221.3255234517492
 10
-288.3115983490728
 20
221.3439451184167
 10
-288.2419293490727
 20
221.3840967850847
 10
-288.1914663490728
 20
221.4404084517519
 10
-288.1604973490728
 20
221.5073101184171
 10
-288.1493103490728
 20
221.5792317850864
 10
-288.1581933490728
 20
221.6506034517515
 10
-288.1874343490728
 20
221.7158551184184
 10
-288.2373213490728
 20
221.7694167850859
 10
-288.3081423490728
 20
221.8057184517529
 10
-288.4001853490728
 20
221.8191901184182
 10
-288.4001853490728
 20
221.8191901184182
 10
-288.8493520157393
 20
221.8178567850846
 10
-288.8493520157393
 20
221.8178567850846
 10
-288.8493520157393
 20
221.8178567850846
 97
        0
 75
     0
 76
     1
 98
        0
1001
Cadwork
1000
entity-cdw-id
1071
       27
1000
entity-cdw-type
1071
        2
1000
entity-name
1000
line_27
  0
LWPOLYLINE
  5
243
330
1F
100
AcDbEntity
  8
Mst 1_1
 62
   242
420
 14811162
370
    18
100
AcDbPolyline
 90
       30
 70
     0
 43
0.0
 10
-288.8493520157393
 20
221.8178567850846
 10
-288.8493520157393
 20
220.9111901184151
 10
-288.8493520157393
 20
220.9111901184151
 10
-288.7151853490728
 20
220.9111901184151
 10
-288.7151853490728
 20
220.9111901184151
 10
-288.7151853490728
 20
221.3181901184216
 10
-288.7151853490728
 20
221.3181901184216
 10
-288.5368520157394
 20
221.3181901184216
 10
-288.5368520157394
 20
221.3181901184216
 10
-288.2775186824061
 20
220.9171901184163
 10
-288.2775186824061
 20
220.9171901184163
 10
-288.1413520157394
 20
220.9171901184163
 10
-288.1413520157394
 20
220.9171901184163
 10
-288.4001853490728
 20
221.3255234517492
 10
-288.4001853490728
 20
221.3255234517492
 10
-288.3115983490728
 20
221.3439451184167
 10
-288.2419293490727
 20
221.3840967850847
 10
-288.1914663490728
 20
221.4404084517519
 10
-288.1604973490728
 20
221.5073101184171
 10
-288.1493103490728
 20
221.5792317850864
 10
-288.1581933490728
 20
221.6506034517515
 10
-288.1874343490728
 20
221.7158551184184
 10
-288.2373213490728
 20
221.7694167850859
 10
-288.3081423490728
 20
221.8057184517529
 10
-288.4001853490728
 20
221.8191901184182
 10
-288.4001853490728
 20
221.8191901184182
 10
-288.8493520157393
 20
221.8178567850846
 10
-288.8493520157393
 20
221.8178567850846
 10
-288.8493520157393
 20
221.8178567850846
 10
-288.8493520157393
 20
221.8178567850846
1001
Cadwork
1000
entity-cdw-id
1071
       27
1000
entity-cdw-type
1071
        2
1000
entity-name
1000
line_27
  0
HATCH
  5
244
330
1F
100
AcDbEntity
  8
Mst 1_1
 62
     7
440
 33554687
370
    25
100
AcDbHatch
 10
0.0
 20
0.0
 30
0.0
210
0.0
220
0.0
230
1.0
  2
SOLID
 70
     1
 71
     1
 91
        1
 92
        3
 72
     0
 73
     1
 93
       19
 10
-288.7151853490728
 20
221.7146901184169
 10
-288.7151853490728
 20
221.4240234517492
 10
-288.7151853490728
 20
221.4240234517492
 10
-288.4138520157395
 20
221.4248567850809
 10
-288.4138520157395
 20
221.4248567850809
 10
-288.3608735157395
 20
221.436707118417
 10
-288.3194040157395
 20
221.4610794517503
 10
-288.2895425157394
 20
221.4947057850877
 10
-288.2713880157395
 20
221.5343181184217
 10
-288.2650395157394
 20
221.5766484517517
 10
-288.2705960157394
 20
221.6184287850847
 10
-288.2881565157395
 20
221.6563911184203
 10
-288.3178200157395
 20
221.6872674517508
 10
-288.3596855157394
 20
221.7077897850832
 10
-288.4138520157395
 20
221.7146901184169
 10
-288.4138520157395
 20
221.7146901184169
 10
-288.7151853490728
 20
221.7146901184169
 10
-288.7151853490728
 20
221.7146901184169
 10
-288.7151853490728
 20
221.7146901184169
 97
        0
 75
     0
 76
     1
 98
        0
1001
Cadwork
1000
entity-cdw-id
1071
       28
1000
entity-cdw-type
1071
        2
1000
entity-name
1000
line_28
  0
LWPOLYLINE
  5
245
330
1F
100
AcDbEntity
  8
Mst 1_1
 62
     7
370
    25
100
AcDbPolyline
 90
       20
 70
     0
 43
0.0
 10
-288.7151853490728
 20
221.7146901184169
 10
-288.7151853490728
 20
221.4240234517492
 10
-288.7151853490728
 20
221.4240234517492
 10
-288.4138520157395
 20
221.4248567850809
 10
-288.4138520157395
 20
221.4248567850809
 10
-288.3608735157395
 20
221.436707118417
 10
-288.3194040157395
 20
221.4610794517503
 10
-288.2895425157394
 20
221.4947057850877
 10
-288.2713880157395
 20
221.5343181184217
 10
-288.2650395157394
 20
221.5766484517517
 10
-288.2705960157394
 20
221.6184287850847
 10
-288.2881565157395
 20
221.6563911184203
 10
-288.3178200157395
 20
221.6872674517508
 10
-288.3596855157394
 20
221.7077897850832
 10
-288.4138520157395
 20
221.7146901184169
 10
-288.4138520157395
 20
221.7146901184169
 10
-288.7151853490728
 20
221.7146901184169
 10
-288.7151853490728
 20
221.7146901184169
 10
-288.7151853490728
 20
221.7146901184169
 10
-288.7151853490728
 20
221.7146901184169
1001
Cadwork
1000
entity-cdw-id
1071
       28
1000
entity-cdw-type
1071
        2
1000
entity-name
1000
line_28
  0
LWPOLYLINE
  5
246
330
1F
100
AcDbEntity
  8
Mst 1_1
  6
CADWORK_4
 62
     7
370
    25
100
AcDbPolyline
 90
        2
 70
     0
 43
0.0
 10
-387.644596687807
 20
61.36958210106241
 10
-387.644596687807
 20
26.36958210106241
1001
Cadwork
1000
entity-cdw-id
1071
       29
1000
entity-cdw-type
1071
        2
1000
entity-name
1000
line_29
  0
LWPOLYLINE
  5
247
330
1F
100
AcDbEntity
  8
Mst 1_1
 62
   137
370
     9
100
AcDbPolyline
 90
        7
 70
     0
 43
0.0
 38
2500.0
 10
-442.644596687807
 20
37.64458210106386
 10
-442.644596687807
 20
45.09458210106095
 10
-389.911265558857
 20
45.09458210106095
 10
-387.644596687807
 20
44.26958210106386
 10
-387.644596687807
 20
38.46958210106095
 10
-389.911265558857
 20
37.64458210106386
 10
-442.644596687807
 20
37.64458210106386
1001
Cadwork
1000
entity-cdw-id
1071
       31
1000
entity-cdw-type
1071
        2
1000
entity-name
1000
line_31
  0
3DFACE
  5
248
330
1F
100
AcDbEntity
  8
Mst 1_1
 62
   137
370
     9
100
AcDbFace
 10
-442.644596687807
 20
37.64458210106386
 30
2500.0
 11
-442.9445966878071
 21
37.34458210106095
 31
2500.0
 12
-442.9445966878071
 22
45.39458210106386
 32
2500.0
 13
-442.644596687807
 23
45.09458210106095
 33
2500.0
1001
Cadwork
1000
entity-cdw-id
1071
       32
1000
entity-cdw-type
1071
        2
1000
entity-name
1000
line_32
  0
3DFACE
  5
249
330
1F
100
AcDbEntity
  8
Mst 1_1
 62
   137
370
     9
100
AcDbFace
 10
-442.9445966878071
 20
37.34458210106095
 30
2500.0
 11
-442.9445966878071
 21
45.39458210106386
 31
2500.0
 12
-452.644596687807
 22
45.39458210106386
 32
2500.0
 13
-452.644596687807
 23
37.34458210106095
 33
2500.0
1001
Cadwork
1000
entity-cdw-id
1071
       50
1000
entity-cdw-type
1071
        2
1000
entity-name
1000
line_50
  0
LINE
  5
24A
330
1F
100
AcDbEntity
  8
Mst 1_1
 62
   137
370
     9
100
AcDbLine
 10
-389.911265558857
 20
45.09458210106095
 30
2500.0
 11
-389.911265558857
 21
37.64458210106386
 31
2500.0
1001
Cadwork
1000
entity-cdw-id
1071
       33
1000
entity-cdw-type
1071
        2
1000
entity-name
1000
line_33
  0
WIPEOUT
  5
24B
330
1F
100
AcDbEntity
  8
Mst 1_1
160
               152
310
98000000040000000C0000000E000000120000000C00000016000000000000C20C00000014000000010000006C000000070000000400000032E60BD2A1967BC080D391AA81D242400000000000000000DD5BBC846AA57BC080A4FEBAD8F4424000000000000000002EC61FA1D8A57BC000D491AA81D2424000000000000000
310
0065A19FEB549D7BC08008C5DDB43542400000000000000000
100
AcDbWipeout
 90
        0
 10
-442.3653880349328
 20
36.41958210106623
 30
0.0
 11
1.493281987313821
 21
0.0
 31
0.0
 12
0.0
 22
1.493281987313821
 32
0.0
 13
1.0
 23
1.0
340
0
 70
     4
280
     1
281
    50
282
    50
283
     0
360
0
 71
     2
 91
        5
 14
0.1367726165932481
 24
-0.3203407061785484
 14
-0.4819976787973701
 24
-0.5
 14
-0.5
 24
-0.3203407061791594
 14
-0.1436336078385239
 24
0.5
 14
0.1367726165932481
 24
-0.3203407061785484
290
     0
1001
Cadwork
1000
entity-cdw-id
1071
       54
1000
entity-cdw-type
1071
        2
1000
entity-name
1000
line_54
  0
LWPOLYLINE
  5
24C
330
1F
100
AcDbEntity
  8
Mst 1_1
 62
   137
370
     9
100
AcDbPolyline
 90
        5
 70
     0
 43
0.0
 38
2500.0
 10
-441.4145069565594
 20
37.64458210106295
 10
-442.3385054929511
 20
37.91286408838005
 10
-442.3653880349328
 20
37.64458210106386
 10
-441.8332325206341
 20
36.41958210106623
 10
-441.4145069565594
 20
37.64458210106295
1001
Cadwork
1000
entity-cdw-id
1071
       54
1000
entity-cdw-type
1071
        2
1000
entity-name
1000
line_54
  0
LINE
  5
24D
330
1F
100
AcDbEntity
  8
Mst 1_1
 62
   137
370
     9
100
AcDbLine
 10
-442.3385054929511
 20
37.91286408838005
 30
2500.0
 11
-441.8332325206341
 21
36.41958210106623
 31
2500.0
1001
Cadwork
1000
entity-cdw-id
1071
       55
1000
entity-cdw-type
1071
        2
1000
entity-name
1000
line_55
  0
WIPEOUT
  5
24E
330
1F
100
AcDbEntity
  8
Mst 1_1
160
               152
310
98000000040000000C0000000E000000120000000C00000016000000000000C20C00000014000000010000006C000000070000000400000096A1C2386F6E7BC0016C2B441B8C464000000000000000006BE62E1FBC677BC0003CF810E8284740000000000000000092FF4039702B7BC001D491AA81D2424000000000000000
310
001A73C95223327BC00108C5DDB43542400000000000000000
100
AcDbWipeout
 90
        0
 10
-438.9021537401944
 20
36.41958210106532
 30
0.0
 11
9.900000000001455
 21
0.0
 31
0.0
 12
0.0
 22
9.900000000001455
 32
0.0
 13
1.0
 23
1.0
340
0
 70
     4
280
     1
281
    50
282
    50
283
     0
360
0
 71
     2
 91
        5
 14
-0.5000000000000071
 24
-0.376262626262057
 14
-0.4577044884773613
 24
-0.5
 14
-0.0770449102403958
 24
0.3762626262627911
 14
-0.1193404175185293
 24
0.4999999999999996
 14
-0.5000000000000071
 24
-0.376262626262057
290
     0
1001
Cadwork
1000
entity-cdw-id
1071
       34
1000
entity-cdw-type
1071
        2
1000
entity-name
1000
line_34
  0
LWPOLYLINE
  5
24F
330
1F
100
AcDbEntity
  8
Mst 1_1
 62
   137
370
     9
100
AcDbPolyline
 90
        5
 70
     0
 43
0.0
 38
2500.0
 10
-438.9021537401944
 20
45.09458210106095
 10
-438.4834281761201
 20
46.31958210106677
 10
-434.7148983515736
 20
37.64458210106386
 10
-435.1336238736272
 20
36.41958210106532
 10
-438.9021537401944
 20
45.09458210106095
1001
Cadwork
1000
entity-cdw-id
1071
       34
1000
entity-cdw-type
1071
        2
1000
entity-name
1000
line_34
  0
LINE
  5
250
330
1F
100
AcDbEntity
  8
Mst 1_1
 62
   137
370
     9
100
AcDbLine
 10
-438.4834281761201
 20
46.31958210106677
 30
2500.0
 11
-435.1336238736272
 21
36.41958210106532
 31
2500.0
1001
Cadwork
1000
entity-cdw-id
1071
       35
1000
entity-cdw-type
1071
        2
1000
entity-name
1000
line_35
  0
WIPEOUT
  5
251
330
1F
100
AcDbEntity
  8
Mst 1_1
160
               152
310
98000000040000000C0000000E000000120000000C00000016000000000000C20C00000014000000010000006C00000007000000040000004B73EC9F3D037BC0016C2B441B8C46400000000000000000C7FF63868AFC7AC0003CF810E8284740000000000000000045D16AA03EC07AC001D491AA81D2424000000000000000
310
00CF44F3B9F1C67AC00108C5DDB43542400000000000000000
100
AcDbWipeout
 90
        0
 10
-432.2025450931876
 20
36.41958210106532
 30
0.0
 11
9.900000000001455
 21
0.0
 31
0.0
 12
0.0
 22
9.900000000001455
 32
0.0
 13
1.0
 23
1.0
340
0
 70
     4
280
     1
281
    50
282
    50
283
     0
360
0
 71
     2
 91
        5
 14
-0.5
 24
-0.376262626262057
 14
-0.4577044927218878
 24
-0.5
 14
-0.0770449102403745
 24
0.3762626262627911
 14
-0.1193404175185222
 24
0.4999999999999996
 14
-0.5
 24
-0.376262626262057
290
     0
1001
Cadwork
1000
entity-cdw-id
1071
       36
1000
entity-cdw-type
1071
        2
1000
entity-name
1000
line_36
  0
LWPOLYLINE
  5
252
330
1F
100
AcDbEntity
  8
Mst 1_1
 62
   137
370
     9
100
AcDbPolyline
 90
        5
 70
     0
 43
0.0
 38
2500.0
 10
-432.2025450931876
 20
45.09458210106095
 10
-431.7838195711342
 20
46.31958210106677
 10
-428.0152897045667
 20
37.64458210106386
 10
-428.4340152266204
 20
36.41958210106532
 10
-432.2025450931876
 20
45.09458210106095
1001
Cadwork
1000
entity-cdw-id
1071
       36
1000
entity-cdw-type
1071
        2
1000
entity-name
1000
line_36
  0
LINE
  5
253
330
1F
100
AcDbEntity
  8
Mst 1_1
 62
   137
370
     9
100
AcDbLine
 10
-431.7838195711342
 20
46.31958210106677
 30
2500.0
 11
-428.4340152266204
 21
36.41958210106532
 31
2500.0
1001
Cadwork
1000
entity-cdw-id
1071
       37
1000
entity-cdw-type
1071
        2
1000
entity-name
1000
line_37
  0
WIPEOUT
  5
254
330
1F
100
AcDbEntity
  8
Mst 1_1
160
               152
310
98000000040000000C0000000E000000120000000C00000016000000000000C20C00000014000000010000006C0000000700000004000000024516070C987AC0016C2B441B8C464000000000000000007ED18DED58917AC0003CF810E82847400000000000000000FCA294070D557AC001D491AA81D2424000000000000000
310
0059BA2221C05B7AC00108C5DDB43542400000000000000000
100
AcDbWipeout
 90
        0
 10
-425.5029364461807
 20
36.41958210106532
 30
0.0
 11
9.900000000001455
 21
0.0
 31
0.0
 12
0.0
 22
9.900000000001455
 32
0.0
 13
1.0
 23
1.0
340
0
 70
     4
280
     1
281
    50
282
    50
283
     0
360
0
 71
     2
 91
        5
 14
-0.5000000000000071
 24
-0.376262626262057
 14
-0.457704492721895
 24
-0.5
 14
-0.0770449102403816
 24
0.3762626262627911
 14
-0.1193404196407926
 24
0.4999999999999996
 14
-0.5000000000000071
 24
-0.376262626262057
290
     0
1001
Cadwork
1000
entity-cdw-id
1071
       38
1000
entity-cdw-type
1071
        2
1000
entity-name
1000
line_38
  0
LWPOLYLINE
  5
255
330
1F
100
AcDbEntity
  8
Mst 1_1
 62
   137
370
     9
100
AcDbPolyline
 90
        5
 70
     0
 43
0.0
 38
2500.0
 10
-425.5029364461807
 20
45.09458210106095
 10
-425.0842109241274
 20
46.31958210106677
 10
-421.3156810575599
 20
37.64458210106386
 10
-421.734406600624
 20
36.41958210106532
 10
-425.5029364461807
 20
45.09458210106095
1001
Cadwork
1000
entity-cdw-id
1071
       38
1000
entity-cdw-type
1071
        2
1000
entity-name
1000
line_38
  0
LINE
  5
256
330
1F
100
AcDbEntity
  8
Mst 1_1
 62
   137
370
     9
100
AcDbLine
 10
-425.0842109241274
 20
46.31958210106677
 30
2500.0
 11
-421.734406600624
 21
36.41958210106532
 31
2500.0
1001
Cadwork
1000
entity-cdw-id
1071
       39
1000
entity-cdw-type
1071
        2
1000
entity-name
1000
line_39
  0
WIPEOUT
  5
257
330
1F
100
AcDbEntity
  8
Mst 1_1
160
               152
310
98000000040000000C0000000E000000120000000C00000016000000000000C20C00000014000000010000006C00000007000000040000008ABA456EDA2C7AC0016C2B441B8C4640000000000000000033A3B75427267AC0003CF810E82847400000000000000000B074BE6EDBE979C001D491AA81D2424000000000000000
310
000E8C4C888EF079C00108C5DDB43542400000000000000000
100
AcDbWipeout
 90
        0
 10
-418.8033278201844
 20
36.41958210106532
 30
0.0
 11
9.900000000001455
 21
0.0
 31
0.0
 12
0.0
 22
9.900000000001455
 32
0.0
 13
1.0
 23
1.0
340
0
 70
     4
280
     1
281
    50
282
    50
283
     0
360
0
 71
     2
 91
        5
 14
-0.4999999999999929
 24
-0.376262626262057
 14
-0.4577044905996175
 24
-0.5
 14
-0.0770449081181042
 24
0.3762626262627911
 14
-0.1193404175185151
 24
0.4999999999999996
 14
-0.4999999999999929
 24
-0.376262626262057
290
     0
1001
Cadwork
1000
entity-cdw-id
1071
       40
1000
entity-cdw-type
1071
        2
1000
entity-name
1000
line_40
  0
LWPOLYLINE
  5
258
330
1F
100
AcDbEntity
  8
Mst 1_1
 62
   137
370
     9
100
AcDbPolyline
 90
        5
 70
     0
 43
0.0
 38
2500.0
 10
-418.8033278201844
 20
45.09458210106095
 10
-418.3846022771206
 20
46.31958210106677
 10
-414.616072410553
 20
37.64458210106386
 10
-415.0347979536172
 20
36.41958210106532
 10
-418.8033278201844
 20
45.09458210106095
1001
Cadwork
1000
entity-cdw-id
1071
       40
1000
entity-cdw-type
1071
        2
1000
entity-name
1000
line_40
  0
LINE
  5
259
330
1F
100
AcDbEntity
  8
Mst 1_1
 62
   137
370
     9
100
AcDbLine
 10
-418.3846022771206
 20
46.31958210106677
 30
2500.0
 11
-415.0347979536172
 21
36.41958210106532
 31
2500.0
1001
Cadwork
1000
entity-cdw-id
1071
       41
1000
entity-cdw-type
1071
        2
1000
entity-name
1000
line_41
  0
WIPEOUT
  5
25A
330
1F
100
AcDbEntity
  8
Mst 1_1
160
               152
310
98000000040000000C0000000E000000120000000C00000016000000000000C20C00000014000000010000006C0000000700000004000000418C6FD5A8C179C0016C2B441B8C46400000000000000000EA74E1BBF5BA79C0003CF810E828474000000000000000003CEAEDD5A97E79C001D491AA81D2424000000000000000
310
00C55D76EF5C8579C00108C5DDB43542400000000000000000
100
AcDbWipeout
 90
        0
 10
-412.1037191731775
 20
36.41958210106532
 30
0.0
 11
9.900000000001455
 21
0.0
 31
0.0
 12
0.0
 22
9.900000000001455
 32
0.0
 13
1.0
 23
1.0
340
0
 70
     4
280
     1
281
    50
282
    50
283
     0
360
0
 71
     2
 91
        5
 14
-0.5000000000000071
 24
-0.376262626262057
 14
-0.4577044905996317
 24
-0.5
 14
-0.0770449102403887
 24
0.3762626262627911
 14
-0.1193404175185293
 24
0.4999999999999996
 14
-0.5000000000000071
 24
-0.376262626262057
290
     0
1001
Cadwork
1000
entity-cdw-id
1071
       42
1000
entity-cdw-type
1071
        2
1000
entity-name
1000
line_42
  0
LWPOLYLINE
  5
25B
330
1F
100
AcDbEntity
  8
Mst 1_1
 62
   137
370
     9
100
AcDbPolyline
 90
        5
 70
     0
 43
0.0
 38
2500.0
 10
-412.1037191731775
 20
45.09458210106095
 10
-411.6849936301138
 20
46.31958210106677
 10
-407.9164637845567
 20
37.64458210106386
 10
-408.3351893066104
 20
36.41958210106532
 10
-412.1037191731775
 20
45.09458210106095
1001
Cadwork
1000
entity-cdw-id
1071
       42
1000
entity-cdw-type
1071
        2
1000
entity-name
1000
line_42
  0
LINE
  5
25C
330
1F
100
AcDbEntity
  8
Mst 1_1
 62
   137
370
     9
100
AcDbLine
 10
-411.6849936301138
 20
46.31958210106677
 30
2500.0
 11
-408.3351893066104
 21
36.41958210106532
 31
2500.0
1001
Cadwork
1000
entity-cdw-id
1071
       43
1000
entity-cdw-type
1071
        2
1000
entity-name
1000
line_43
  0
WIPEOUT
  5
25D
330
1F
100
AcDbEntity
  8
Mst 1_1
160
               152
310
98000000040000000C0000000E000000120000000C00000016000000000000C20C00000014000000010000006C0000000700000004000000E02F9C3C775679C0016C2B441B8C4640000000000000000089180E23C44F79C0003CF810E82847400000000000000000F1BB173D781379C001D491AA81D2424000000000000000
310
004FD3A5562B1A79C00108C5DDB43542400000000000000000
100
AcDbWipeout
 90
        0
 10
-405.4041105366759
 20
36.41958210106532
 30
0.0
 11
9.900000000001455
 21
0.0
 31
0.0
 12
0.0
 22
9.900000000001455
 32
0.0
 13
1.0
 23
1.0
340
0
 70
     4
280
     1
281
    50
282
    50
283
     0
360
0
 71
     2
 91
        5
 14
-0.5
 24
-0.376262626262057
 14
-0.4577044905996246
 24
-0.5
 14
-0.07704490917925
 24
0.3762626262627911
 14
-0.1193404185796609
 24
0.4999999999999996
 14
-0.5
 24
-0.376262626262057
290
     0
1001
Cadwork
1000
entity-cdw-id
1071
       44
1000
entity-cdw-type
1071
        2
1000
entity-name
1000
line_44
  0
LWPOLYLINE
  5
25E
330
1F
100
AcDbEntity
  8
Mst 1_1
 62
   137
370
     9
100
AcDbPolyline
 90
        5
 70
     0
 43
0.0
 38
2500.0
 10
-405.4041105366759
 20
45.09458210106095
 10
-404.9853849936122
 20
46.31958210106677
 10
-401.2168551375499
 20
37.64458210106386
 10
-401.635580680614
 20
36.41958210106532
 10
-405.4041105366759
 20
45.09458210106095
1001
Cadwork
1000
entity-cdw-id
1071
       44
1000
entity-cdw-type
1071
        2
1000
entity-name
1000
line_44
  0
LINE
  5
25F
330
1F
100
AcDbEntity
  8
Mst 1_1
 62
   137
370
     9
100
AcDbLine
 10
-404.9853849936122
 20
46.31958210106677
 30
2500.0
 11
-401.635580680614
 21
36.41958210106532
 31
2500.0
1001
Cadwork
1000
entity-cdw-id
1071
       45
1000
entity-cdw-type
1071
        2
1000
entity-name
1000
line_45
  0
WIPEOUT
  5
260
330
1F
100
AcDbEntity
  8
Mst 1_1
160
               152
310
98000000040000000C0000000E000000120000000C00000016000000000000C20C00000014000000010000006C000000070000000400000080D3C8A345EB78C0016C2B441B8C464000000000000000002ABC3A8A92E478C0003CF810E828474000000000000000009CF642A446A878C001D491AA81D2424000000000000000
310
00F90DD1BDF9AE78C00108C5DDB43542400000000000000000
100
AcDbWipeout
 90
        0
 10
-398.7045019001744
 20
36.41958210106532
 30
0.0
 11
9.900000000001455
 21
0.0
 31
0.0
 12
0.0
 22
9.900000000001455
 32
0.0
 13
1.0
 23
1.0
340
0
 70
     4
280
     1
281
    50
282
    50
283
     0
360
0
 71
     2
 91
        5
 14
-0.5
 24
-0.376262626262057
 14
-0.4577044905996317
 24
-0.5
 14
-0.0770449086486806
 24
0.3762626262627911
 14
-0.1193404180490916
 24
0.4999999999999996
 14
-0.5
 24
-0.376262626262057
290
     0
1001
Cadwork
1000
entity-cdw-id
1071
       46
1000
entity-cdw-type
1071
        2
1000
entity-name
1000
line_46
  0
LWPOLYLINE
  5
261
330
1F
100
AcDbEntity
  8
Mst 1_1
 62
   137
370
     9
100
AcDbPolyline
 90
        5
 70
     0
 43
0.0
 38
2500.0
 10
-398.7045019001744
 20
45.09458210106095
 10
-398.2857763571106
 20
46.31958210106677
 10
-394.5172464957956
 20
37.64458210106386
 10
-394.9359720388598
 20
36.41958210106532
 10
-398.7045019001744
 20
45.09458210106095
1001
Cadwork
1000
entity-cdw-id
1071
       46
1000
entity-cdw-type
1071
        2
1000
entity-name
1000
line_46
  0
LINE
  5
262
330
1F
100
AcDbEntity
  8
Mst 1_1
 62
   137
370
     9
100
AcDbLine
 10
-398.2857763571106
 20
46.31958210106677
 30
2500.0
 11
-394.9359720388598
 21
36.41958210106532
 31
2500.0
1001
Cadwork
1000
entity-cdw-id
1071
       47
1000
entity-cdw-type
1071
        2
1000
entity-name
1000
line_47
  0
WIPEOUT
  5
263
330
1F
100
AcDbEntity
  8
Mst 1_1
160
               152
310
98000000040000000C0000000E000000120000000C00000016000000000000C20C00000014000000010000006C00000007000000040000002A0EF40A148078C0006C2B441B8C4640000000000000000030D4318B945E78C000A05E774EAF44400000000000000000FEAA8CD0C37078C0006C2B441B8C464000000000000000
310
008A0567F1607978C0003CF810E82847400000000000000000
100
AcDbWipeout
 90
        0
 10
-392.0048932584201
 20
41.36958210106241
 30
0.0
 11
4.950000000004366
 21
0.0
 31
0.0
 12
0.0
 22
4.950000000004366
 32
0.0
 13
1.0
 23
1.0
340
0
 70
     4
280
     1
281
    50
282
    50
283
     0
360
0
 71
     2
 91
        5
 14
-0.5
 24
-0.2525252525242951
 14
-0.0770449091795342
 24
0.5
 14
-0.3066491013621118
 24
-0.2525252525242951
 14
-0.4154089819951565
 24
-0.5
 14
-0.5
 24
-0.2525252525242951
290
     0
1001
Cadwork
1000
entity-cdw-id
1071
       48
1000
entity-cdw-type
1071
        2
1000
entity-name
1000
line_48
  0
LWPOLYLINE
  5
264
330
1F
100
AcDbEntity
  8
Mst 1_1
 62
   137
370
     9
100
AcDbPolyline
 90
        5
 70
     0
 43
0.0
 38
2500.0
 10
-392.0048932584201
 20
45.09458210106095
 10
-389.911265558857
 20
41.36958210106241
 10
-391.0478063101617
 20
45.09458210106095
 10
-391.5861677192958
 20
46.31958210106677
 10
-392.0048932584201
 20
45.09458210106095
1001
Cadwork
1000
entity-cdw-id
1071
       48
1000
entity-cdw-type
1071
        2
1000
entity-name
1000
line_48
  0
LINE
  5
265
330
1F
100
AcDbEntity
  8
Mst 1_1
 62
   137
370
     9
100
AcDbLine
 10
-391.5861677192958
 20
46.31958210106677
 30
2500.0
 11
-389.911265558857
 21
41.36958210106241
 31
2500.0
1001
Cadwork
1000
entity-cdw-id
1071
       49
1000
entity-cdw-type
1071
        2
1000
entity-name
1000
line_49
  0
3DFACE
  5
266
330
1F
100
AcDbEntity
  8
Mst 1_1
 62
   137
370
     9
100
AcDbFace
 10
-482.644596687807
 20
45.49458210106241
 30
2500.0
 11
-452.644596687807
 21
45.49458210106241
 31
2500.0
 12
-452.644596687807
 22
37.24458210106241
 32
2500.0
 13
-482.644596687807
 23
37.24458210106241
 33
2500.0
1001
Cadwork
1000
entity-cdw-id
1071
       51
1000
entity-cdw-type
1071
        2
1000
entity-name
1000
line_51
  0
LWPOLYLINE
  5
267
330
1F
100
AcDbEntity
  8
Mst 1_1
 62
   137
370
     9
100
AcDbPolyline
 90
        9
 70
     0
 43
0.0
 38
2500.0
 39
-2500.0
 10
-481.769596687807
 20
46.36958210106241
 10
-453.519596687807
 20
46.36958210106241
 10
-452.644596687807
 20
45.49458210106241
 10
-452.644596687807
 20
37.24458210106241
 10
-453.5195966878071
 20
36.36958210106241
 10
-481.769596687807
 20
36.36958210106241
 10
-482.644596687807
 20
37.24458210106241
 10
-482.644596687807
 20
45.49458210106241
 10
-481.769596687807
 20
46.36958210106241
1001
Cadwork
1000
entity-cdw-id
1071
       52
1000
entity-cdw-type
1071
        2
1000
entity-name
1000
line_52
  0
LWPOLYLINE
  5
268
330
1F
100
AcDbEntity
  8
Mst 1_1
 62
   137
370
     9
100
AcDbPolyline
 90
       10
 70
     0
 43
0.0
 38
2500.0
 39
-2500.0
 10
-481.769596687807
 20
46.36958210106241
 10
-453.519596687807
 20
46.36958210106241
 10
-452.644596687807
 20
45.49458210106241
 10
-452.644596687807
 20
37.24458210106241
 10
-453.5195966878071
 20
36.36958210106241
 10
-457.7130486728717
 20
36.36958210106241
 10
-481.769596687807
 20
36.36958210106241
 10
-482.644596687807
 20
37.24458210106241
 10
-482.644596687807
 20
45.49458210106241
 10
-481.769596687807
 20
46.36958210106241
1001
Cadwork
1000
entity-cdw-id
1071
       53
1000
entity-cdw-type
1071
        2
1000
entity-name
1000
line_53
  0
3DFACE
  5
269
330
1F
100
AcDbEntity
  8
Mst 1_1
 62
   137
370
     9
100
AcDbFace
 10
-492.644596687807
 20
44.86958210106241
 30
2500.0
 11
-482.644596687807
 21
44.86958210106241
 31
2500.0
 12
-482.644596687807
 22
37.86958210106241
 32
2500.0
 13
-492.644596687807
 23
37.86958210106241
 33
2500.0
1001
Cadwork
1000
entity-cdw-id
1071
       56
1000
entity-cdw-type
1071
        2
1000
entity-name
1000
line_56
  0
LWPOLYLINE
  5
26B
330
1F
100
AcDbEntity
  8
Mst 1_1
  6
CADWORK_8
 62
     1
370
    15
100
AcDbPolyline
 90
        2
 70
     0
 43
0.0
 10
-492.644596687807
 20
41.36958210106241
 10
-387.644596687807
 20
41.36958210106241
1001
Cadwork
1000
entity-cdw-id
1071
       57
1000
entity-cdw-type
1071
        2
1000
entity-name
1000
line_57
  0
LINE
  5
26C
330
1F
100
AcDbEntity
  8
Mst 1_1
 62
   137
370
     9
100
AcDbLine
 10
-492.3221201986148
 20
41.36958210106241
 30
0.0
 11
-482.644596687807
 21
41.36958210106241
 31
0.0
1001
Cadwork
1000
entity-cdw-id
1071
       58
1000
entity-cdw-type
1071
        2
1000
entity-name
1000
line_58
  0
LWPOLYLINE
  5
26D
330
1F
100
AcDbEntity
  8
Mst 1_1
 62
   137
370
     9
100
AcDbPolyline
 90
       16
 70
     0
 43
0.0
 10
-492.3221201986148
 20
41.36958210106241
 10
-492.3623733359355
 20
41.25708497663157
 10
-492.4000119256708
 20
41.14374044090197
 10
-492.4350170278171
 20
41.02960563197855
 10
-492.4673709414992
 20
40.91473796882498
 10
-492.4970574189246
 20
40.7991954150441
 10
-492.5240615066402
 20
40.68303605879321
 10
-492.5483695967876
 20
40.56631849500818
 10
-492.5699694418115
 20
40.44910150793118
 10
-492.5888501685478
 20
40.33144410301544
 10
-492.6050022483594
 20
40.2134055703475
 10
-492.6184175632783
 20
40.09504535709528
 10
-492.6290893436681
 20
39.97642306690538
 10
-492.6370122229988
 20
39.85759858628211
 10
-492.6421822055253
 20
39.73863163861943
 10
-492.644596687807
 20
39.61958210106241
1001
Cadwork
1000
entity-cdw-id
1071
       59
1000
entity-cdw-type
1071
        2
1000
entity-name
1000
line_59
  0
LWPOLYLINE
  5
26E
330
1F
100
AcDbEntity
  8
Mst 1_1
 62
   137
370
     9
100
AcDbPolyline
 90
       16
 70
     0
 43
0.0
 10
-492.644596687807
 20
39.61958210106241
 10
-492.6419869494291
 20
39.5005478055907
 10
-492.6366500170877
 20
39.38159897905845
 10
-492.6285885262038
 20
39.26279454322744
 10
-492.6178064544018
 20
39.14419301294151
 10
-492.6043091224576
 20
39.02585294273414
 10
-492.5881031958337
 20
38.90783286491556
 10
-492.5691966706391
 20
38.79019071917001
 10
-492.5475988808439
 20
38.67298480819903
 10
-492.5233204762342
 20
38.55627297336994
 10
-492.4963734613097
 20
38.4401127878447
 10
-492.4667711154517
 20
38.32456174996663
 10
-492.4345280670145
 20
38.20967645968259
 10
-492.399660201422
 20
38.09551382978808
 10
-492.3621847573825
 20
37.98213051732817
 10
-492.3221201986148
 20
37.86958210106241
1001
Cadwork
1000
entity-cdw-id
1071
       60
1000
entity-cdw-type
1071
        2
1000
entity-name
1000
line_60
  0
LWPOLYLINE
  5
26F
330
1F
100
AcDbEntity
  8
Mst 1_1
 62
   137
370
     9
100
AcDbPolyline
 90
       16
 70
     0
 43
0.0
 10
-492.3221201986148
 20
41.36958210106241
 10
-492.3623733359355
 20
41.48207922549324
 10
-492.4000119256708
 20
41.59542376122284
 10
-492.435017027817
 20
41.70955857014626
 10
-492.4673709414992
 20
41.82442623329983
 10
-492.4970574189246
 20
41.93996878708071
 10
-492.5240615066402
 20
42.0561281433316
 10
-492.5483695967876
 20
42.17284570711663
 10
-492.5699694418115
 20
42.29006269419362
 10
-492.5888501685477
 20
42.40772009910938
 10
-492.6050022483594
 20
42.52575863177731
 10
-492.6184175632783
 20
42.64411884502953
 10
-492.6290893436681
 20
42.76274113521943
 10
-492.6370122229988
 20
42.8815656158427
 10
-492.6421822055253
 20
43.00053256350537
 10
-492.644596687807
 20
43.11958210106241
1001
Cadwork
1000
entity-cdw-id
1071
       61
1000
entity-cdw-type
1071
        2
1000
entity-name
1000
line_61
  0
LWPOLYLINE
  5
270
330
1F
100
AcDbEntity
  8
Mst 1_1
 62
   137
370
     9
100
AcDbPolyline
 90
       16
 70
     0
 43
0.0
 10
-492.644596687807
 20
43.11958210106241
 10
-492.6419869494247
 20
43.23861639653376
 10
-492.6366500170796
 20
43.35756522306558
 10
-492.6285885261926
 20
43.47636965889614
 10
-492.6178064543882
 20
43.59497118918159
 10
-492.604309122442
 20
43.71331125938849
 10
-492.588103195817
 20
43.83133133720666
 10
-492.5691966706219
 20
43.94897348295185
 10
-492.5475988808267
 20
44.06617939392257
 10
-492.5233204762176
 20
44.18289122875154
 10
-492.4963734612944
 20
44.2990514142768
 10
-492.4667711154383
 20
44.41460245215505
 10
-492.4345280670036
 20
44.52948774243951
 10
-492.3996602014142
 20
44.64365037233465
 10
-492.3621847573783
 20
44.75703368479546
 10
-492.3221201986148
 20
44.86958210106241
1001
Cadwork
1000
entity-cdw-id
1071
       62
1000
entity-cdw-type
1071
        2
1000
entity-name
1000
line_62
  0
LWPOLYLINE
  5
271
330
1F
100
AcDbEntity
  8
Mst 1_1
 62
   137
370
     9
100
AcDbPolyline
 90
        7
 70
     0
 43
0.0
 38
100.0
 10
-584.9925795120307
 20
44.86958210106241
 10
-587.0133054541943
 20
41.36958210106242
 10
-584.9925795120307
 20
37.86958210106242
 10
-580.9511276277033
 20
37.86958210106241
 10
-578.9304016855397
 20
41.36958210106241
 10
-580.9511276277033
 20
44.86958210106241
 10
-584.9925795120307
 20
44.86958210106241
1001
Cadwork
1000
entity-cdw-id
1071
       63
1000
entity-cdw-type
1071
        2
1000
entity-name
1000
line_63
  0
CIRCLE
  5
272
330
1F
100
AcDbEntity
  8
Mst 1_1
 62
   137
370
     9
100
AcDbCircle
 39
-100.0
 10
-582.9718535698669
 20
41.36958210106242
 30
100.0
 40
4.124999999999993
1001
Cadwork
1000
entity-cdw-id
1071
       64
1000
entity-cdw-type
1071
        2
1000
entity-name
1000
line_64
  0
CIRCLE
  5
273
330
1F
100
AcDbEntity
  8
Mst 1_1
 62
   137
370
     9
100
AcDbCircle
 39
-100.0
 10
-582.9718535698669
 20
41.36958210106242
 30
100.0
 40
4.999999999999993
1001
Cadwork
1000
entity-cdw-id
1071
       65
1000
entity-cdw-type
1071
        2
1000
entity-name
1000
line_65
  0
LWPOLYLINE
  5
275
330
1F
100
AcDbEntity
  8
Mst 1_1
  6
CADWORK_5
 62
     7
370
    25
100
AcDbPolyline
 90
        2
 70
     0
 43
0.0
 10
-452.644596687807
 20
52.13208210106313
 10
-452.644596687807
 20
30.60708210106168
1001
Cadwork
1000
entity-cdw-id
1071
       66
1000
entity-cdw-type
1071
        2
1000
entity-name
1000
line_66
  0
MTEXT
  5
276
330
1F
100
AcDbEntity
  8
Mst 1_1
 62
     7
100
AcDbMText
 10
-614.3253970352459
 20
209.9574401184145
 30
0.0
 40
20.0
 41
225.4017938929582
 46
0.0
 71
     1
 72
     1
  1
{\fTahoma|b0|i0;\W0.800000;\H20.000000;\C7;Betonschrauben}\P{\fTahoma|b0|i0;\W0.800000;\H20.000000;\C7;PROFIX PBS-ST-R}\P{\fTahoma|b0|i0;\W0.800000;\H20.000000;\C7;110.428.08xxx}
 73
     1
 44
1.49999970000006
1001
Cadwork
1000
entity-name
1000
par_2
  0
TEXT
  5
278
330
1F
100
AcDbEntity
  8
Mst 1_1
 62
     7
100
AcDbText
 10
-382.644596687807
 20
61.36958210106241
 30
0.0
 40
5.0
  1
105
 50
90.0
 41
0.8
  7
arial-
100
AcDbText
1001
Cadwork
1000
entity-cdw-type
1071
        4
1000
entity-cdw-id
1071
        1
1000
entity-cdw-id
1071
        1
1000
entity-cdw-type
1071
        4
1000
entity-name
1000
text_1
  0
TEXT
  5
279
330
1F
100
AcDbEntity
  8
Mst 1_1
 62
     7
100
AcDbText
 10
-568.330790050755
 20
38.86958210106241
 30
0.0
 40
5.0
  1
PBS-ST-R 8/M10x20x105
 41
0.8
  7
arial-
100
AcDbText
1001
Cadwork
1000
entity-cdw-type
1071
        4
1000
entity-cdw-id
1071
        2
1000
entity-cdw-id
1071
        2
1000
entity-cdw-type
1071
        4
1000
entity-name
1000
text_2
  0
TEXT
  5
27A
330
1F
100
AcDbEntity
  8
Mst 1_1
 62
     7
100
AcDbText
 10
-609.6742450318789
 20
38.86958210106241
 30
0.0
 40
5.0
  1
SW7
 41
0.8
  7
arial-
100
AcDbText
1001
Cadwork
1000
entity-cdw-type
1071
        4
1000
entity-cdw-id
1071
        3
1000
entity-cdw-id
1071
        3
1000
entity-cdw-type
1071
        4
1000
entity-name
1000
text_3
  0
VIEWPORT
  5
223
330
21D
100
AcDbEntity
 67
     1
  8
0
100
AcDbViewport
 10
169.539199392016
 20
207.914222437529
 30
0.0
 40
358.7449459135059
 41
439.9464946778113
 68
     1
 69
     1
 12
128.5
 22
97.5
 13
0.0
 23
0.0
 14
10.0
 24
10.0
 15
10.0
 25
10.0
 16
0.0
 26
0.0
 36
1.0
 17
0.0
 27
0.0
 37
0.0
 42
50.0
 43
0.0
 44
0.0
 45
222.18
 50
0.0
 51
0.0
 72
   100
 90
   557152
  1

281
     0
 71
     1
 74
     0
110
0.0
120
0.0
130
0.0
111
1.0
121
0.0
131
0.0
112
0.0
122
1.0
132
0.0
 79
     0
146
0.0
170
     0
 61
     5
348
2F
292
     1
282
     1
141
0.0
142
0.0
 63
   256
361
224
  0
VIEWPORT
  5
225
330
21D
100
AcDbEntity
 67
     1
  8
0
 60
     1
100
AcDbViewport
 10
169.539199392016
 20
207.914222437529
 30
0.0
 40
339.0783987840321
 41
415.8284448750579
 68
     2
 69
     2
 12
-451.559468338391
 22
19.42919341904781
 13
0.0
 23
0.0
 14
10.0
 24
10.0
 15
10.0
 25
10.0
 16
0.0
 26
0.0
 36
1.0
 17
0.0
 27
0.0
 37
0.0
 42
50.0
 43
0.0
 44
0.0
 45
415.8284448750579
 50
0.0
 51
0.0
 72
   100
 90
   557152
  1

281
     0
 71
     1
 74
     0
110
0.0
120
0.0
130
0.0
111
1.0
121
0.0
131
0.0
112
0.0
122
1.0
132
0.0
 79
     0
146
0.0
170
     0
 61
     5
348
2F
292
     1
282
     1
141
0.0
142
0.0
 63
   256
  0
ENDSEC
  0
SECTION
  2
OBJECTS
  0
DICTIONARY
  5
C
330
0
100
AcDbDictionary
281
     1
  3
ACAD_DETAILVIEWSTYLE
350
282
  3
ACAD_GROUP
350
D
  3
ACAD_IMAGE_VARS
350
6F
  3
ACAD_LAYOUT
350
1A
  3
ACAD_MATERIAL
350
43
  3
ACAD_MLEADERSTYLE
350
6B
  3
ACAD_MLINESTYLE
350
17
  3
ACAD_PLOTSETTINGS
350
19
  3
ACAD_PLOTSTYLENAME
350
E
  3
ACAD_SCALELIST
350
47
  3
ACAD_SECTIONVIEWSTYLE
350
283
  3
ACAD_TABLESTYLE
350
69
  3
ACAD_VISUALSTYLE
350
2A
  3
ACDB_RECOMPOSE_DATA
350
27F
  3
AcDbVariableDictionary
350
27B
  0
SUN
  5
6D
330
29
100
AcDbSun
 90
        1
290
     0
 63
     7
421
 16777215
 40
1.0
291
     1
 91
  2455826
 92
 54000000
292
     0
 70
     2
 71
   256
280
     1
  0
SUN
  5
224
330
223
100
AcDbSun
 90
        1
290
     0
 63
     7
421
 16777215
 40
1.0
291
     1
 91
  2455826
 92
 54000000
292
     0
 70
     2
 71
   256
280
     1
  0
DICTIONARY
  5
282
102
{ACAD_REACTORS
330
C
102
}
330
C
100
AcDbDictionary
281
     1
  0
DICTIONARY
  5
D
102
{ACAD_REACTORS
330
C
102
}
330
C
100
AcDbDictionary
281
     1
  0
RASTERVARIABLES
  5
6F
102
{ACAD_REACTORS
330
C
102
}
330
C
100
AcDbRasterVariables
 90
        0
 70
     0
 71
     1
 72
     1
  0
DICTIONARY
  5
1A
102
{ACAD_REACTORS
330
C
102
}
330
C
100
AcDbDictionary
281
     1
  3
CompleteLayout
350
1E
  3
Model
350
22
  3
PlotFrame_1
350
21E
  0
DICTIONARY
  5
43
102
{ACAD_REACTORS
330
C
102
}
330
C
100
AcDbDictionary
281
     1
  3
ByBlock
350
45
  3
ByLayer
350
44
  3
Global
350
46
  0
DICTIONARY
  5
6B
102
{ACAD_REACTORS
330
C
102
}
330
C
100
AcDbDictionary
281
     1
  3
Standard
350
6C
  0
DICTIONARY
  5
17
102
{ACAD_REACTORS
330
C
102
}
330
C
100
AcDbDictionary
281
     1
  3
Standard
350
18
  0
DICTIONARY
  5
19
102
{ACAD_REACTORS
330
C
102
}
330
C
100
AcDbDictionary
281
     1
  3
PlotSettings_
350
221
  0
ACDBDICTIONARYWDFLT
  5
E
102
{ACAD_REACTORS
330
C
102
}
330
C
100
AcDbDictionary
281
     1
  3
Normal
350
F
100
AcDbDictionaryWithDefault
340
F
  0
DICTIONARY
  5
47
102
{ACAD_REACTORS
330
C
102
}
330
C
100
AcDbDictionary
281
     1
  3
A0
350
48
  3
A1
350
49
  3
A2
350
4A
  3
A3
350
4B
  3
A4
350
4C
  3
A5
350
4D
  3
A6
350
4E
  3
A7
350
4F
  3
A8
350
50
  3
A9
350
51
  3
B0
350
52
  3
B1
350
53
  3
B2
350
54
  3
B3
350
55
  3
B4
350
56
  3
B5
350
57
  3
B6
350
58
  3
B7
350
59
  3
B8
350
5A
  3
B9
350
5B
  3
C0
350
5C
  3
C1
350
5D
  3
C2
350
5E
  3
C3
350
5F
  3
C4
350
60
  3
C5
350
61
  3
C6
350
62
  3
C7
350
63
  3
C8
350
64
  3
C9
350
65
  3
D0
350
66
  3
D1
350
67
  3
D2
350
68
  0
DICTIONARY
  5
283
102
{ACAD_REACTORS
330
C
102
}
330
C
100
AcDbDictionary
281
     1
  0
DICTIONARY
  5
69
102
{ACAD_REACTORS
330
C
102
}
330
C
100
AcDbDictionary
281
     1
  3
Standard
350
6A
  0
DICTIONARY
  5
2A
102
{ACAD_REACTORS
330
C
102
}
330
C
100
AcDbDictionary
281
     1
  3
2dWireframe
350
2F
  3
Basic
350
32
  3
Brighten
350
36
  3
ColorChange
350
3A
  3
Conceptual
350
34
  3
Dim
350
35
  3
EdgeColorOff
350
3D
  3
Facepattern
350
39
  3
Flat
350
2B
  3
FlatWithEdges
350
2C
  3
Gouraud
350
2D
  3
GouraudWithEdges
350
2E
  3
Hidden
350
31
  3
JitterOff
350
3B
  3
Linepattern
350
38
  3
OverhangOff
350
3C
  3
Realistic
350
33
  3
Shaded
350
42
  3
Shaded with edges
350
41
  3
Shades of Gray
350
3E
  3
Sketchy
350
3F
  3
Thicken
350
37
  3
Wireframe
350
30
  3
X-Ray
350
40
  0
XRECORD
  5
27F
102
{ACAD_REACTORS
330
C
102
}
330
C
100
AcDbXrecord
280
     1
 90
        1
330
6A
  0
DICTIONARY
  5
27B
102
{ACAD_REACTORS
330
C
102
}
330
C
100
AcDbDictionary
281
     1
  3
CANNOSCALE
350
27C
  3
CMLEADERSTYLE
350
281
  3
CTABLESTYLE
350
280
  3
WIPEOUTFRAME
350
284
  0
LAYOUT
  5
1E
102
{ACAD_REACTORS
330
1A
102
}
330
1A
100
AcDbPlotSettings
  1

  2
none_device
  4

  6

 40
0.0
 41
0.0
 42
0.0
 43
0.0
 44
0.0
 45
0.0
 46
0.0
 47
0.0
 48
0.0
 49
0.0
140
0.0
141
0.0
142
1.0
143
1.0
 70
   688
 72
     0
 73
     0
 74
     5
  7

 75
    16
 76
     0
 77
     2
 78
   300
147
1.0
148
0.0
149
0.0
100
AcDbLayout
  1
CompleteLayout
 70
     1
 71
     1
 10
0.0
 20
0.0
 11
12.0
 21
9.0
 12
0.0
 22
0.0
 32
0.0
 14
1.000000000000000E+20
 24
1.000000000000000E+20
 34
1.000000000000000E+20
 15
-1.000000000000000E+20
 25
-1.000000000000000E+20
 35
-1.000000000000000E+20
146
0.0
 13
0.0
 23
0.0
 33
0.0
 16
1.0
 26
0.0
 36
0.0
 17
0.0
 27
1.0
 37
0.0
 76
     0
330
1B
  0
LAYOUT
  5
22
102
{ACAD_REACTORS
330
1A
102
}
330
1A
100
AcDbPlotSettings
  1

  2
none_device
  4
Letter_(8.50_x_11.00_Inches)
  6

 40
6.35
 41
6.35
 42
6.35000508
 43
6.35000508
 44
215.9
 45
279.4
 46
0.0
 47
0.0
 48
0.0
 49
0.0
140
0.0
141
0.0
142
1.0
143
1.0
 70
  1712
 72
     0
 73
     0
 74
     0
  7

 75
     0
 76
     0
 77
     2
 78
   300
147
1.0
148
0.0
149
0.0
100
AcDbLayout
  1
Model
 70
     1
 71
     0
 10
0.0
 20
0.0
 11
12.0
 21
9.0
 12
0.0
 22
0.0
 32
0.0
 14
1.000000000000000E+20
 24
1.000000000000000E+20
 34
1.000000000000000E+20
 15
-1.000000000000000E+20
 25
-1.000000000000000E+20
 35
-1.000000000000000E+20
146
0.0
 13
0.0
 23
0.0
 33
0.0
 16
1.0
 26
0.0
 36
0.0
 17
0.0
 27
1.0
 37
0.0
 76
     0
330
1F
331
29
  0
LAYOUT
  5
21E
102
{ACAD_REACTORS
330
1A
102
}
330
1A
100
AcDbPlotSettings
  1
PlotSettings_
  2
Custom Device
  4
Custom_339.078399x415.828445_0.000000_0.000000_0.000000_0.000000
  6

 40
0.0
 41
0.0
 42
0.0
 43
0.0
 44
339.0783987840321
 45
415.8284448750579
 46
0.0
 47
0.0
 48
0.0
 49
0.0
140
0.0
141
0.0
142
1.0
143
1.0
 70
   752
 72
     1
 73
     0
 74
     5
  7

 75
    16
 76
     0
 77
     2
 78
   300
147
1.0
148
0.0
149
0.0
100
AcDbLayout
  1
PlotFrame_1
 70
     0
 71
     2
 10
-20.0
 20
-7.5
 11
277.0
 21
202.5
 12
0.0
 22
0.0
 32
0.0
 14
0.0
 24
0.0
 34
0.0
 15
0.0
 25
0.0
 35
0.0
146
0.0
 13
0.0
 23
0.0
 33
0.0
 16
1.0
 26
0.0
 36
0.0
 17
0.0
 27
1.0
 37
0.0
 76
     0
330
21D
331
223
1001
PLOTTRANSPARENCY
1071
        1
1000
layout-user-created
1070
     1
1000
layout-line-weight-scale
1042
1.0
  0
MATERIAL
  5
45
102
{ACAD_REACTORS
330
43
102
}
330
43
100
AcDbMaterial
  1
ByBlock
 72
     1
 94
      127
  0
MATERIAL
  5
44
102
{ACAD_REACTORS
330
43
102
}
330
43
100
AcDbMaterial
  1
ByLayer
 72
     1
 94
      127
  0
MATERIAL
  5
46
102
{ACAD_REACTORS
330
43
102
}
330
43
100
AcDbMaterial
  1
Global
 72
     1
 94
      127
  0
MLEADERSTYLE
  5
6C
102
{ACAD_REACTORS
330
6B
102
}
330
6B
100
AcDbMLeaderStyle
179
     2
170
     2
171
     1
172
     0
 90
        2
 40
0.0
 41
0.0
173
     1
 91
-1056964608
340
14
 92
       -2
290
     1
 42
0.09
291
     1
 43
0.36
  3
Standard
341
0
 44
0.18
300

342
11
174
     1
178
     6
175
     1
176
     0
 93
-1056964608
 45
0.18
292
     0
297
     0
 46
0.18
343
0
 94
-1056964608
 47
1.0
 49
1.0
140
1.0
293
     1
141
0.0
294
     1
177
     0
142
1.0
295
     0
296
     0
143
0.125
271
     0
272
     9
273
     9
298
     0
  0
MLINESTYLE
  5
18
102
{ACAD_REACTORS
330
17
102
}
330
17
100
AcDbMlineStyle
  2
Standard
 70
     0
  3

 62
   256
 51
90.0
 52
90.0
 71
     2
 49
0.5
 62
   256
  6
BYLAYER
 49
-0.5
 62
   256
  6
BYLAYER
  0
PLOTSETTINGS
  5
221
102
{ACAD_REACTORS
330
19
102
}
330
19
100
AcDbPlotSettings
  1
PlotSettings_
  2
Custom Device
  4
Custom_339.078399x415.828445_0.000000_0.000000_0.000000_0.000000
  6

 40
0.0
 41
0.0
 42
0.0
 43
0.0
 44
339.0783987840321
 45
415.8284448750579
 46
0.0
 47
0.0
 48
0.0
 49
0.0
140
0.0
141
0.0
142
1.0
143
1.0
 70
   752
 72
     1
 73
     0
 74
     5
  7

 75
    16
 76
     0
 77
     2
 78
   300
147
1.0
148
0.0
149
0.0
1001
PLOTTRANSPARENCY
1071
        1
1000
layout-user-created
1070
     1
1000
layout-line-weight-scale
1042
1.0
  0
ACDBPLACEHOLDER
  5
F
102
{ACAD_REACTORS
330
E
102
}
330
E
  0
SCALE
  5
48
102
{ACAD_REACTORS
330
47
102
}
330
47
100
AcDbScale
 70
     0
300
1:1
140
1.0
141
1.0
290
     1
  0
SCALE
  5
49
102
{ACAD_REACTORS
330
47
102
}
330
47
100
AcDbScale
 70
     0
300
1:2
140
1.0
141
2.0
290
     0
  0
SCALE
  5
4A
102
{ACAD_REACTORS
330
47
102
}
330
47
100
AcDbScale
 70
     0
300
1:4
140
1.0
141
4.0
290
     0
  0
SCALE
  5
4B
102
{ACAD_REACTORS
330
47
102
}
330
47
100
AcDbScale
 70
     0
300
1:5
140
1.0
141
5.0
290
     0
  0
SCALE
  5
4C
102
{ACAD_REACTORS
330
47
102
}
330
47
100
AcDbScale
 70
     0
300
1:8
140
1.0
141
8.0
290
     0
  0
SCALE
  5
4D
102
{ACAD_REACTORS
330
47
102
}
330
47
100
AcDbScale
 70
     0
300
1:10
140
1.0
141
10.0
290
     0
  0
SCALE
  5
4E
102
{ACAD_REACTORS
330
47
102
}
330
47
100
AcDbScale
 70
     0
300
1:16
140
1.0
141
16.0
290
     0
  0
SCALE
  5
4F
102
{ACAD_REACTORS
330
47
102
}
330
47
100
AcDbScale
 70
     0
300
1:20
140
1.0
141
20.0
290
     0
  0
SCALE
  5
50
102
{ACAD_REACTORS
330
47
102
}
330
47
100
AcDbScale
 70
     0
300
1:30
140
1.0
141
30.0
290
     0
  0
SCALE
  5
51
102
{ACAD_REACTORS
330
47
102
}
330
47
100
AcDbScale
 70
     0
300
1:40
140
1.0
141
40.0
290
     0
  0
SCALE
  5
52
102
{ACAD_REACTORS
330
47
102
}
330
47
100
AcDbScale
 70
     0
300
1:50
140
1.0
141
50.0
290
     0
  0
SCALE
  5
53
102
{ACAD_REACTORS
330
47
102
}
330
47
100
AcDbScale
 70
     0
300
1:100
140
1.0
141
100.0
290
     0
  0
SCALE
  5
54
102
{ACAD_REACTORS
330
47
102
}
330
47
100
AcDbScale
 70
     0
300
2:1
140
2.0
141
1.0
290
     0
  0
SCALE
  5
55
102
{ACAD_REACTORS
330
47
102
}
330
47
100
AcDbScale
 70
     0
300
4:1
140
4.0
141
1.0
290
     0
  0
SCALE
  5
56
102
{ACAD_REACTORS
330
47
102
}
330
47
100
AcDbScale
 70
     0
300
8:1
140
8.0
141
1.0
290
     0
  0
SCALE
  5
57
102
{ACAD_REACTORS
330
47
102
}
330
47
100
AcDbScale
 70
     0
300
10:1
140
10.0
141
1.0
290
     0
  0
SCALE
  5
58
102
{ACAD_REACTORS
330
47
102
}
330
47
100
AcDbScale
 70
     0
300
100:1
140
100.0
141
1.0
290
     0
  0
SCALE
  5
59
102
{ACAD_REACTORS
330
47
102
}
330
47
100
AcDbScale
 70
     0
300
1/128" = 1'-0"
140
0.0078125
141
12.0
290
     0
  0
SCALE
  5
5A
102
{ACAD_REACTORS
330
47
102
}
330
47
100
AcDbScale
 70
     0
300
1/64" = 1'-0"
140
0.015625
141
12.0
290
     0
  0
SCALE
  5
5B
102
{ACAD_REACTORS
330
47
102
}
330
47
100
AcDbScale
 70
     0
300
1/32" = 1'-0"
140
0.03125
141
12.0
290
     0
  0
SCALE
  5
5C
102
{ACAD_REACTORS
330
47
102
}
330
47
100
AcDbScale
 70
     0
300
1/16" = 1'-0"
140
0.0625
141
12.0
290
     0
  0
SCALE
  5
5D
102
{ACAD_REACTORS
330
47
102
}
330
47
100
AcDbScale
 70
     0
300
3/32" = 1'-0"
140
0.09375
141
12.0
290
     0
  0
SCALE
  5
5E
102
{ACAD_REACTORS
330
47
102
}
330
47
100
AcDbScale
 70
     0
300
1/8" = 1'-0"
140
0.125
141
12.0
290
     0
  0
SCALE
  5
5F
102
{ACAD_REACTORS
330
47
102
}
330
47
100
AcDbScale
 70
     0
300
3/16" = 1'-0"
140
0.1875
141
12.0
290
     0
  0
SCALE
  5
60
102
{ACAD_REACTORS
330
47
102
}
330
47
100
AcDbScale
 70
     0
300
1/4" = 1'-0"
140
0.25
141
12.0
290
     0
  0
SCALE
  5
61
102
{ACAD_REACTORS
330
47
102
}
330
47
100
AcDbScale
 70
     0
300
3/8" = 1'-0"
140
0.375
141
12.0
290
     0
  0
SCALE
  5
62
102
{ACAD_REACTORS
330
47
102
}
330
47
100
AcDbScale
 70
     0
300
1/2" = 1'-0"
140
0.5
141
12.0
290
     0
  0
SCALE
  5
63
102
{ACAD_REACTORS
330
47
102
}
330
47
100
AcDbScale
 70
     0
300
3/4" = 1'-0"
140
0.75
141
12.0
290
     0
  0
SCALE
  5
64
102
{ACAD_REACTORS
330
47
102
}
330
47
100
AcDbScale
 70
     0
300
1" = 1'-0"
140
1.0
141
12.0
290
     0
  0
SCALE
  5
65
102
{ACAD_REACTORS
330
47
102
}
330
47
100
AcDbScale
 70
     0
300
1-1/2" = 1'-0"
140
1.5
141
12.0
290
     0
  0
SCALE
  5
66
102
{ACAD_REACTORS
330
47
102
}
330
47
100
AcDbScale
 70
     0
300
3" = 1'-0"
140
3.0
141
12.0
290
     0
  0
SCALE
  5
67
102
{ACAD_REACTORS
330
47
102
}
330
47
100
AcDbScale
 70
     0
300
6" = 1'-0"
140
6.0
141
12.0
290
     0
  0
SCALE
  5
68
102
{ACAD_REACTORS
330
47
102
}
330
47
100
AcDbScale
 70
     0
300
1'-0" = 1'-0"
140
12.0
141
12.0
290
     0
  0
TABLESTYLE
  5
6A
102
{ACAD_REACTORS
330
69
102
}
102
{ACAD_XDICTIONARY
360
27D
102
}
330
69
100
AcDbTableStyle
  3
Standard
 70
     0
 71
     0
 40
0.06
 41
0.06
280
     0
281
     0
  7
Standard
140
0.18
170
     2
 62
     0
 63
   257
283
     0
 90
        4
 91
        0
  1

274
    -2
284
     1
 64
     0
275
    -2
285
     1
 65
     0
276
    -2
286
     1
 66
     0
277
    -2
287
     1
 67
     0
278
    -2
288
     1
 68
     0
279
    -2
289
     1
 69
     0
  7
Standard
140
0.25
170
     5
 62
     0
 63
   257
283
     0
 90
        4
 91
        0
  1

274
    -2
284
     1
 64
     0
275
    -2
285
     1
 65
     0
276
    -2
286
     1
 66
     0
277
    -2
287
     1
 67
     0
278
    -2
288
     1
 68
     0
279
    -2
289
     1
 69
     0
  7
Standard
140
0.18
170
     5
 62
     0
 63
   257
283
     0
 90
        4
 91
        0
  1

274
    -2
284
     1
 64
     0
275
    -2
285
     1
 65
     0
276
    -2
286
     1
 66
     0
277
    -2
287
     1
 67
     0
278
    -2
288
     1
 68
     0
279
    -2
289
     1
 69
     0
  0
VISUALSTYLE
  5
2F
102
{ACAD_REACTORS
330
2A
102
}
330
2A
100
AcDbVisualStyle
  2
2dWireframe
 70
     4
177
     3
291
     0
 70
    58
 90
        0
176
     1
 90
        2
176
     1
 90
        0
176
     1
 90
        0
176
     1
 40
0.6
176
     1
 40
30.0
176
     1
 62
     7
420
 16777215
176
     1
 90
        1
176
     1
 90
        4
176
     1
 62
     7
176
     1
 62
   257
176
     1
 90
        1
176
     1
 90
        1
176
     1
 40
1.0
176
     1
 90
        0
176
     1
 62
   257
176
     1
 40
1.0
176
     1
 90
        1
176
     1
 90
        6
176
     1
 90
        2
176
     1
 62
     7
176
     1
 90
        5
176
     1
 90
        0
176
     1
 90
        0
176
     1
290
     0
176
     1
 90
        1
176
     1
 40
0.0
176
     1
 90
        0
176
     1
290
     1
176
     1
290
     1
176
     1
290
     0
176
     1
290
     0
176
     1
290
     0
176
     1
290
     0
176
     1
290
     0
176
     1
290
     0
176
     1
290
     0
176
     1
 90
       50
176
     1
 40
0.0
176
     1
 40
1.0
176
     1
 90
        0
176
     1
 62
    18
420
        0
176
     1
 90
       50
176
     1
 90
        3
176
     1
 62
     5
420
      255
176
     1
290
     0
176
     1
 90
       50
176
     1
 90
       50
176
     1
 90
       50
176
     1
290
     0
176
     1
 90
       50
176
     1
 62
   256
176
     0
 40
1.0
176
     0
 90
        2
176
     1
  1
strokes_ogs.tif
176
     1
290
     0
176
     1
 40
1.0
176
     1
 40
1.0
176
     1
  0
VISUALSTYLE
  5
32
102
{ACAD_REACTORS
330
2A
102
}
330
2A
100
AcDbVisualStyle
  2
Basic
 70
     7
177
     3
291
     1
 70
    58
 90
        1
176
     1
 90
        0
176
     1
 90
        1
176
     1
 90
        0
176
     1
 40
0.6
176
     1
 40
30.0
176
     1
 62
     7
420
 16777215
176
     1
 90
        0
176
     1
 90
        4
176
     1
 62
     7
176
     1
 62
   257
176
     1
 90
        1
176
     1
 90
        1
176
     1
 40
1.0
176
     1
 90
        8
176
     1
 62
     7
176
     1
 40
1.0
176
     1
 90
        1
176
     1
 90
        6
176
     1
 90
        2
176
     1
 62
     7
176
     1
 90
        5
176
     1
 90
        0
176
     1
 90
        0
176
     1
290
     0
176
     1
 90
        1
176
     1
 40
0.0
176
     1
 90
        0
176
     1
290
     0
176
     1
290
     1
176
     1
290
     1
176
     1
290
     0
176
     1
290
     0
176
     1
290
     0
176
     1
290
     0
176
     1
290
     0
176
     1
290
     0
176
     1
 90
       50
176
     1
 40
0.0
176
     1
 40
1.0
176
     1
 90
        0
176
     1
 62
    18
420
        0
176
     1
 90
       50
176
     1
 90
        3
176
     1
 62
     5
420
      255
176
     1
290
     0
176
     1
 90
       50
176
     1
 90
       50
176
     1
 90
       50
176
     1
290
     0
176
     1
 90
       50
176
     1
 62
   256
176
     0
 40
1.0
176
     0
 90
        2
176
     1
  1
strokes_ogs.tif
176
     1
290
     0
176
     1
 40
1.0
176
     1
 40
1.0
176
     1
  0
VISUALSTYLE
  5
36
102
{ACAD_REACTORS
330
2A
102
}
330
2A
100
AcDbVisualStyle
  2
Brighten
 70
    12
177
     3
291
     1
 70
    58
 90
        2
176
     1
 90
        2
176
     1
 90
        0
176
     1
 90
        0
176
     1
 40
0.6
176
     1
 40
30.0
176
     1
 62
     7
420
 16777215
176
     1
 90
        1
176
     1
 90
        4
176
     1
 62
     7
176
     1
 62
   257
176
     1
 90
        1
176
     1
 90
        1
176
     1
 40
1.0
176
     1
 90
        8
176
     1
 62
     7
176
     1
 40
1.0
176
     1
 90
        1
176
     1
 90
        6
176
     1
 90
        2
176
     1
 62
     7
176
     1
 90
        5
176
     1
 90
        0
176
     1
 90
        0
176
     1
290
     0
176
     1
 90
        1
176
     1
 40
50.0
176
     1
 90
        0
176
     1
290
     0
176
     1
290
     1
176
     1
290
     1
176
     1
290
     0
176
     1
290
     0
176
     1
290
     0
176
     1
290
     0
176
     1
290
     0
176
     1
290
     0
176
     1
 90
       50
176
     1
 40
0.0
176
     1
 40
1.0
176
     1
 90
        0
176
     1
 62
    18
420
        0
176
     1
 90
       50
176
     1
 90
        3
176
     1
 62
     5
420
      255
176
     1
290
     0
176
     1
 90
       50
176
     1
 90
       50
176
     1
 90
       50
176
     1
290
     0
176
     1
 90
       50
176
     1
 62
   256
176
     0
 40
1.0
176
     0
 90
        2
176
     1
  1
strokes_ogs.tif
176
     1
290
     0
176
     1
 40
1.0
176
     1
 40
1.0
176
     1
  0
VISUALSTYLE
  5
3A
102
{ACAD_REACTORS
330
2A
102
}
330
2A
100
AcDbVisualStyle
  2
ColorChange
 70
    16
177
     3
291
     1
 70
    58
 90
        2
176
     1
 90
        2
176
     1
 90
        3
176
     1
 90
        0
176
     1
 40
0.6
176
     1
 40
30.0
176
     1
 62
     8
420
  8421504
176
     1
 90
        1
176
     1
 90
        4
176
     1
 62
     7
176
     1
 62
   257
176
     1
 90
        1
176
     1
 90
        1
176
     1
 40
1.0
176
     1
 90
        8
176
     1
 62
     8
420
  8421504
176
     1
 40
1.0
176
     1
 90
        1
176
     1
 90
        6
176
     1
 90
        2
176
     1
 62
     7
176
     1
 90
        5
176
     1
 90
        0
176
     1
 90
        0
176
     1
290
     0
176
     1
 90
        1
176
     1
 40
0.0
176
     1
 90
        0
176
     1
290
     0
176
     1
290
     1
176
     1
290
     1
176
     1
290
     0
176
     1
290
     0
176
     1
290
     0
176
     1
290
     0
176
     1
290
     0
176
     1
290
     0
176
     1
 90
       50
176
     1
 40
0.0
176
     1
 40
1.0
176
     1
 90
        0
176
     1
 62
    18
420
        0
176
     1
 90
       50
176
     1
 90
        3
176
     1
 62
     5
420
      255
176
     1
290
     0
176
     1
 90
       50
176
     1
 90
       50
176
     1
 90
       50
176
     1
290
     0
176
     1
 90
       50
176
     1
 62
   256
176
     0
 40
1.0
176
     0
 90
        2
176
     1
  1
strokes_ogs.tif
176
     1
290
     0
176
     1
 40
1.0
176
     1
 40
1.0
176
     1
  0
VISUALSTYLE
  5
34
102
{ACAD_REACTORS
330
2A
102
}
330
2A
100
AcDbVisualStyle
  2
Conceptual
 70
     9
177
     3
291
     0
 70
    58
 90
        3
176
     1
 90
        2
176
     1
 90
        0
176
     1
 90
        0
176
     1
 40
0.6
176
     1
 40
30.0
176
     1
 62
     7
420
 16777215
176
     1
 90
        2
176
     1
 90
        2
176
     1
 62
     7
176
     1
 62
   257
176
     1
 90
        1
176
     1
 90
        1
176
     1
 40
179.0
176
     1
 90
        8
176
     1
 62
     7
176
     1
 40
1.0
176
     1
 90
        1
176
     1
 90
        6
176
     1
 90
        2
176
     1
 62
     7
176
     1
 90
        3
176
     1
 90
        0
176
     1
 90
        0
176
     1
290
     0
176
     1
 90
        1
176
     1
 40
0.0
176
     1
 90
        0
176
     1
290
     0
176
     1
290
     1
176
     1
290
     1
176
     1
290
     0
176
     1
290
     0
176
     1
290
     0
176
     1
290
     0
176
     1
290
     0
176
     1
290
     0
176
     1
 90
       50
176
     1
 40
0.0
176
     1
 40
1.0
176
     1
 90
        0
176
     1
 62
    18
420
        0
176
     1
 90
       50
176
     1
 90
        3
176
     1
 62
     5
420
      255
176
     1
290
     0
176
     1
 90
       50
176
     1
 90
       50
176
     1
 90
       50
176
     1
290
     0
176
     1
 90
       50
176
     1
 62
   256
176
     0
 40
1.0
176
     0
 90
        2
176
     1
  1
strokes_ogs.tif
176
     1
290
     0
176
     1
 40
1.0
176
     1
 40
1.0
176
     1
  0
VISUALSTYLE
  5
35
102
{ACAD_REACTORS
330
2A
102
}
330
2A
100
AcDbVisualStyle
  2
Dim
 70
    11
177
     3
291
     1
 70
    58
 90
        2
176
     1
 90
        2
176
     1
 90
        0
176
     1
 90
        0
176
     1
 40
0.6
176
     1
 40
30.0
176
     1
 62
     7
420
 16777215
176
     1
 90
        1
176
     1
 90
        4
176
     1
 62
     7
176
     1
 62
   257
176
     1
 90
        1
176
     1
 90
        1
176
     1
 40
1.0
176
     1
 90
        8
176
     1
 62
     7
176
     1
 40
1.0
176
     1
 90
        1
176
     1
 90
        6
176
     1
 90
        2
176
     1
 62
     7
176
     1
 90
        5
176
     1
 90
        0
176
     1
 90
        0
176
     1
290
     0
176
     1
 90
        1
176
     1
 40
-50.0
176
     1
 90
        0
176
     1
290
     0
176
     1
290
     1
176
     1
290
     1
176
     1
290
     0
176
     1
290
     0
176
     1
290
     0
176
     1
290
     0
176
     1
290
     0
176
     1
290
     0
176
     1
 90
       50
176
     1
 40
0.0
176
     1
 40
1.0
176
     1
 90
        0
176
     1
 62
    18
420
        0
176
     1
 90
       50
176
     1
 90
        3
176
     1
 62
     5
420
      255
176
     1
290
     0
176
     1
 90
       50
176
     1
 90
       50
176
     1
 90
       50
176
     1
290
     0
176
     1
 90
       50
176
     1
 62
   256
176
     0
 40
1.0
176
     0
 90
        2
176
     1
  1
strokes_ogs.tif
176
     1
290
     0
176
     1
 40
1.0
176
     1
 40
1.0
176
     1
  0
VISUALSTYLE
  5
3D
102
{ACAD_REACTORS
330
2A
102
}
330
2A
100
AcDbVisualStyle
  2
EdgeColorOff
 70
    22
177
     3
291
     1
 70
    58
 90
        2
176
     0
 90
        2
176
     0
 90
        0
176
     0
 90
        0
176
     0
 40
0.6
176
     0
 40
30.0
176
     0
 62
     7
420
 16777215
176
     0
 90
        1
176
     0
 90
        4
176
     0
 62
     7
176
     0
 62
   257
176
     0
 90
        1
176
     0
 90
        1
176
     0
 40
1.0
176
     0
 90
        8
176
     2
 62
     7
176
     0
 40
1.0
176
     0
 90
        1
176
     0
 90
        6
176
     0
 90
        2
176
     0
 62
     7
176
     0
 90
        5
176
     0
 90
        0
176
     0
 90
        0
176
     0
290
     0
176
     0
 90
        1
176
     0
 40
0.0
176
     0
 90
        0
176
     0
290
     0
176
     0
290
     1
176
     0
290
     1
176
     0
290
     0
176
     0
290
     0
176
     0
290
     0
176
     0
290
     0
176
     0
290
     0
176
     0
290
     0
176
     0
 90
       50
176
     0
 40
0.0
176
     0
 40
1.0
176
     0
 90
        0
176
     0
 62
    18
420
        0
176
     0
 90
       50
176
     0
 90
        3
176
     0
 62
     5
420
      255
176
     0
290
     0
176
     0
 90
       50
176
     0
 90
       50
176
     0
 90
       50
176
     0
290
     0
176
     0
 90
       50
176
     0
 62
   256
176
     0
 40
1.0
176
     0
 90
        2
176
     0
  1
strokes_ogs.tif
176
     0
290
     0
176
     0
 40
1.0
176
     0
 40
1.0
176
     0
  0
VISUALSTYLE
  5
39
102
{ACAD_REACTORS
330
2A
102
}
330
2A
100
AcDbVisualStyle
  2
Facepattern
 70
    15
177
     3
291
     1
 70
    58
 90
        2
176
     1
 90
        2
176
     1
 90
        0
176
     1
 90
        0
176
     1
 40
0.6
176
     1
 40
30.0
176
     1
 62
     7
420
 16777215
176
     1
 90
        1
176
     1
 90
        4
176
     1
 62
     7
176
     1
 62
   257
176
     1
 90
        1
176
     1
 90
        1
176
     1
 40
1.0
176
     1
 90
        8
176
     1
 62
     7
176
     1
 40
1.0
176
     1
 90
        1
176
     1
 90
        6
176
     1
 90
        2
176
     1
 62
     7
176
     1
 90
        5
176
     1
 90
        0
176
     1
 90
        0
176
     1
290
     0
176
     1
 90
        1
176
     1
 40
0.0
176
     1
 90
        0
176
     1
290
     0
176
     1
290
     1
176
     1
290
     1
176
     1
290
     0
176
     1
290
     0
176
     1
290
     0
176
     1
290
     0
176
     1
290
     0
176
     1
290
     0
176
     1
 90
       50
176
     1
 40
0.0
176
     1
 40
1.0
176
     1
 90
        0
176
     1
 62
    18
420
        0
176
     1
 90
       50
176
     1
 90
        3
176
     1
 62
     5
420
      255
176
     1
290
     0
176
     1
 90
       50
176
     1
 90
       50
176
     1
 90
       50
176
     1
290
     0
176
     1
 90
       50
176
     1
 62
   256
176
     0
 40
1.0
176
     0
 90
        2
176
     1
  1
strokes_ogs.tif
176
     1
290
     0
176
     1
 40
1.0
176
     1
 40
1.0
176
     1
  0
VISUALSTYLE
  5
2B
102
{ACAD_REACTORS
330
2A
102
}
330
2A
100
AcDbVisualStyle
  2
Flat
 70
     0
177
     3
291
     1
 70
    58
 90
        2
176
     1
 90
        1
176
     1
 90
        1
176
     1
 90
        2
176
     1
 40
0.6
176
     1
 40
30.0
176
     1
 62
     7
420
 16777215
176
     1
 90
        0
176
     1
 90
        0
176
     1
 62
     7
176
     1
 62
   257
176
     1
 90
        1
176
     1
 90
        1
176
     1
 40
1.0
176
     1
 90
        8
176
     1
 62
     7
176
     1
 40
1.0
176
     1
 90
        1
176
     1
 90
        6
176
     1
 90
        2
176
     1
 62
     7
176
     1
 90
        5
176
     1
 90
        0
176
     1
 90
        0
176
     1
290
     0
176
     1
 90
       13
176
     1
 40
0.0
176
     1
 90
        0
176
     1
290
     0
176
     1
290
     1
176
     1
290
     1
176
     1
290
     0
176
     1
290
     0
176
     1
290
     0
176
     1
290
     0
176
     1
290
     0
176
     1
290
     0
176
     1
 90
       50
176
     1
 40
0.0
176
     1
 40
1.0
176
     1
 90
        0
176
     1
 62
    18
420
        0
176
     1
 90
       50
176
     1
 90
        3
176
     1
 62
     5
420
      255
176
     1
290
     0
176
     1
 90
       50
176
     1
 90
       50
176
     1
 90
       50
176
     1
290
     0
176
     1
 90
       50
176
     1
 62
   256
176
     0
 40
1.0
176
     0
 90
        2
176
     1
  1
strokes_ogs.tif
176
     1
290
     0
176
     1
 40
1.0
176
     1
 40
1.0
176
     1
  0
VISUALSTYLE
  5
2C
102
{ACAD_REACTORS
330
2A
102
}
330
2A
100
AcDbVisualStyle
  2
FlatWithEdges
 70
     1
177
     3
291
     1
 70
    58
 90
        2
176
     1
 90
        1
176
     1
 90
        1
176
     1
 90
        2
176
     1
 40
0.6
176
     1
 40
30.0
176
     1
 62
     7
420
 16777215
176
     1
 90
        1
176
     1
 90
        0
176
     1
 62
     7
176
     1
 62
   257
176
     1
 90
        1
176
     1
 90
        1
176
     1
 40
1.0
176
     1
 90
        0
176
     1
 62
   257
176
     1
 40
1.0
176
     1
 90
        1
176
     1
 90
        6
176
     1
 90
        2
176
     1
 62
     7
176
     1
 90
        5
176
     1
 90
        0
176
     1
 90
        0
176
     1
290
     0
176
     1
 90
       13
176
     1
 40
0.0
176
     1
 90
        0
176
     1
290
     0
176
     1
290
     1
176
     1
290
     1
176
     1
290
     0
176
     1
290
     0
176
     1
290
     0
176
     1
290
     0
176
     1
290
     0
176
     1
290
     0
176
     1
 90
       50
176
     1
 40
0.0
176
     1
 40
1.0
176
     1
 90
        0
176
     1
 62
    18
420
        0
176
     1
 90
       50
176
     1
 90
        3
176
     1
 62
     5
420
      255
176
     1
290
     0
176
     1
 90
       50
176
     1
 90
       50
176
     1
 90
       50
176
     1
290
     0
176
     1
 90
       50
176
     1
 62
   256
176
     0
 40
1.0
176
     0
 90
        2
176
     1
  1
strokes_ogs.tif
176
     1
290
     0
176
     1
 40
1.0
176
     1
 40
1.0
176
     1
  0
VISUALSTYLE
  5
2D
102
{ACAD_REACTORS
330
2A
102
}
330
2A
100
AcDbVisualStyle
  2
Gouraud
 70
     2
177
     3
291
     1
 70
    58
 90
        2
176
     1
 90
        2
176
     1
 90
        1
176
     1
 90
        2
176
     1
 40
0.6
176
     1
 40
30.0
176
     1
 62
     7
420
 16777215
176
     1
 90
        0
176
     1
 90
        0
176
     1
 62
     7
176
     1
 62
   257
176
     1
 90
        1
176
     1
 90
        1
176
     1
 40
1.0
176
     1
 90
        0
176
     1
 62
     7
176
     1
 40
1.0
176
     1
 90
        1
176
     1
 90
        6
176
     1
 90
        2
176
     1
 62
     7
176
     1
 90
        5
176
     1
 90
        0
176
     1
 90
        0
176
     1
290
     0
176
     1
 90
       13
176
     1
 40
0.0
176
     1
 90
        0
176
     1
290
     0
176
     1
290
     1
176
     1
290
     1
176
     1
290
     0
176
     1
290
     0
176
     1
290
     0
176
     1
290
     0
176
     1
290
     0
176
     1
290
     0
176
     1
 90
       50
176
     1
 40
0.0
176
     1
 40
1.0
176
     1
 90
        0
176
     1
 62
    18
420
        0
176
     1
 90
       50
176
     1
 90
        3
176
     1
 62
     5
420
      255
176
     1
290
     0
176
     1
 90
       50
176
     1
 90
       50
176
     1
 90
       50
176
     1
290
     0
176
     1
 90
       50
176
     1
 62
   256
176
     0
 40
1.0
176
     0
 90
        2
176
     1
  1
strokes_ogs.tif
176
     1
290
     0
176
     1
 40
1.0
176
     1
 40
1.0
176
     1
  0
VISUALSTYLE
  5
2E
102
{ACAD_REACTORS
330
2A
102
}
330
2A
100
AcDbVisualStyle
  2
GouraudWithEdges
 70
     3
177
     3
291
     1
 70
    58
 90
        2
176
     1
 90
        2
176
     1
 90
        1
176
     1
 90
        2
176
     1
 40
0.6
176
     1
 40
30.0
176
     1
 62
     7
420
 16777215
176
     1
 90
        1
176
     1
 90
        0
176
     1
 62
     7
176
     1
 62
   257
176
     1
 90
        1
176
     1
 90
        1
176
     1
 40
1.0
176
     1
 90
        0
176
     1
 62
   257
176
     1
 40
1.0
176
     1
 90
        1
176
     1
 90
        6
176
     1
 90
        2
176
     1
 62
     7
176
     1
 90
        5
176
     1
 90
        0
176
     1
 90
        0
176
     1
290
     0
176
     1
 90
       13
176
     1
 40
0.0
176
     1
 90
        0
176
     1
290
     0
176
     1
290
     1
176
     1
290
     1
176
     1
290
     0
176
     1
290
     0
176
     1
290
     0
176
     1
290
     0
176
     1
290
     0
176
     1
290
     0
176
     1
 90
       50
176
     1
 40
0.0
176
     1
 40
1.0
176
     1
 90
        0
176
     1
 62
    18
420
        0
176
     1
 90
       50
176
     1
 90
        3
176
     1
 62
     5
420
      255
176
     1
290
     0
176
     1
 90
       50
176
     1
 90
       50
176
     1
 90
       50
176
     1
290
     0
176
     1
 90
       50
176
     1
 62
   256
176
     0
 40
1.0
176
     0
 90
        2
176
     1
  1
strokes_ogs.tif
176
     1
290
     0
176
     1
 40
1.0
176
     1
 40
1.0
176
     1
  0
VISUALSTYLE
  5
31
102
{ACAD_REACTORS
330
2A
102
}
330
2A
100
AcDbVisualStyle
  2
Hidden
 70
     6
177
     3
291
     0
 70
    58
 90
        1
176
     1
 90
        2
176
     1
 90
        2
176
     1
 90
        0
176
     1
 40
0.6
176
     1
 40
30.0
176
     1
 62
     7
420
 16777215
176
     1
 90
        2
176
     1
 90
        2
176
     1
 62
     7
176
     1
 62
   257
176
     1
 90
        2
176
     1
 90
        1
176
     1
 40
40.0
176
     1
 90
        0
176
     1
 62
   257
176
     1
 40
1.0
176
     1
 90
        1
176
     1
 90
        6
176
     1
 90
        2
176
     1
 62
     7
176
     1
 90
        3
176
     1
 90
        0
176
     1
 90
        0
176
     1
290
     0
176
     1
 90
        1
176
     1
 40
0.0
176
     1
 90
        0
176
     1
290
     0
176
     1
290
     1
176
     1
290
     1
176
     1
290
     0
176
     1
290
     0
176
     1
290
     0
176
     1
290
     0
176
     1
290
     0
176
     1
290
     0
176
     1
 90
       50
176
     1
 40
0.0
176
     1
 40
1.0
176
     1
 90
        0
176
     1
 62
    18
420
        0
176
     1
 90
       50
176
     1
 90
        3
176
     1
 62
     5
420
      255
176
     1
290
     0
176
     1
 90
       50
176
     1
 90
       50
176
     1
 90
       50
176
     1
290
     0
176
     1
 90
       50
176
     1
 62
   256
176
     0
 40
1.0
176
     0
 90
        2
176
     1
  1
strokes_ogs.tif
176
     1
290
     0
176
     1
 40
1.0
176
     1
 40
1.0
176
     1
  0
VISUALSTYLE
  5
3B
102
{ACAD_REACTORS
330
2A
102
}
330
2A
100
AcDbVisualStyle
  2
JitterOff
 70
    20
177
     3
291
     1
 70
    58
 90
        2
176
     0
 90
        2
176
     0
 90
        0
176
     0
 90
        0
176
     0
 40
0.6
176
     0
 40
30.0
176
     0
 62
     7
420
 16777215
176
     0
 90
        1
176
     0
 90
        4
176
     0
 62
     7
176
     0
 62
   257
176
     0
 90
        1
176
     0
 90
        1
176
     0
 40
1.0
176
     0
 90
       10
176
     2
 62
     7
176
     0
 40
1.0
176
     0
 90
        1
176
     0
 90
        6
176
     0
 90
        2
176
     0
 62
     7
176
     0
 90
        5
176
     0
 90
        0
176
     0
 90
        0
176
     0
290
     0
176
     0
 90
        1
176
     0
 40
0.0
176
     0
 90
        0
176
     0
290
     0
176
     0
290
     1
176
     0
290
     1
176
     0
290
     0
176
     0
290
     0
176
     0
290
     0
176
     0
290
     0
176
     0
290
     0
176
     0
290
     0
176
     0
 90
       50
176
     0
 40
0.0
176
     0
 40
1.0
176
     0
 90
        0
176
     0
 62
    18
420
        0
176
     0
 90
       50
176
     0
 90
        3
176
     0
 62
     5
420
      255
176
     0
290
     0
176
     0
 90
       50
176
     0
 90
       50
176
     0
 90
       50
176
     0
290
     0
176
     0
 90
       50
176
     0
 62
   256
176
     0
 40
1.0
176
     0
 90
        2
176
     0
  1
strokes_ogs.tif
176
     0
290
     0
176
     0
 40
1.0
176
     0
 40
1.0
176
     0
  0
VISUALSTYLE
  5
38
102
{ACAD_REACTORS
330
2A
102
}
330
2A
100
AcDbVisualStyle
  2
Linepattern
 70
    14
177
     3
291
     1
 70
    58
 90
        2
176
     1
 90
        2
176
     1
 90
        0
176
     1
 90
        0
176
     1
 40
0.6
176
     1
 40
30.0
176
     1
 62
     7
420
 16777215
176
     1
 90
        1
176
     1
 90
        4
176
     1
 62
     7
176
     1
 62
   257
176
     1
 90
        7
176
     1
 90
        7
176
     1
 40
1.0
176
     1
 90
        8
176
     1
 62
     7
176
     1
 40
1.0
176
     1
 90
        1
176
     1
 90
        6
176
     1
 90
        2
176
     1
 62
     7
176
     1
 90
        5
176
     1
 90
        0
176
     1
 90
        0
176
     1
290
     0
176
     1
 90
        1
176
     1
 40
0.0
176
     1
 90
        0
176
     1
290
     0
176
     1
290
     1
176
     1
290
     1
176
     1
290
     0
176
     1
290
     0
176
     1
290
     0
176
     1
290
     0
176
     1
290
     0
176
     1
290
     0
176
     1
 90
       50
176
     1
 40
0.0
176
     1
 40
1.0
176
     1
 90
        0
176
     1
 62
    18
420
        0
176
     1
 90
       50
176
     1
 90
        3
176
     1
 62
     5
420
      255
176
     1
290
     0
176
     1
 90
       50
176
     1
 90
       50
176
     1
 90
       50
176
     1
290
     0
176
     1
 90
       50
176
     1
 62
   256
176
     0
 40
1.0
176
     0
 90
        2
176
     1
  1
strokes_ogs.tif
176
     1
290
     0
176
     1
 40
1.0
176
     1
 40
1.0
176
     1
  0
VISUALSTYLE
  5
3C
102
{ACAD_REACTORS
330
2A
102
}
330
2A
100
AcDbVisualStyle
  2
OverhangOff
 70
    21
177
     3
291
     1
 70
    58
 90
        2
176
     0
 90
        2
176
     0
 90
        0
176
     0
 90
        0
176
     0
 40
0.6
176
     0
 40
30.0
176
     0
 62
     7
420
 16777215
176
     0
 90
        1
176
     0
 90
        4
176
     0
 62
     7
176
     0
 62
   257
176
     0
 90
        1
176
     0
 90
        1
176
     0
 40
1.0
176
     0
 90
        9
176
     2
 62
     7
176
     0
 40
1.0
176
     0
 90
        1
176
     0
 90
        6
176
     0
 90
        2
176
     0
 62
     7
176
     0
 90
        5
176
     0
 90
        0
176
     0
 90
        0
176
     0
290
     0
176
     0
 90
        1
176
     0
 40
0.0
176
     0
 90
        0
176
     0
290
     0
176
     0
290
     1
176
     0
290
     1
176
     0
290
     0
176
     0
290
     0
176
     0
290
     0
176
     0
290
     0
176
     0
290
     0
176
     0
290
     0
176
     0
 90
       50
176
     0
 40
0.0
176
     0
 40
1.0
176
     0
 90
        0
176
     0
 62
    18
420
        0
176
     0
 90
       50
176
     0
 90
        3
176
     0
 62
     5
420
      255
176
     0
290
     0
176
     0
 90
       50
176
     0
 90
       50
176
     0
 90
       50
176
     0
290
     0
176
     0
 90
       50
176
     0
 62
   256
176
     0
 40
1.0
176
     0
 90
        2
176
     0
  1
strokes_ogs.tif
176
     0
290
     0
176
     0
 40
1.0
176
     0
 40
1.0
176
     0
  0
VISUALSTYLE
  5
33
102
{ACAD_REACTORS
330
2A
102
}
330
2A
100
AcDbVisualStyle
  2
Realistic
 70
     8
177
     3
291
     0
 70
    58
 90
        2
176
     1
 90
        3
176
     1
 90
        0
176
     1
 90
        2
176
     1
 40
0.6
176
     1
 40
30.0
176
     1
 62
     7
420
 16777215
176
     1
 90
        0
176
     1
 90
        0
176
     1
 62
     7
176
     1
 62
   257
176
     1
 90
        1
176
     1
 90
        1
176
     1
 40
1.0
176
     1
 90
        8
176
     1
 62
   257
176
     1
 40
1.0
176
     1
 90
        1
176
     1
 90
        6
176
     1
 90
        2
176
     1
 62
     7
176
     1
 90
        3
176
     1
 90
        0
176
     1
 90
        0
176
     1
290
     0
176
     1
 90
       13
176
     1
 40
0.0
176
     1
 90
        0
176
     1
290
     0
176
     1
290
     1
176
     1
290
     1
176
     1
290
     0
176
     1
290
     0
176
     1
290
     0
176
     1
290
     0
176
     1
290
     0
176
     1
290
     0
176
     1
 90
       50
176
     1
 40
0.0
176
     1
 40
1.0
176
     1
 90
        0
176
     1
 62
    18
420
        0
176
     1
 90
       50
176
     1
 90
        3
176
     1
 62
     5
420
      255
176
     1
290
     0
176
     1
 90
       50
176
     1
 90
       50
176
     1
 90
       50
176
     1
290
     0
176
     1
 90
       50
176
     1
 62
   256
176
     0
 40
1.0
176
     0
 90
        2
176
     1
  1
strokes_ogs.tif
176
     1
290
     0
176
     1
 40
1.0
176
     1
 40
1.0
176
     1
  0
VISUALSTYLE
  5
42
102
{ACAD_REACTORS
330
2A
102
}
330
2A
100
AcDbVisualStyle
  2
Shaded
 70
    27
177
     3
291
     0
 70
    58
 90
        2
176
     1
 90
        2
176
     1
 90
        1
176
     1
 90
        2
176
     1
 40
0.6
176
     1
 40
30.0
176
     1
 62
     7
420
 16777215
176
     1
 90
        0
176
     1
 90
        4
176
     1
 62
     7
176
     1
 62
   257
176
     1
 90
        1
176
     1
 90
        1
176
     1
 40
1.0
176
     1
 90
        8
176
     1
 62
   257
176
     1
 40
1.0
176
     1
 90
        1
176
     1
 90
        6
176
     1
 90
        2
176
     1
 62
     8
420
  7895160
176
     1
 90
        3
176
     1
 90
        0
176
     1
 90
        0
176
     1
290
     0
176
     1
 90
        5
176
     1
 40
0.0
176
     1
 90
        0
176
     1
290
     0
176
     1
290
     1
176
     1
290
     1
176
     1
290
     0
176
     1
290
     0
176
     1
290
     0
176
     1
290
     0
176
     1
290
     0
176
     1
290
     0
176
     1
 90
       50
176
     1
 40
0.0
176
     1
 40
1.0
176
     1
 90
        0
176
     1
 62
    18
420
        0
176
     1
 90
       50
176
     1
 90
        3
176
     1
 62
     5
420
      255
176
     1
290
     0
176
     1
 90
       50
176
     1
 90
       50
176
     1
 90
       50
176
     1
290
     0
176
     1
 90
       50
176
     1
 62
   256
176
     0
 40
1.0
176
     0
 90
        2
176
     1
  1
strokes_ogs.tif
176
     1
290
     0
176
     1
 40
1.0
176
     1
 40
1.0
176
     1
  0
VISUALSTYLE
  5
41
102
{ACAD_REACTORS
330
2A
102
}
330
2A
100
AcDbVisualStyle
  2
Shaded with edges
 70
    26
177
     3
291
     0
 70
    58
 90
        2
176
     1
 90
        2
176
     1
 90
        1
176
     1
 90
        2
176
     1
 40
0.6
176
     1
 40
30.0
176
     1
 62
     7
420
 16777215
176
     1
 90
        1
176
     1
 90
       10
176
     1
 62
     7
176
     1
 62
   257
176
     1
 90
        2
176
     1
 90
        1
176
     1
 40
1.0
176
     1
 90
        8
176
     1
 62
   257
176
     1
 40
1.0
176
     1
 90
        1
176
     1
 90
        6
176
     1
 90
        2
176
     1
 62
     7
176
     1
 90
        3
176
     1
 90
        0
176
     1
 90
        0
176
     1
290
     0
176
     1
 90
        5
176
     1
 40
0.0
176
     1
 90
        0
176
     1
290
     0
176
     1
290
     1
176
     1
290
     1
176
     1
290
     0
176
     1
290
     0
176
     1
290
     0
176
     1
290
     0
176
     1
290
     0
176
     1
290
     0
176
     1
 90
       50
176
     1
 40
0.0
176
     1
 40
1.0
176
     1
 90
        0
176
     1
 62
    18
420
        0
176
     1
 90
       50
176
     1
 90
        3
176
     1
 62
     5
420
      255
176
     1
290
     0
176
     1
 90
       50
176
     1
 90
       50
176
     1
 90
       50
176
     1
290
     0
176
     1
 90
       50
176
     1
 62
   256
176
     0
 40
1.0
176
     0
 90
        2
176
     1
  1
strokes_ogs.tif
176
     1
290
     0
176
     1
 40
1.0
176
     1
 40
1.0
176
     1
  0
VISUALSTYLE
  5
3E
102
{ACAD_REACTORS
330
2A
102
}
330
2A
100
AcDbVisualStyle
  2
Shades of Gray
 70
    23
177
     3
291
     0
 70
    58
 90
        2
176
     1
 90
        2
176
     1
 90
        3
176
     1
 90
        0
176
     1
 40
0.6
176
     1
 40
30.0
176
     1
 62
     7
420
 16777215
176
     1
 90
        2
176
     1
 90
        2
176
     1
 62
     7
176
     1
 62
     7
176
     1
 90
        1
176
     1
 90
        1
176
     1
 40
40.0
176
     1
 90
        8
176
     1
 62
     7
176
     1
 40
1.0
176
     1
 90
        1
176
     1
 90
        6
176
     1
 90
        2
176
     1
 62
     7
176
     1
 90
        3
176
     1
 90
        0
176
     1
 90
        0
176
     1
290
     0
176
     1
 90
        1
176
     1
 40
0.0
176
     1
 90
        0
176
     1
290
     0
176
     1
290
     1
176
     1
290
     1
176
     1
290
     0
176
     1
290
     0
176
     1
290
     0
176
     1
290
     0
176
     1
290
     0
176
     1
290
     0
176
     1
 90
       50
176
     1
 40
0.0
176
     1
 40
1.0
176
     1
 90
        0
176
     1
 62
    18
420
        0
176
     1
 90
       50
176
     1
 90
        3
176
     1
 62
     5
420
      255
176
     1
290
     0
176
     1
 90
       50
176
     1
 90
       50
176
     1
 90
       50
176
     1
290
     0
176
     1
 90
       50
176
     1
 62
   256
176
     0
 40
1.0
176
     0
 90
        2
176
     1
  1
strokes_ogs.tif
176
     1
290
     0
176
     1
 40
1.0
176
     1
 40
1.0
176
     1
  0
VISUALSTYLE
  5
3F
102
{ACAD_REACTORS
330
2A
102
}
330
2A
100
AcDbVisualStyle
  2
Sketchy
 70
    24
177
     3
291
     0
 70
    58
 90
        1
176
     1
 90
        2
176
     1
 90
        2
176
     1
 90
        0
176
     1
 40
0.6
176
     1
 40
30.0
176
     1
 62
     7
420
 16777215
176
     1
 90
        2
176
     1
 90
        2
176
     1
 62
     7
176
     1
 62
     7
176
     1
 90
        1
176
     1
 90
        1
176
     1
 40
40.0
176
     1
 90
       11
176
     1
 62
     7
176
     1
 40
1.0
176
     1
 90
        1
176
     1
 90
        6
176
     1
 90
        2
176
     1
 62
     7
176
     1
 90
        6
176
     1
 90
        0
176
     1
 90
        0
176
     1
290
     0
176
     1
 90
        1
176
     1
 40
0.0
176
     1
 90
        0
176
     1
290
     0
176
     1
290
     1
176
     1
290
     1
176
     1
290
     0
176
     1
290
     0
176
     1
290
     0
176
     1
290
     0
176
     1
290
     0
176
     1
290
     0
176
     1
 90
       50
176
     1
 40
0.0
176
     1
 40
1.0
176
     1
 90
        0
176
     1
 62
    18
420
        0
176
     1
 90
       50
176
     1
 90
        3
176
     1
 62
     5
420
      255
176
     1
290
     0
176
     1
 90
       50
176
     1
 90
       50
176
     1
 90
       50
176
     1
290
     0
176
     1
 90
       50
176
     1
 62
   256
176
     0
 40
1.0
176
     0
 90
        2
176
     1
  1
strokes_ogs.tif
176
     1
290
     0
176
     1
 40
1.0
176
     1
 40
1.0
176
     1
  0
VISUALSTYLE
  5
37
102
{ACAD_REACTORS
330
2A
102
}
330
2A
100
AcDbVisualStyle
  2
Thicken
 70
    13
177
     3
291
     1
 70
    58
 90
        2
176
     1
 90
        2
176
     1
 90
        0
176
     1
 90
        0
176
     1
 40
0.6
176
     1
 40
30.0
176
     1
 62
     7
420
 16777215
176
     1
 90
        1
176
     1
 90
        4
176
     1
 62
     7
176
     1
 62
   257
176
     1
 90
        1
176
     1
 90
        1
176
     1
 40
1.0
176
     1
 90
       12
176
     1
 62
     7
176
     1
 40
1.0
176
     1
 90
        1
176
     1
 90
        6
176
     1
 90
        2
176
     1
 62
     7
176
     1
 90
        5
176
     1
 90
        0
176
     1
 90
        0
176
     1
290
     0
176
     1
 90
        1
176
     1
 40
0.0
176
     1
 90
        0
176
     1
290
     0
176
     1
290
     1
176
     1
290
     1
176
     1
290
     0
176
     1
290
     0
176
     1
290
     0
176
     1
290
     0
176
     1
290
     0
176
     1
290
     0
176
     1
 90
       50
176
     1
 40
0.0
176
     1
 40
1.0
176
     1
 90
        0
176
     1
 62
    18
420
        0
176
     1
 90
       50
176
     1
 90
        3
176
     1
 62
     5
420
      255
176
     1
290
     0
176
     1
 90
       50
176
     1
 90
       50
176
     1
 90
       50
176
     1
290
     0
176
     1
 90
       50
176
     1
 62
   256
176
     0
 40
1.0
176
     0
 90
        2
176
     1
  1
strokes_ogs.tif
176
     1
290
     0
176
     1
 40
1.0
176
     1
 40
1.0
176
     1
  0
VISUALSTYLE
  5
30
102
{ACAD_REACTORS
330
2A
102
}
330
2A
100
AcDbVisualStyle
  2
Wireframe
 70
     5
177
     3
291
     0
 70
    58
 90
        0
176
     1
 90
        2
176
     1
 90
        0
176
     1
 90
        0
176
     1
 40
0.6
176
     1
 40
30.0
176
     1
 62
     7
420
 16777215
176
     1
 90
        1
176
     1
 90
        4
176
     1
 62
     7
176
     1
 62
   257
176
     1
 90
        1
176
     1
 90
        1
176
     1
 40
1.0
176
     1
 90
        0
176
     1
 62
   257
176
     1
 40
1.0
176
     1
 90
        1
176
     1
 90
        6
176
     1
 90
        2
176
     1
 62
     7
176
     1
 90
        3
176
     1
 90
        0
176
     1
 90
        0
176
     1
290
     0
176
     1
 90
        1
176
     1
 40
0.0
176
     1
 90
        0
176
     1
290
     0
176
     1
290
     1
176
     1
290
     1
176
     1
290
     0
176
     1
290
     0
176
     1
290
     0
176
     1
290
     0
176
     1
290
     0
176
     1
290
     0
176
     1
 90
       50
176
     1
 40
0.0
176
     1
 40
1.0
176
     1
 90
        0
176
     1
 62
    18
420
        0
176
     1
 90
       50
176
     1
 90
        3
176
     1
 62
     5
420
      255
176
     1
290
     0
176
     1
 90
       50
176
     1
 90
       50
176
     1
 90
       50
176
     1
290
     0
176
     1
 90
       50
176
     1
 62
   256
176
     0
 40
1.0
176
     0
 90
        2
176
     1
  1
strokes_ogs.tif
176
     1
290
     0
176
     1
 40
1.0
176
     1
 40
1.0
176
     1
  0
VISUALSTYLE
  5
40
102
{ACAD_REACTORS
330
2A
102
}
330
2A
100
AcDbVisualStyle
  2
X-Ray
 70
    25
177
     3
291
     0
 70
    58
 90
        2
176
     1
 90
        2
176
     1
 90
        1
176
     1
 90
        1
176
     1
 40
0.5
176
     1
 40
30.0
176
     1
 62
     7
420
 16777215
176
     1
 90
        1
176
     1
 90
        0
176
     1
 62
     7
176
     1
 62
   257
176
     1
 90
        1
176
     1
 90
        1
176
     1
 40
1.0
176
     1
 90
        8
176
     1
 62
     7
176
     1
 40
1.0
176
     1
 90
        1
176
     1
 90
        6
176
     1
 90
        2
176
     1
 62
     7
176
     1
 90
        3
176
     1
 90
        0
176
     1
 90
        0
176
     1
290
     0
176
     1
 90
       13
176
     1
 40
0.0
176
     1
 90
        0
176
     1
290
     0
176
     1
290
     1
176
     1
290
     1
176
     1
290
     0
176
     1
290
     0
176
     1
290
     0
176
     1
290
     0
176
     1
290
     0
176
     1
290
     0
176
     1
 90
       50
176
     1
 40
0.0
176
     1
 40
1.0
176
     1
 90
        0
176
     1
 62
    18
420
        0
176
     1
 90
       50
176
     1
 90
        3
176
     1
 62
     5
420
      255
176
     1
290
     0
176
     1
 90
       50
176
     1
 90
       50
176
     1
 90
       50
176
     1
290
     0
176
     1
 90
       50
176
     1
 62
   256
176
     0
 40
1.0
176
     0
 90
        2
176
     1
  1
strokes_ogs.tif
176
     1
290
     0
176
     1
 40
1.0
176
     1
 40
1.0
176
     1
  0
DICTIONARYVAR
  5
27C
102
{ACAD_REACTORS
330
27B
102
}
330
27B
100
DictionaryVariables
280
     0
  1
1:1
  0
DICTIONARYVAR
  5
281
102
{ACAD_REACTORS
330
27B
102
}
330
27B
100
DictionaryVariables
280
     0
  1
Standard
  0
DICTIONARYVAR
  5
280
102
{ACAD_REACTORS
330
27B
102
}
330
27B
100
DictionaryVariables
280
     0
  1
Standard
  0
DICTIONARYVAR
  5
284
102
{ACAD_REACTORS
330
27B
102
}
330
27B
100
DictionaryVariables
280
     0
  1
0
  0
DICTIONARY
  5
27D
330
6A
100
AcDbDictionary
280
     1
281
     1
  3
ACAD_ROUNDTRIP_2008_TABLESTYLE_CELLSTYLEMAP
360
27E
  0
CELLSTYLEMAP
  5
27E
102
{ACAD_REACTORS
330
27D
102
}
330
27D
100
AcDbCellStyleMap
 90
        3
300
CELLSTYLE
  1
TABLEFORMAT_BEGIN
 90
        5
170
     1
 91
        0
 92
    32768
 62
   257
 93
        1
300
CONTENTFORMAT
  1
CONTENTFORMAT_BEGIN
 90
        0
 91
        0
 92
        4
 93
        0
300

 40
0.0
140
1.0
 94
        5
 62
     0
340
11
144
0.25
309
CONTENTFORMAT_END
171
     1
301
MARGIN
  1
CELLMARGIN_BEGIN
 40
0.06
 40
0.06
 40
0.06
 40
0.06
 40
0.06
 40
0.06
309
CELLMARGIN_END
 94
        6
 95
        1
302
GRIDFORMAT
  1
GRIDFORMAT_BEGIN
 90
        0
 91
        1
 62
     0
 92
       -2
340
14
 93
        0
 40
0.045
309
GRIDFORMAT_END
 95
        2
302
GRIDFORMAT
  1
GRIDFORMAT_BEGIN
 90
        0
 91
        1
 62
     0
 92
       -2
340
14
 93
        0
 40
0.045
309
GRIDFORMAT_END
 95
        4
302
GRIDFORMAT
  1
GRIDFORMAT_BEGIN
 90
        0
 91
        1
 62
     0
 92
       -2
340
14
 93
        0
 40
0.045
309
GRIDFORMAT_END
 95
        8
302
GRIDFORMAT
  1
GRIDFORMAT_BEGIN
 90
        0
 91
        1
 62
     0
 92
       -2
340
14
 93
        0
 40
0.045
309
GRIDFORMAT_END
 95
       16
302
GRIDFORMAT
  1
GRIDFORMAT_BEGIN
 90
        0
 91
        1
 62
     0
 92
       -2
340
14
 93
        0
 40
0.045
309
GRIDFORMAT_END
 95
       32
302
GRIDFORMAT
  1
GRIDFORMAT_BEGIN
 90
        0
 91
        1
 62
     0
 92
       -2
340
14
 93
        0
 40
0.045
309
GRIDFORMAT_END
309
TABLEFORMAT_END
  1
CELLSTYLE_BEGIN
 90
        1
 91
        1
300
_TITLE
309
CELLSTYLE_END
300
CELLSTYLE
  1
TABLEFORMAT_BEGIN
 90
        5
170
     1
 91
        0
 92
        0
 62
   257
 93
        1
300
CONTENTFORMAT
  1
CONTENTFORMAT_BEGIN
 90
        0
 91
        0
 92
        4
 93
        0
300

 40
0.0
140
1.0
 94
        5
 62
     0
340
11
144
0.18
309
CONTENTFORMAT_END
171
     1
301
MARGIN
  1
CELLMARGIN_BEGIN
 40
0.06
 40
0.06
 40
0.06
 40
0.06
 40
0.06
 40
0.06
309
CELLMARGIN_END
 94
        6
 95
        1
302
GRIDFORMAT
  1
GRIDFORMAT_BEGIN
 90
        0
 91
        1
 62
     0
 92
       -2
340
14
 93
        0
 40
0.045
309
GRIDFORMAT_END
 95
        2
302
GRIDFORMAT
  1
GRIDFORMAT_BEGIN
 90
        0
 91
        1
 62
     0
 92
       -2
340
14
 93
        0
 40
0.045
309
GRIDFORMAT_END
 95
        4
302
GRIDFORMAT
  1
GRIDFORMAT_BEGIN
 90
        0
 91
        1
 62
     0
 92
       -2
340
14
 93
        0
 40
0.045
309
GRIDFORMAT_END
 95
        8
302
GRIDFORMAT
  1
GRIDFORMAT_BEGIN
 90
        0
 91
        1
 62
     0
 92
       -2
340
14
 93
        0
 40
0.045
309
GRIDFORMAT_END
 95
       16
302
GRIDFORMAT
  1
GRIDFORMAT_BEGIN
 90
        0
 91
        1
 62
     0
 92
       -2
340
14
 93
        0
 40
0.045
309
GRIDFORMAT_END
 95
       32
302
GRIDFORMAT
  1
GRIDFORMAT_BEGIN
 90
        0
 91
        1
 62
     0
 92
       -2
340
14
 93
        0
 40
0.045
309
GRIDFORMAT_END
309
TABLEFORMAT_END
  1
CELLSTYLE_BEGIN
 90
        2
 91
        1
300
_HEADER
309
CELLSTYLE_END
300
CELLSTYLE
  1
TABLEFORMAT_BEGIN
 90
        5
170
     1
 91
        0
 92
        0
 62
   257
 93
        1
300
CONTENTFORMAT
  1
CONTENTFORMAT_BEGIN
 90
        0
 91
        0
 92
        4
 93
        0
300

 40
0.0
140
1.0
 94
        2
 62
     0
340
11
144
0.18
309
CONTENTFORMAT_END
171
     1
301
MARGIN
  1
CELLMARGIN_BEGIN
 40
0.06
 40
0.06
 40
0.06
 40
0.06
 40
0.06
 40
0.06
309
CELLMARGIN_END
 94
        6
 95
        1
302
GRIDFORMAT
  1
GRIDFORMAT_BEGIN
 90
        0
 91
        1
 62
     0
 92
       -2
340
14
 93
        0
 40
0.045
309
GRIDFORMAT_END
 95
        2
302
GRIDFORMAT
  1
GRIDFORMAT_BEGIN
 90
        0
 91
        1
 62
     0
 92
       -2
340
14
 93
        0
 40
0.045
309
GRIDFORMAT_END
 95
        4
302
GRIDFORMAT
  1
GRIDFORMAT_BEGIN
 90
        0
 91
        1
 62
     0
 92
       -2
340
14
 93
        0
 40
0.045
309
GRIDFORMAT_END
 95
        8
302
GRIDFORMAT
  1
GRIDFORMAT_BEGIN
 90
        0
 91
        1
 62
     0
 92
       -2
340
14
 93
        0
 40
0.045
309
GRIDFORMAT_END
 95
       16
302
GRIDFORMAT
  1
GRIDFORMAT_BEGIN
 90
        0
 91
        1
 62
     0
 92
       -2
340
14
 93
        0
 40
0.045
309
GRIDFORMAT_END
 95
       32
302
GRIDFORMAT
  1
GRIDFORMAT_BEGIN
 90
        0
 91
        1
 62
     0
 92
       -2
340
14
 93
        0
 40
0.045
309
GRIDFORMAT_END
309
TABLEFORMAT_END
  1
CELLSTYLE_BEGIN
 90
        3
 91
        2
300
_DATA
309
CELLSTYLE_END
  0
ENDSEC
  0
EOF
