  0
SECTION
  2
HEADER
  9
$ACADVER
  1
AC1014
  9
$DWGCODEPAGE
  3
ANSI_1252
  9
$INSBASE
 10
0.0
 20
0.0
 30
0.0
  9
$EXTMIN
 10
-136.37553639
 20
-279.9234619
  9
$EXTMAX
 10
171.40582732
 20
143.47120596
  9
$LIMMIN
 10
-136.37553639
 20
-279.9234619
  9
$LIMMAX
 10
171.40582732
 20
143.47120596
  9
$ORTHOMODE
 70
     0
  9
$REGENMODE
 70
     1
  9
$FILLMODE
 70
     1
  9
$QTEXTMODE
 70
     0
  9
$MIRRTEXT
 70
     1
  9
$DRAGMODE
 70
     2
  9
$LTSCALE
 40
1.0
  9
$OSMODE
 70
     0
  9
$ATTMODE
 70
     1
  9
$TEXTSIZE
 40
3.5
  9
$TRACEWID
 40
1.0
  9
$TEXTSTYLE
  7
STANDARD
  9
$CLAYER
  8
0
  9
$CELTYPE
  6
BYLAYER
  9
$CECOLOR
 62
   256
  9
$DIMSCALE
 40
1.0
  9
$DIMASZ
 40
2.0
  9
$DIMEXO
 40
5.0
  9
$DIMDLI
 40
10.0
  9
$DIMRND
 40
0.0
  9
$DIMDLE
 40
2.0
  9
$DIMEXE
 40
2.0
  9
$DIMTP
 40
0.0
  9
$DIMTM
 40
0.0
  9
$DIMTXT
 40
2.5
  9
$DIMCEN
 40
1.5
  9
$DIMTSZ
 40
0.0
  9
$DIMTOL
 70
     0
  9
$DIMLIM
 70
     0
  9
$DIMTIH
 70
     1
  9
$DIMTOH
 70
     0
  9
$DIMSE1
 70
     0
  9
$DIMSE2
 70
     0
  9
$DIMTAD
 70
     1
  9
$DIMZIN
 70
     8
  9
$DIMBLK
  1

  9
$DIMASO
 70
     1
  9
$DIMSHO
 70
     1
  9
$DIMPOST
  1

  9
$DIMAPOST
  1

  9
$DIMALT
 70
     0
  9
$DIMALTD
 70
     2
  9
$DIMALTF
 40
25.4
  9
$DIMLFAC
 40
1.0
  9
$DIMTOFL
 70
     0
  9
$DIMTVP
 40
0.0
  9
$DIMTIX
 70
     0
  9
$DIMSOXD
 70
     0
  9
$DIMSAH
 70
     0
  9
$DIMBLK1
  1

  9
$DIMBLK2
  1

  9
$DIMSTYLE
  2
*UNNAMED
  9
$DIMCLRD
 70
     9
  9
$DIMCLRE
 70
     9
  9
$DIMCLRT
 70
     7
  9
$DIMTFAC
 40
1.0
  9
$DIMGAP
 40
0.09
  9
$DIMUNIT
 70
     2
  9
$LUNITS
 70
     2
  9
$LUPREC
 70
     6
  9
$AXISMODE
 70
     0
  9
$AXISUNIT
 10
0.0
 20
0.0
  9
$SKETCHINC
 40
0.1
  9
$FILLETRAD
 40
0.0
  9
$AUNITS
 70
     0
  9
$AUPREC
 70
     0
  9
$MENU
  1
ACAD
  9
$ELEVATION
 40
0.0
  9
$PELEVATION
 40
0.0
  9
$THICKNESS
 40
0.0
  9
$LIMCHECK
 70
     0
  9
$BLIPMODE
 70
     1
  9
$CHAMFERA
 40
0.0
  9
$CHAMFERB
 40
0.0
  9
$SKPOLY
 70
     1
  9
$TDCREATE
 40
2458946.0000000000
  9
$TDUPDATE
 40
2458946.0000000000
  9
$TDINDWG
 40
0.0
  9
$TDUSRTIMER
 40
0.0
  9
$USRTIMER
 70
     1
  9
$ANGBASE
 50
0.0
  9
$ANGDIR
 70
     0
  9
$PDMODE
 70
     0
  9
$PDSIZE
 40
0.0
  9
$PLINEWID
 40
0.0
  9
$COORDS
 70
     2
  9
$SPLFRAME
 70
     0
  9
$SPLINETYPE
 70
     6
  9
$SPLINESEGS
 70
     8
  9
$ATTDIA
 70
     1
  9
$ATTREQ
 70
     1
  9
$HANDLING
 70
     1
  9
$HANDSEED
  5
     306
  9
$SURFTAB1
 70
     6
  9
$SURFTAB2
 70
     6
  9
$SURFTYPE
 70
     6
  9
$SURFU
 70
     6
  9
$SURFV
 70
     6
  9
$UCSNAME
  2

  9
$UCSORG
 10
0.0
 20
0.0
 30
0.0
  9
$UCSXDIR
 10
1.0
 20
0.0
 30
0.0
  9
$UCSYDIR
 10
0.0
 20
1.0
 30
0.0
  9
$PUCSNAME
  2

  9
$PUCSORG
 10
0.0
 20
0.0
 30
0.0
  9
$PUCSXDIR
 10
1.0
 20
0.0
 30
0.0
  9
$PUCSYDIR
 10
0.0
 20
1.0
 30
0.0
  9
$USERI1
 70
     0
  9
$USERI2
 70
     0
  9
$USERI3
 70
     0
  9
$USERI4
 70
     0
  9
$USERI5
 70
     0
  9
$USERR1
 40
0.0
  9
$USERR2
 40
0.0
  9
$USERR3
 40
0.0
  9
$USERR4
 40
0.0
  9
$USERR5
 40
0.0
  9
$WORLDVIEW
 70
     1
  9
$SHADEDGE
 70
     3
  9
$SHADEDIF
 70
    70
  9
$TILEMODE
 70
     1
  9
$MAXACTVP
 70
    16
  9
$PINSBASE
 10
0.0
 20
0.0
 30
0.0
  9
$PLIMCHECK
 70
     0
  9
$PEXTMIN
 10
1.0000000000000E+20
 20
1.0000000000000E+20
 30
1.0000000000000E+20
  9
$PEXTMAX
 10
-1.0000000000000E+20
 20
-1.0000000000000E+20
 30
-1.0000000000000E+20
  9
$PLIMMIN
 10
0.0
 20
0.0
  9
$UNITMODE
 70
     0
  9
$VISRETAIN
 70
     0
  9
$MEASUREMENT
 70
     1
  0
ENDSEC
  0
SECTION
  2
TABLES
  0
TABLE
  2
VPORT
  5
32
100
AcDbSymbolTable
 70
     1
  0
ENDTAB
  0
TABLE
  2
STYLE
  5
33
100
AcDbSymbolTable
 70
     4
  0
STYLE
  5
34
100
AcDbSymbolTableRecord
100
AcDbTextStyleTableRecord
  2
STANDARD
 70
     0
 40
0.0
 41
1.0
 50
0.0
 71
     0
 42
3.5
  3
MONOTXT
  4

  0
STYLE
  5
35
100
AcDbSymbolTableRecord
100
AcDbTextStyleTableRecord
  2
SYMAP
 70
     0
 40
0.0
 41
1.0
 50
0.0
 71
     0
 42
3.5
  3
SYMAP
  4

  0
STYLE
  5
36
100
AcDbSymbolTableRecord
100
AcDbTextStyleTableRecord
  2
CADWORK1
 70
     0
 40
0.0
 41
1.0
 50
0.0
 71
     0
 42
3.5
  3
MONOTXT
  4

  0
STYLE
  5
37
100
AcDbSymbolTableRecord
100
AcDbTextStyleTableRecord
  2
MONOTXT
 70
     0
 40
0.0
 41
1.0
 50
0.0
 71
     0
 42
3.5
  3
MONOTXT
  4

  0
STYLE
  5
38
100
AcDbSymbolTableRecord
100
AcDbTextStyleTableRecord
  2
TAHOMA
 70
     0
 40
0.0
 41
1.0
 50
0.0
 71
     0
 42
3.5
  3

  4

1001
ACAD
1000
Tahoma
1071
        0
  0
STYLE
  5
39
100
AcDbSymbolTableRecord
100
AcDbTextStyleTableRecord
  2
ARIAL
 70
     0
 40
0.0
 41
1.0
 50
0.0
 71
     0
 42
3.5
  3

  4

1001
ACAD
1000
Arial
1071
        0
  0
ENDTAB
  0
TABLE
  2
LTYPE
  5
3A
100
AcDbSymbolTable
 70
    12
  0
LTYPE
  5
3B
100
AcDbSymbolTableRecord
100
AcDbLinetypeTableRecord
  2
BYBLOCK
 70
    64
  3

 72
    65
 73
     0
 40
0.0
  0
LTYPE
  5
3C
100
AcDbSymbolTableRecord
100
AcDbLinetypeTableRecord
  2
BYLAYER
 70
    64
  3

 72
    65
 73
     0
 40
0.0
  0
LTYPE
  5
3D
100
AcDbSymbolTableRecord
100
AcDbLinetypeTableRecord
  2
CONTINUOUS
 70
    64
  3
Solid line
 72
    65
 73
     0
 40
0.0
  0
LTYPE
  5
3E
100
AcDbSymbolTableRecord
100
AcDbLinetypeTableRecord
  2
DOT2
 70
    64
  3
...............................................
 72
    65
 73
     2
 40
1.25
 49
0.0
 74
     0
 49
-1.25
 74
     0
  0
LTYPE
  5
3F
100
AcDbSymbolTableRecord
100
AcDbLinetypeTableRecord
  2
DASHED
 70
    64
  3
__ __ __ __ __ __ __ __ __ __ __ __ __ __ __ __
 72
    65
 73
     2
 40
7.5
 49
5.0
 74
     0
 49
-2.5
 74
     0
  0
LTYPE
  5
40
100
AcDbSymbolTableRecord
100
AcDbLinetypeTableRecord
  2
CADWORK_8
 70
    64
  3
___ ___ _ ___ ___ _ ___ ___ _ ___ ___ _ ___ ___
 72
    65
 73
     6
 40
16.0
 49
6.0
 74
     0
 49
-1.0
 74
     0
 49
6.0
 74
     0
 49
-1.0
 74
     0
 49
1.0
 74
     0
 49
-1.0
 74
     0
  0
LTYPE
  5
41
100
AcDbSymbolTableRecord
100
AcDbLinetypeTableRecord
  2
DAL
 70
    64
  3
Solid line (for MAPS)
 72
    65
 73
     0
 40
0.0
  0
LTYPE
  5
42
100
AcDbSymbolTableRecord
100
AcDbLinetypeTableRecord
  2
MUR
 70
    64
  3
Solid line (for MAPS)
 72
    65
 73
     0
 40
0.0
  0
LTYPE
  5
43
100
AcDbSymbolTableRecord
100
AcDbLinetypeTableRecord
  2
SOM
 70
    64
  3
Solid line (for MAPS)
 72
    65
 73
     0
 40
0.0
  0
LTYPE
  5
44
100
AcDbSymbolTableRecord
100
AcDbLinetypeTableRecord
  2
COL
 70
    64
  3
Solid line (for MAPS)
 72
    65
 73
     0
 40
0.0
  0
LTYPE
  5
45
100
AcDbSymbolTableRecord
100
AcDbLinetypeTableRecord
  2
LGN
 70
    64
  3
Solid line (for MAPS)
 72
    65
 73
     0
 40
0.0
  0
LTYPE
  5
46
100
AcDbSymbolTableRecord
100
AcDbLinetypeTableRecord
  2
PNT
 70
    64
  3
Solid line (for MAPS)
 72
    65
 73
     0
 40
0.0
  0
ENDTAB
  0
TABLE
  2
LAYER
  5
47
100
AcDbSymbolTable
 70
     1
  0
LAYER
  5
48
100
AcDbSymbolTableRecord
100
AcDbLayerTableRecord
  2
0
 70
     0
 62
     1
  6
CONTINUOUS
370
    -3
  0
LAYER
  5
49
100
AcDbSymbolTableRecord
100
AcDbLayerTableRecord
  2
Mst 1_1
 70
     0
 62
     7
  6
CONTINUOUS
370
    -3
  0
ENDTAB
  0
TABLE
  2
VIEW
  5
4A
100
AcDbSymbolTable
 70
     0
  0
ENDTAB
  0
TABLE
  2
UCS
  5
4B
100
AcDbSymbolTable
 70
     0
  0
ENDTAB
  0
TABLE
  2
APPID
  5
4C
100
AcDbSymbolTable
 70
     1
  0
APPID
  5
4D
100
AcDbSymbolTableRecord
100
AcDbRegAppTableRecord
  2
ACAD
 70
     0
  0
ENDTAB
  0
TABLE
  2
DIMSTYLE
  5
4E
100
AcDbSymbolTable
 70
     0
  0
ENDTAB
  0
TABLE
  2
BLOCK_RECORD
  5
4F
100
AcDbSymbolTable
 70
     0
  0
BLOCK_RECORD
  5
50
100
AcDbSymbolTableRecord
100
AcDbBlockTableRecord
  2
*MODEL_SPACE
  0
BLOCK_RECORD
  5
51
100
AcDbSymbolTableRecord
100
AcDbBlockTableRecord
  2
*PAPER_SPACE
  0
BLOCK_RECORD
  5
52
100
AcDbSymbolTableRecord
100
AcDbBlockTableRecord
  2
CDWK_EXTR_0
  0
BLOCK_RECORD
  5
53
100
AcDbSymbolTableRecord
100
AcDbBlockTableRecord
  2
CDWK_EXTR_1D
  0
BLOCK_RECORD
  5
54
100
AcDbSymbolTableRecord
100
AcDbBlockTableRecord
  2
CDWK_EXTR_1G
  0
BLOCK_RECORD
  5
55
100
AcDbSymbolTableRecord
100
AcDbBlockTableRecord
  2
CDWK_EXTR_2
  0
BLOCK_RECORD
  5
56
100
AcDbSymbolTableRecord
100
AcDbBlockTableRecord
  2
CDWK_EXTR_3
  0
BLOCK_RECORD
  5
57
100
AcDbSymbolTableRecord
100
AcDbBlockTableRecord
  2
CDWK_EXTR_4
  0
BLOCK_RECORD
  5
58
100
AcDbSymbolTableRecord
100
AcDbBlockTableRecord
  2
CDWK_PTTYP0
  0
ENDTAB
  0
ENDSEC
  0
SECTION
  2
BLOCKS
  0
BLOCK
  5
59
100
AcDbEntity
  8
0
100
AcDbBlockBegin
  2
*MODEL_SPACE
 70
     0
 10
0.0
 20
0.0
 30
0.0
  3
*MODEL_SPACE
  1

  0
ENDBLK
  5
5A
100
AcDbEntity
100
AcDbBlockEnd
  0
BLOCK
  5
5B
100
AcDbEntity
  8
0
100
AcDbBlockBegin
  2
*PAPER_SPACE
 70
     0
 10
0.0
 20
0.0
 30
0.0
  3
*PAPER_SPACE
  1

  0
ENDBLK
  5
5C
100
AcDbEntity
100
AcDbBlockEnd
  0
BLOCK
  5
5D
100
AcDbEntity
  8
0
100
AcDbBlockBegin
  2
CDWK_EXTR_0
 70
     0
 10
0.0
 20
0.0
 30
0.0
  3
CDWK_EXTR_0
  1

  4
Cadwork line-extremity
  0
LINE
  5
5E
100
AcDbEntity
  8
0
 62
     0
370
    -2
100
AcDbLine
 10
0.0
 20
0.0
 30
0.0
 11
2.0
 21
0.5
 31
0.0
  0
LINE
  5
5F
100
AcDbEntity
  8
0
 62
     0
370
    -2
100
AcDbLine
 10
0.0
 20
0.0
 30
0.0
 11
2.0
 21
-0.5
 31
0.0
  0
LINE
  5
60
100
AcDbEntity
  8
0
 62
     0
370
    -2
100
AcDbLine
 10
2.0
 20
0.5
 30
0.0
 11
2.0
 21
-0.5
 31
0.0
  0
ENDBLK
  5
61
100
AcDbEntity
100
AcDbBlockEnd
  0
BLOCK
  5
62
100
AcDbEntity
  8
0
100
AcDbBlockBegin
  2
CDWK_EXTR_1D
 70
     0
 10
0.0
 20
0.0
 30
0.0
  3
CDWK_EXTR_1D
  1

  4
Cadwork line-extremity
  0
LINE
  5
63
100
AcDbEntity
  8
0
 62
     0
370
    -2
100
AcDbLine
 10
0.0
 20
0.0
 30
0.0
 11
0.0
 21
1.0
 31
0.0
  0
LINE
  5
64
100
AcDbEntity
  8
0
 62
     0
370
    -2
100
AcDbLine
 10
0.0
 20
1.0
 30
0.0
 11
0.5
 21
1.5
 31
0.0
  0
LINE
  5
65
100
AcDbEntity
  8
0
 62
     0
370
    -2
100
AcDbLine
 10
0.5
 20
1.5
 30
0.0
 11
1.5
 21
1.5
 31
0.0
  0
ENDBLK
  5
66
100
AcDbEntity
100
AcDbBlockEnd
  0
BLOCK
  5
67
100
AcDbEntity
  8
0
100
AcDbBlockBegin
  2
CDWK_EXTR_1G
 70
     0
 10
0.0
 20
0.0
 30
0.0
  3
CDWK_EXTR_1G
  1

  4
Cadwork line-extremity
  0
LINE
  5
68
100
AcDbEntity
  8
0
 62
     0
370
    -2
100
AcDbLine
 10
0.0
 20
0.0
 30
0.0
 11
0.0
 21
-1.0
 31
0.0
  0
LINE
  5
69
100
AcDbEntity
  8
0
 62
     0
370
    -2
100
AcDbLine
 10
0.0
 20
-1.0
 30
0.0
 11
0.5
 21
-1.5
 31
0.0
  0
LINE
  5
6A
100
AcDbEntity
  8
0
 62
     0
370
    -2
100
AcDbLine
 10
0.5
 20
-1.5
 30
0.0
 11
1.5
 21
-1.5
 31
0.0
  0
ENDBLK
  5
6B
100
AcDbEntity
100
AcDbBlockEnd
  0
BLOCK
  5
6C
100
AcDbEntity
  8
0
100
AcDbBlockBegin
  2
CDWK_EXTR_2
 70
     0
 10
0.0
 20
0.0
 30
0.0
  3
CDWK_EXTR_2
  1

  4
Cadwork line-extremity
  0
SOLID
  5
6D
100
AcDbEntity
  8
0
 62
     0
100
AcDbTrace
 10
0.0
 20
0.0
 11
2.0
 21
0.5
 12
2.0
 22
-0.5
 13
2.0
 23
-0.5
  0
ENDBLK
  5
6E
100
AcDbEntity
100
AcDbBlockEnd
  0
BLOCK
  5
6F
100
AcDbEntity
  8
0
100
AcDbBlockBegin
  2
CDWK_EXTR_3
 70
     0
 10
0.0
 20
0.0
 30
0.0
  3
CDWK_EXTR_3
  1

  4
Cadwork line-extremity
  0
SOLID
  5
70
100
AcDbEntity
  8
0
 62
     0
100
AcDbTrace
 10
0.0
 20
0.0
 11
2.0
 21
0.5
 12
2.0
 22
-0.5
 13
2.0
 23
-0.5
  0
LINE
  5
71
100
AcDbEntity
  8
0
 62
     0
370
    -2
100
AcDbLine
 10
0.0
 20
1.0
 30
0.0
 11
0.0
 21
-1.0
 31
0.0
  0
ENDBLK
  5
72
100
AcDbEntity
100
AcDbBlockEnd
  0
BLOCK
  5
73
100
AcDbEntity
  8
0
100
AcDbBlockBegin
  2
CDWK_EXTR_4
 70
     0
 10
0.0
 20
0.0
 30
0.0
  3
CDWK_EXTR_4
  1

  4
Cadwork line-extremity
  0
HATCH
  5
74
100
AcDbEntity
  8
0
 62
     0
370
    -2
100
AcDbHatch
 10
0.0
 20
0.0
 30
0.0
210
0.0
220
0.0
230
1.0
  2
SOLID
 70
     1
 71
     0
 91
        1
 92
        1
 93
        1
 72
     2
 10
0.0
 20
0.0
 40
0.5
 50
0.0
 51
360.0
 73
     1
 97
        0
 75
     0
 76
     1
 98
        1
 10
0.0
 20
0.0
  0
ENDBLK
  5
75
100
AcDbEntity
100
AcDbBlockEnd
  0
BLOCK
  5
76
100
AcDbEntity
  8
0
100
AcDbBlockBegin
  2
CDWK_PTTYP0
 70
     0
 10
0.0
 20
0.0
 30
0.0
  3
CDWK_PTTYP0
  1

  4
Cadwork point
  0
POINT
  5
77
100
AcDbEntity
  8
0
 62
     0
100
AcDbPoint
 10
0.0
 20
0.0
 30
0.0
  0
ENDBLK
  5
78
100
AcDbEntity
100
AcDbBlockEnd
  0
ENDSEC
  0
SECTION
  2
ENTITIES
  0
MTEXT
  5
79
100
AcDbEntity
  8
Mst 1_1
 62
     0
100
AcDbMText
 10
-117.9942187
 20
123.53680905
 30
2500.0
 11
1.0
 21
0.0
 31
0.0
 40
20.0
 41
192.96164595
 71
     1
 72
     1
  1
\fTahoma|b0|i0|c0|p18;\H20;\W0.80000001;\C7;Fassadenschrauben\PPROFIX PRO-UNX A2\P250.112.xxxxx
  0
LWPOLYLINE
  5
7A
102
{ACAD_REACTORS
330
7B
102
}
100
AcDbEntity
  8
Mst 1_1
 62
    12
100
AcDbPolyline
 90
       46
 70
     1
 43
0.0
 10
159.73061156
 20
134.10255905
 10
159.59979022
 20
134.11319739
 10
159.47564089
 20
134.14398572
 10
159.35983556
 20
134.19323405
 10
159.25404622
 20
134.25925239
 10
159.15994489
 20
134.34035072
 10
159.07920356
 20
134.43483905
 10
159.01349422
 20
134.54102739
 10
158.96448889
 20
134.65722572
 10
158.93385956
 20
134.78174405
 10
158.92327822
 20
134.91289239
 10
158.92327822
 20
134.91289239
 10
158.93385956
 20
135.04410455
 10
158.96448889
 20
135.16870972
 10
159.01349422
 20
135.28501089
 10
159.07920356
 20
135.39131105
 10
159.15994489
 20
135.48591322
 10
159.25404622
 20
135.56712039
 10
159.35983556
 20
135.63323555
 10
159.47564089
 20
135.68256172
 10
159.59979022
 20
135.71340189
 10
159.73061156
 20
135.72405905
 10
159.73061156
 20
135.72405905
 10
159.86126622
 20
135.71340189
 10
159.98530889
 20
135.68256172
 10
160.10105756
 20
135.63323555
 10
160.20683022
 20
135.56712039
 10
160.30094489
 20
135.48591322
 10
160.38171956
 20
135.39131105
 10
160.44747222
 20
135.28501089
 10
160.49652089
 20
135.16870972
 10
160.52718356
 20
135.04410455
 10
160.53777822
 20
134.91289239
 10
160.53777822
 20
134.91289239
 10
160.52718356
 20
134.78174405
 10
160.49652089
 20
134.65722572
 10
160.44747222
 20
134.54102739
 10
160.38171956
 20
134.43483905
 10
160.30094489
 20
134.34035072
 10
160.20683022
 20
134.25925239
 10
160.10105756
 20
134.19323405
 10
159.98530889
 20
134.14398572
 10
159.86126622
 20
134.11319739
 10
159.73061156
 20
134.10255905
 10
159.73061156
 20
134.10255905
 10
159.73061156
 20
134.10255905
  0
HATCH
  5
7B
100
AcDbEntity
  8
Mst 1_1
 62
    12
100
AcDbHatch
 10
0.0
 20
0.0
 30
0.0
210
0.0
220
0.0
230
1.0
  2
SOLID
 70
     1
 71
     1
 91
        1
 92
        7
 72
     0
 73
     1
 93
       40
 10
159.73061156
 20
134.10255905
 10
159.59979022
 20
134.11319739
 10
159.47564089
 20
134.14398572
 10
159.35983556
 20
134.19323405
 10
159.25404622
 20
134.25925239
 10
159.15994489
 20
134.34035072
 10
159.07920356
 20
134.43483905
 10
159.01349422
 20
134.54102739
 10
158.96448889
 20
134.65722572
 10
158.93385956
 20
134.78174405
 10
158.92327822
 20
134.91289239
 10
158.93385956
 20
135.04410455
 10
158.96448889
 20
135.16870972
 10
159.01349422
 20
135.28501089
 10
159.07920356
 20
135.39131105
 10
159.15994489
 20
135.48591322
 10
159.25404622
 20
135.56712039
 10
159.35983556
 20
135.63323555
 10
159.47564089
 20
135.68256172
 10
159.59979022
 20
135.71340189
 10
159.73061156
 20
135.72405905
 10
159.86126622
 20
135.71340189
 10
159.98530889
 20
135.68256172
 10
160.10105756
 20
135.63323555
 10
160.20683022
 20
135.56712039
 10
160.30094489
 20
135.48591322
 10
160.38171956
 20
135.39131105
 10
160.44747222
 20
135.28501089
 10
160.49652089
 20
135.16870972
 10
160.52718356
 20
135.04410455
 10
160.53777822
 20
134.91289239
 10
160.52718356
 20
134.78174405
 10
160.49652089
 20
134.65722572
 10
160.44747222
 20
134.54102739
 10
160.38171956
 20
134.43483905
 10
160.30094489
 20
134.34035072
 10
160.20683022
 20
134.25925239
 10
160.10105756
 20
134.19323405
 10
159.98530889
 20
134.14398572
 10
159.86126622
 20
134.11319739
 97
        1
330
7A
 75
     0
 76
     2
 47
0.775229
 98
        1
 10
0.0
 20
0.0
  0
LWPOLYLINE
  5
7C
102
{ACAD_REACTORS
330
7D
102
}
100
AcDbEntity
  8
Mst 1_1
 62
    12
100
AcDbPolyline
 90
        8
 70
     1
 43
0.0
 10
92.26561156
 20
133.53680905
 10
158.23344489
 20
133.53680905
 10
158.23344489
 20
133.53680905
 10
158.23344489
 20
116.95555905
 10
158.23344489
 20
116.95555905
 10
92.26561156
 20
116.95555905
 10
92.26561156
 20
116.95555905
 10
92.26561156
 20
133.53680905
  0
HATCH
  5
7D
100
AcDbEntity
  8
Mst 1_1
 62
    12
100
AcDbHatch
 10
0.0
 20
0.0
 30
0.0
210
0.0
220
0.0
230
1.0
  2
SOLID
 70
     1
 71
     1
 91
        1
 92
        7
 72
     0
 73
     1
 93
        4
 10
92.26561156
 20
133.53680905
 10
158.23344489
 20
133.53680905
 10
158.23344489
 20
116.95555905
 10
92.26561156
 20
116.95555905
 97
        1
330
7C
 75
     0
 76
     2
 47
0.775229
 98
        1
 10
0.0
 20
0.0
  0
LINE
  5
7E
100
AcDbEntity
  8
Mst 1_1
100
AcDbLine
 10
92.26561156
 20
116.95555905
 30
0.0
 11
92.26561156
 21
116.95555905
 31
0.0
  0
LINE
  5
7F
100
AcDbEntity
  8
Mst 1_1
100
AcDbLine
 10
92.26561156
 20
116.95555905
 30
0.0
 11
92.26561156
 21
116.95555905
 31
0.0
  0
LINE
  5
80
100
AcDbEntity
  8
Mst 1_1
100
AcDbLine
 10
92.26561156
 20
116.95555905
 30
0.0
 11
92.26561156
 21
116.95555905
 31
0.0
  0
LINE
  5
81
100
AcDbEntity
  8
Mst 1_1
100
AcDbLine
 10
92.26561156
 20
116.95555905
 30
0.0
 11
92.26561156
 21
116.95555905
 31
0.0
  0
LINE
  5
82
100
AcDbEntity
  8
Mst 1_1
100
AcDbLine
 10
92.26561156
 20
116.95555905
 30
0.0
 11
92.26561156
 21
116.95555905
 31
0.0
  0
LINE
  5
83
100
AcDbEntity
  8
Mst 1_1
100
AcDbLine
 10
92.26561156
 20
116.95555905
 30
0.0
 11
92.26561156
 21
116.95555905
 31
0.0
  0
LINE
  5
84
100
AcDbEntity
  8
Mst 1_1
100
AcDbLine
 10
92.26561156
 20
116.95555905
 30
0.0
 11
92.26561156
 21
116.95555905
 31
0.0
  0
LINE
  5
85
100
AcDbEntity
  8
Mst 1_1
100
AcDbLine
 10
92.26561156
 20
116.95555905
 30
0.0
 11
92.26561156
 21
116.95555905
 31
0.0
  0
LINE
  5
86
100
AcDbEntity
  8
Mst 1_1
100
AcDbLine
 10
92.26561156
 20
116.95555905
 30
0.0
 11
92.26561156
 21
116.95555905
 31
0.0
  0
LINE
  5
87
100
AcDbEntity
  8
Mst 1_1
100
AcDbLine
 10
92.26561156
 20
116.95555905
 30
0.0
 11
92.26561156
 21
116.95555905
 31
0.0
  0
LINE
  5
88
100
AcDbEntity
  8
Mst 1_1
100
AcDbLine
 10
92.26561156
 20
116.95555905
 30
0.0
 11
92.26561156
 21
116.95555905
 31
0.0
  0
LWPOLYLINE
  5
89
102
{ACAD_REACTORS
330
8A
102
}
100
AcDbEntity
  8
Mst 1_1
 62
     7
370
     9
100
AcDbPolyline
 90
        8
 70
     1
 43
0.0
 10
125.07211156
 20
132.38714239
 10
157.08694489
 20
132.38714239
 10
157.08694489
 20
132.38714239
 10
157.08694489
 20
118.10339072
 10
157.08694489
 20
118.10339072
 10
125.07211156
 20
118.10339072
 10
125.07211156
 20
118.10339072
 10
125.07211156
 20
132.38714239
  0
HATCH
  5
8A
100
AcDbEntity
  8
Mst 1_1
 62
     7
100
AcDbHatch
 10
0.0
 20
0.0
 30
0.0
210
0.0
220
0.0
230
1.0
  2
SOLID
 70
     1
 71
     1
 91
        1
 92
        7
 72
     0
 73
     1
 93
        4
 10
125.07211156
 20
132.38714239
 10
157.08694489
 20
132.38714239
 10
157.08694489
 20
118.10339072
 10
125.07211156
 20
118.10339072
 97
        1
330
89
 75
     0
 76
     2
 47
0.775229
 98
        1
 10
0.0
 20
0.0
  0
LWPOLYLINE
  5
8B
102
{ACAD_REACTORS
330
8C
102
}
100
AcDbEntity
  8
Mst 1_1
 62
    12
100
AcDbPolyline
 90
       22
 70
     1
 43
0.0
 10
126.98994489
 20
120.39665905
 10
126.98994489
 20
129.48317572
 10
126.98994489
 20
129.48317572
 10
135.16927822
 20
129.48317572
 10
135.16927822
 20
129.48317572
 10
135.16927822
 20
127.01882572
 10
135.16927822
 20
127.01882572
 10
131.39327822
 20
127.01882572
 10
131.39327822
 20
127.01882572
 10
131.39327822
 20
125.96420905
 10
131.39327822
 20
125.96420905
 10
134.81094489
 20
125.96420905
 10
134.81094489
 20
125.96420905
 10
134.81094489
 20
123.63640905
 10
134.81094489
 20
123.63640905
 10
131.39327822
 20
123.63640905
 10
131.39327822
 20
123.63640905
 10
131.39327822
 20
120.39665905
 10
131.39327822
 20
120.39665905
 10
126.98994489
 20
120.39665905
 10
126.98994489
 20
120.39665905
 10
126.98994489
 20
120.39665905
  0
HATCH
  5
8C
100
AcDbEntity
  8
Mst 1_1
 62
    12
100
AcDbHatch
 10
0.0
 20
0.0
 30
0.0
210
0.0
220
0.0
230
1.0
  2
SOLID
 70
     1
 71
     1
 91
        1
 92
        7
 72
     0
 73
     1
 93
       10
 10
126.98994489
 20
120.39665905
 10
126.98994489
 20
129.48317572
 10
135.16927822
 20
129.48317572
 10
135.16927822
 20
127.01882572
 10
131.39327822
 20
127.01882572
 10
131.39327822
 20
125.96420905
 10
134.81094489
 20
125.96420905
 10
134.81094489
 20
123.63640905
 10
131.39327822
 20
123.63640905
 10
131.39327822
 20
120.39665905
 97
        1
330
8B
 75
     0
 76
     2
 47
0.775229
 98
        1
 10
0.0
 20
0.0
  0
LWPOLYLINE
  5
8D
102
{ACAD_REACTORS
330
8E
102
}
100
AcDbEntity
  8
Mst 1_1
 62
     7
370
     9
100
AcDbPolyline
 90
      178
 70
     1
 43
0.0
 10
123.21461156
 20
124.92180905
 10
123.21103956
 20
124.72364234
 10
123.20033556
 20
124.52817532
 10
123.18251756
 20
124.3354277
 10
123.15760356
 20
124.14541919
 10
123.12561156
 20
123.95816947
 10
123.08655956
 20
123.77369825
 10
123.04046556
 20
123.59202524
 10
122.98734756
 20
123.41317012
 10
122.92722356
 20
123.2371526
 10
122.86011156
 20
123.06399239
 10
122.86011156
 20
123.06399239
 10
122.78637856
 20
122.89351852
 10
122.70598756
 20
122.72677145
 10
122.61895056
 20
122.56374299
 10
122.52527956
 20
122.40442492
 10
122.42498656
 20
122.24880905
 10
122.31808356
 20
122.09688719
 10
122.20458256
 20
121.94865112
 10
122.08449556
 20
121.80409265
 10
121.95783456
 20
121.66320359
 10
121.82461156
 20
121.52597572
 10
121.82461156
 20
121.52597572
 10
121.68587289
 20
121.39619494
 10
121.54296222
 20
121.27262745
 10
121.39588756
 20
121.15528057
 10
121.24465689
 20
121.04416159
 10
121.08927822
 20
120.9392778
 10
120.92975956
 20
120.84063652
 10
120.76610889
 20
120.74824504
 10
120.59833422
 20
120.66211065
 10
120.42644356
 20
120.58224067
 10
120.25044489
 20
120.50864239
 10
120.25044489
 20
120.50864239
 10
120.07139689
 20
120.44164425
 10
119.88988089
 20
120.38158732
 10
119.70593889
 20
120.32849779
 10
119.51961289
 20
120.28240185
 10
119.33094489
 20
120.24332572
 10
119.13997689
 20
120.21129559
 10
118.94675089
 20
120.18633765
 10
118.75130889
 20
120.16847812
 10
118.55369289
 20
120.15774319
 10
118.35394489
 20
120.15415905
 10
118.35394489
 20
120.15415905
 10
118.15202456
 20
120.15774319
 10
117.95258222
 20
120.16847812
 10
117.75564589
 20
120.18633765
 10
117.56124356
 20
120.21129559
 10
117.36940322
 20
120.24332572
 10
117.18015289
 20
120.28240185
 10
116.99352056
 20
120.32849779
 10
116.80953422
 20
120.38158732
 10
116.62822189
 20
120.44164425
 10
116.44961156
 20
120.50864239
 10
116.44961156
 20
120.50864239
 10
116.27368506
 20
120.58235802
 10
116.10179956
 20
120.66258145
 10
115.93394606
 20
120.74930749
 10
115.77011556
 20
120.84253092
 10
115.61029906
 20
120.94224655
 10
115.45448756
 20
121.04844919
 10
115.30267206
 20
121.16113362
 10
115.15484356
 20
121.28029465
 10
115.01099306
 20
121.40592709
 10
114.87111156
 20
121.53802572
 10
114.87111156
 20
121.53802572
 10
114.73955272
 20
121.6718006
 10
114.61440089
 20
121.80954479
 10
114.49569306
 20
121.95124257
 10
114.38346622
 20
122.09687825
 10
114.27775739
 20
122.24643614
 10
114.17860356
 20
122.39990052
 10
114.08604172
 20
122.5572557
 10
114.00010889
 20
122.71848599
 10
113.92084206
 20
122.88357567
 10
113.84827822
 20
123.05250905
 10
113.84827822
 20
123.05250905
 10
113.78246039
 20
123.2256317
 10
113.72351556
 20
123.40183625
 10
113.67145672
 20
123.5811176
 10
113.62629689
 20
123.76347065
 10
113.58804906
 20
123.9488903
 10
113.55672622
 20
124.13737145
 10
113.53234139
 20
124.328909
 10
113.51490756
 20
124.52349785
 10
113.50443772
 20
124.7211329
 10
113.50094489
 20
124.92180905
 10
113.50094489
 20
124.92180905
 10
113.50443772
 20
125.12248109
 10
113.51490756
 20
125.32020332
 10
113.53234139
 20
125.51498495
 10
113.55672622
 20
125.70683519
 10
113.58804906
 20
125.89576322
 10
113.62629689
 20
126.08177825
 10
113.67145672
 20
126.26488949
 10
113.72351556
 20
126.44510612
 10
113.78246039
 20
126.62243735
 10
113.84827822
 20
126.79689239
 10
113.84827822
 20
126.79689239
 10
113.92084206
 20
126.96695884
 10
114.00010889
 20
127.13313199
 10
114.08604172
 20
127.29537254
 10
114.17860356
 20
127.45364119
 10
114.27775739
 20
127.60789864
 10
114.38346622
 20
127.75810559
 10
114.49569306
 20
127.90422274
 10
114.61440089
 20
128.04621079
 10
114.73955272
 20
128.18403044
 10
114.87111156
 20
128.31764239
 10
114.87111156
 20
128.31764239
 10
115.00991539
 20
128.44803422
 10
115.15274222
 20
128.57215705
 10
115.29961506
 20
128.68999189
 10
115.45055689
 20
128.80151972
 10
115.60559072
 20
128.90672155
 10
115.76473956
 20
129.00557839
 10
115.92802639
 20
129.09807122
 10
116.09547422
 20
129.18418105
 10
116.26710606
 20
129.26388889
 10
116.44294489
 20
129.33717572
 10
116.44294489
 20
129.33717572
 10
116.62185889
 20
129.4042073
 10
116.80349689
 20
129.46410439
 10
116.98785289
 20
129.51688547
 10
117.17492089
 20
129.56256905
 10
117.36469489
 20
129.60117364
 10
117.55716889
 20
129.63271772
 10
117.75233689
 20
129.6572198
 10
117.95019289
 20
129.67469839
 10
118.15073089
 20
129.68517197
 10
118.35394489
 20
129.68865905
 10
118.35394489
 20
129.68865905
 10
118.55731656
 20
129.68517197
 10
118.75801822
 20
129.67469839
 10
118.95602989
 20
129.6572198
 10
119.15133156
 20
129.63271772
 10
119.34390322
 20
129.60117364
 10
119.53372489
 20
129.56256905
 10
119.72077656
 20
129.51688547
 10
119.90503822
 20
129.46410439
 10
120.08648989
 20
129.4042073
 10
120.26511156
 20
129.33717572
 10
120.26511156
 20
129.33717572
 10
120.44111422
 20
129.26388889
 10
120.61303289
 20
129.18418105
 10
120.78088356
 20
129.09807122
 10
120.94468222
 20
129.00557839
 10
121.10444489
 20
128.90672155
 10
121.26018756
 20
128.80151972
 10
121.41192622
 20
128.68999189
 10
121.55967689
 20
128.57215705
 10
121.70345556
 20
128.44803422
 10
121.84327822
 20
128.31764239
 10
121.84327822
 20
128.31764239
 10
121.97362306
 20
128.18286787
 10
122.09773689
 20
128.04404025
 10
122.21558872
 20
127.90118344
 10
122.32714756
 20
127.75432132
 10
122.43238239
 20
127.6034778
 10
122.53126222
 20
127.44867679
 10
122.62375606
 20
127.28994217
 10
122.70983289
 20
127.12729785
 10
122.78946172
 20
126.96076774
 10
122.86261156
 20
126.79037572
 10
122.86261156
 20
126.79037572
 10
122.92965356
 20
126.6160838
 10
122.98958756
 20
126.43900639
 10
123.04242556
 20
126.25914097
 10
123.08817956
 20
126.07648505
 10
123.12686156
 20
125.89103614
 10
123.15848356
 20
125.70279172
 10
123.18305756
 20
125.5117493
 10
123.20059556
 20
125.31790639
 10
123.21110956
 20
125.12126047
 10
123.21461156
 20
124.92180905
 10
123.21461156
 20
124.92180905
 10
123.21461156
 20
124.92180905
  0
HATCH
  5
8E
100
AcDbEntity
  8
Mst 1_1
 62
     7
100
AcDbHatch
 10
0.0
 20
0.0
 30
0.0
210
0.0
220
0.0
230
1.0
  2
SOLID
 70
     1
 71
     1
 91
        1
 92
        7
 72
     0
 73
     1
 93
      160
 10
123.21461156
 20
124.92180905
 10
123.21103956
 20
124.72364234
 10
123.20033556
 20
124.52817532
 10
123.18251756
 20
124.3354277
 10
123.15760356
 20
124.14541919
 10
123.12561156
 20
123.95816947
 10
123.08655956
 20
123.77369825
 10
123.04046556
 20
123.59202524
 10
122.98734756
 20
123.41317012
 10
122.92722356
 20
123.2371526
 10
122.86011156
 20
123.06399239
 10
122.78637856
 20
122.89351852
 10
122.70598756
 20
122.72677145
 10
122.61895056
 20
122.56374299
 10
122.52527956
 20
122.40442492
 10
122.42498656
 20
122.24880905
 10
122.31808356
 20
122.09688719
 10
122.20458256
 20
121.94865112
 10
122.08449556
 20
121.80409265
 10
121.95783456
 20
121.66320359
 10
121.82461156
 20
121.52597572
 10
121.68587289
 20
121.39619494
 10
121.54296222
 20
121.27262745
 10
121.39588756
 20
121.15528057
 10
121.24465689
 20
121.04416159
 10
121.08927822
 20
120.9392778
 10
120.92975956
 20
120.84063652
 10
120.76610889
 20
120.74824504
 10
120.59833422
 20
120.66211065
 10
120.42644356
 20
120.58224067
 10
120.25044489
 20
120.50864239
 10
120.07139689
 20
120.44164425
 10
119.88988089
 20
120.38158732
 10
119.70593889
 20
120.32849779
 10
119.51961289
 20
120.28240185
 10
119.33094489
 20
120.24332572
 10
119.13997689
 20
120.21129559
 10
118.94675089
 20
120.18633765
 10
118.75130889
 20
120.16847812
 10
118.55369289
 20
120.15774319
 10
118.35394489
 20
120.15415905
 10
118.15202456
 20
120.15774319
 10
117.95258222
 20
120.16847812
 10
117.75564589
 20
120.18633765
 10
117.56124356
 20
120.21129559
 10
117.36940322
 20
120.24332572
 10
117.18015289
 20
120.28240185
 10
116.99352056
 20
120.32849779
 10
116.80953422
 20
120.38158732
 10
116.62822189
 20
120.44164425
 10
116.44961156
 20
120.50864239
 10
116.27368506
 20
120.58235802
 10
116.10179956
 20
120.66258145
 10
115.93394606
 20
120.74930749
 10
115.77011556
 20
120.84253092
 10
115.61029906
 20
120.94224655
 10
115.45448756
 20
121.04844919
 10
115.30267206
 20
121.16113362
 10
115.15484356
 20
121.28029465
 10
115.01099306
 20
121.40592709
 10
114.87111156
 20
121.53802572
 10
114.73955272
 20
121.6718006
 10
114.61440089
 20
121.80954479
 10
114.49569306
 20
121.95124257
 10
114.38346622
 20
122.09687825
 10
114.27775739
 20
122.24643614
 10
114.17860356
 20
122.39990052
 10
114.08604172
 20
122.5572557
 10
114.00010889
 20
122.71848599
 10
113.92084206
 20
122.88357567
 10
113.84827822
 20
123.05250905
 10
113.78246039
 20
123.2256317
 10
113.72351556
 20
123.40183625
 10
113.67145672
 20
123.5811176
 10
113.62629689
 20
123.76347065
 10
113.58804906
 20
123.9488903
 10
113.55672622
 20
124.13737145
 10
113.53234139
 20
124.328909
 10
113.51490756
 20
124.52349785
 10
113.50443772
 20
124.7211329
 10
113.50094489
 20
124.92180905
 10
113.50443772
 20
125.12248109
 10
113.51490756
 20
125.32020332
 10
113.53234139
 20
125.51498495
 10
113.55672622
 20
125.70683519
 10
113.58804906
 20
125.89576322
 10
113.62629689
 20
126.08177825
 10
113.67145672
 20
126.26488949
 10
113.72351556
 20
126.44510612
 10
113.78246039
 20
126.62243735
 10
113.84827822
 20
126.79689239
 10
113.92084206
 20
126.96695884
 10
114.00010889
 20
127.13313199
 10
114.08604172
 20
127.29537254
 10
114.17860356
 20
127.45364119
 10
114.27775739
 20
127.60789864
 10
114.38346622
 20
127.75810559
 10
114.49569306
 20
127.90422274
 10
114.61440089
 20
128.04621079
 10
114.73955272
 20
128.18403044
 10
114.87111156
 20
128.31764239
 10
115.00991539
 20
128.44803422
 10
115.15274222
 20
128.57215705
 10
115.29961506
 20
128.68999189
 10
115.45055689
 20
128.80151972
 10
115.60559072
 20
128.90672155
 10
115.76473956
 20
129.00557839
 10
115.92802639
 20
129.09807122
 10
116.09547422
 20
129.18418105
 10
116.26710606
 20
129.26388889
 10
116.44294489
 20
129.33717572
 10
116.62185889
 20
129.4042073
 10
116.80349689
 20
129.46410439
 10
116.98785289
 20
129.51688547
 10
117.17492089
 20
129.56256905
 10
117.36469489
 20
129.60117364
 10
117.55716889
 20
129.63271772
 10
117.75233689
 20
129.6572198
 10
117.95019289
 20
129.67469839
 10
118.15073089
 20
129.68517197
 10
118.35394489
 20
129.68865905
 10
118.55731656
 20
129.68517197
 10
118.75801822
 20
129.67469839
 10
118.95602989
 20
129.6572198
 10
119.15133156
 20
129.63271772
 10
119.34390322
 20
129.60117364
 10
119.53372489
 20
129.56256905
 10
119.72077656
 20
129.51688547
 10
119.90503822
 20
129.46410439
 10
120.08648989
 20
129.4042073
 10
120.26511156
 20
129.33717572
 10
120.44111422
 20
129.26388889
 10
120.61303289
 20
129.18418105
 10
120.78088356
 20
129.09807122
 10
120.94468222
 20
129.00557839
 10
121.10444489
 20
128.90672155
 10
121.26018756
 20
128.80151972
 10
121.41192622
 20
128.68999189
 10
121.55967689
 20
128.57215705
 10
121.70345556
 20
128.44803422
 10
121.84327822
 20
128.31764239
 10
121.97362306
 20
128.18286787
 10
122.09773689
 20
128.04404025
 10
122.21558872
 20
127.90118344
 10
122.32714756
 20
127.75432132
 10
122.43238239
 20
127.6034778
 10
122.53126222
 20
127.44867679
 10
122.62375606
 20
127.28994217
 10
122.70983289
 20
127.12729785
 10
122.78946172
 20
126.96076774
 10
122.86261156
 20
126.79037572
 10
122.92965356
 20
126.6160838
 10
122.98958756
 20
126.43900639
 10
123.04242556
 20
126.25914097
 10
123.08817956
 20
126.07648505
 10
123.12686156
 20
125.89103614
 10
123.15848356
 20
125.70279172
 10
123.18305756
 20
125.5117493
 10
123.20059556
 20
125.31790639
 10
123.21110956
 20
125.12126047
 97
        1
330
8D
 75
     0
 76
     2
 47
0.775229
 98
        1
 10
0.0
 20
0.0
  0
LWPOLYLINE
  5
8F
102
{ACAD_REACTORS
330
90
102
}
100
AcDbEntity
  8
Mst 1_1
 62
    12
100
AcDbPolyline
 90
       90
 70
     1
 43
0.0
 10
118.35394489
 20
123.20762572
 10
118.48916206
 20
123.21236104
 10
118.61892222
 20
123.22654425
 10
118.74323839
 20
123.25014127
 10
118.86212356
 20
123.28311799
 10
118.97559072
 20
123.3254403
 10
119.08365289
 20
123.37707412
 10
119.18632306
 20
123.43798534
 10
119.28361422
 20
123.50813985
 10
119.37553939
 20
123.58750357
 10
119.46211156
 20
123.67604239
 10
119.46211156
 20
123.67604239
 10
119.54180406
 20
123.7731674
 10
119.61317156
 20
123.87628852
 10
119.67619906
 20
123.98544484
 10
119.73087156
 20
124.10067545
 10
119.77717406
 20
124.22201947
 10
119.81509156
 20
124.34951599
 10
119.84460906
 20
124.4832041
 10
119.86571156
 20
124.62312292
 10
119.87838406
 20
124.76931154
 10
119.88261156
 20
124.92180905
 10
119.88261156
 20
124.92180905
 10
119.87838406
 20
125.07505459
 10
119.86571156
 20
125.22206332
 10
119.84460906
 20
125.36286845
 10
119.81509156
 20
125.49750319
 10
119.77717406
 20
125.62600072
 10
119.73087156
 20
125.74839425
 10
119.67619906
 20
125.86471699
 10
119.61317156
 20
125.97500212
 10
119.54180406
 20
126.07928285
 10
119.46211156
 20
126.17759239
 10
119.46211156
 20
126.17759239
 10
119.37553939
 20
126.26761777
 10
119.28361422
 20
126.34823345
 10
119.18632306
 20
126.41942374
 10
119.08365289
 20
126.48117292
 10
118.97559072
 20
126.5334653
 10
118.86212356
 20
126.57628519
 10
118.74323839
 20
126.60961687
 10
118.61892222
 20
126.63344465
 10
118.48916206
 20
126.64775284
 10
118.35394489
 20
126.65252572
 10
118.35394489
 20
126.65252572
 10
118.21879189
 20
126.64774877
 10
118.08894089
 20
126.63341212
 10
117.96440389
 20
126.60950707
 10
117.84519289
 20
126.57602492
 10
117.73131989
 20
126.53295697
 10
117.62279689
 20
126.48029452
 10
117.51963589
 20
126.41802887
 10
117.42184889
 20
126.34615132
 10
117.32944789
 20
126.26465317
 10
117.24244489
 20
126.17352572
 10
117.24244489
 20
126.17352572
 10
117.16209822
 20
126.07516175
 10
117.09025156
 20
125.97083999
 10
117.02689489
 20
125.86056062
 10
116.97201822
 20
125.74432385
 10
116.92561156
 20
125.62212989
 10
116.88766489
 20
125.49397892
 10
116.85816822
 20
125.35987115
 10
116.83711156
 20
125.21980679
 10
116.82448489
 20
125.07378602
 10
116.82027822
 20
124.92180905
 10
116.82027822
 20
124.92180905
 10
116.82448489
 20
124.76931154
 10
116.83711156
 20
124.62312292
 10
116.85816822
 20
124.4832041
 10
116.88766489
 20
124.34951599
 10
116.92561156
 20
124.22201947
 10
116.97201822
 20
124.10067545
 10
117.02689489
 20
123.98544484
 10
117.09025156
 20
123.87628852
 10
117.16209822
 20
123.7731674
 10
117.24244489
 20
123.67604239
 10
117.24244489
 20
123.67604239
 10
117.32944789
 20
123.58750357
 10
117.42184889
 20
123.50813985
 10
117.51963589
 20
123.43798534
 10
117.62279689
 20
123.37707412
 10
117.73131989
 20
123.3254403
 10
117.84519289
 20
123.28311799
 10
117.96440389
 20
123.25014127
 10
118.08894089
 20
123.22654425
 10
118.21879189
 20
123.21236104
 10
118.35394489
 20
123.20762572
 10
118.35394489
 20
123.20762572
 10
118.35394489
 20
123.20762572
  0
HATCH
  5
90
100
AcDbEntity
  8
Mst 1_1
 62
    12
100
AcDbHatch
 10
0.0
 20
0.0
 30
0.0
210
0.0
220
0.0
230
1.0
  2
SOLID
 70
     1
 71
     1
 91
        1
 92
        7
 72
     0
 73
     1
 93
       80
 10
118.35394489
 20
123.20762572
 10
118.48916206
 20
123.21236104
 10
118.61892222
 20
123.22654425
 10
118.74323839
 20
123.25014127
 10
118.86212356
 20
123.28311799
 10
118.97559072
 20
123.3254403
 10
119.08365289
 20
123.37707412
 10
119.18632306
 20
123.43798534
 10
119.28361422
 20
123.50813985
 10
119.37553939
 20
123.58750357
 10
119.46211156
 20
123.67604239
 10
119.54180406
 20
123.7731674
 10
119.61317156
 20
123.87628852
 10
119.67619906
 20
123.98544484
 10
119.73087156
 20
124.10067545
 10
119.77717406
 20
124.22201947
 10
119.81509156
 20
124.34951599
 10
119.84460906
 20
124.4832041
 10
119.86571156
 20
124.62312292
 10
119.87838406
 20
124.76931154
 10
119.88261156
 20
124.92180905
 10
119.87838406
 20
125.07505459
 10
119.86571156
 20
125.22206332
 10
119.84460906
 20
125.36286845
 10
119.81509156
 20
125.49750319
 10
119.77717406
 20
125.62600072
 10
119.73087156
 20
125.74839425
 10
119.67619906
 20
125.86471699
 10
119.61317156
 20
125.97500212
 10
119.54180406
 20
126.07928285
 10
119.46211156
 20
126.17759239
 10
119.37553939
 20
126.26761777
 10
119.28361422
 20
126.34823345
 10
119.18632306
 20
126.41942374
 10
119.08365289
 20
126.48117292
 10
118.97559072
 20
126.5334653
 10
118.86212356
 20
126.57628519
 10
118.74323839
 20
126.60961687
 10
118.61892222
 20
126.63344465
 10
118.48916206
 20
126.64775284
 10
118.35394489
 20
126.65252572
 10
118.21879189
 20
126.64774877
 10
118.08894089
 20
126.63341212
 10
117.96440389
 20
126.60950707
 10
117.84519289
 20
126.57602492
 10
117.73131989
 20
126.53295697
 10
117.62279689
 20
126.48029452
 10
117.51963589
 20
126.41802887
 10
117.42184889
 20
126.34615132
 10
117.32944789
 20
126.26465317
 10
117.24244489
 20
126.17352572
 10
117.16209822
 20
126.07516175
 10
117.09025156
 20
125.97083999
 10
117.02689489
 20
125.86056062
 10
116.97201822
 20
125.74432385
 10
116.92561156
 20
125.62212989
 10
116.88766489
 20
125.49397892
 10
116.85816822
 20
125.35987115
 10
116.83711156
 20
125.21980679
 10
116.82448489
 20
125.07378602
 10
116.82027822
 20
124.92180905
 10
116.82448489
 20
124.76931154
 10
116.83711156
 20
124.62312292
 10
116.85816822
 20
124.4832041
 10
116.88766489
 20
124.34951599
 10
116.92561156
 20
124.22201947
 10
116.97201822
 20
124.10067545
 10
117.02689489
 20
123.98544484
 10
117.09025156
 20
123.87628852
 10
117.16209822
 20
123.7731674
 10
117.24244489
 20
123.67604239
 10
117.32944789
 20
123.58750357
 10
117.42184889
 20
123.50813985
 10
117.51963589
 20
123.43798534
 10
117.62279689
 20
123.37707412
 10
117.73131989
 20
123.3254403
 10
117.84519289
 20
123.28311799
 10
117.96440389
 20
123.25014127
 10
118.08894089
 20
123.22654425
 10
118.21879189
 20
123.21236104
 97
        1
330
8F
 75
     0
 76
     2
 47
0.775229
 98
        1
 10
0.0
 20
0.0
  0
LWPOLYLINE
  5
91
102
{ACAD_REACTORS
330
92
102
}
100
AcDbEntity
  8
Mst 1_1
 62
     7
370
     9
100
AcDbPolyline
 90
       60
 70
     1
 43
0.0
 10
104.71491156
 20
120.39665905
 10
104.71491156
 20
129.48317572
 10
104.71491156
 20
129.48317572
 10
108.82517822
 20
129.48317572
 10
108.82517822
 20
129.48317572
 10
109.17391399
 20
129.47527509
 10
109.50585636
 20
129.45158265
 10
109.82099792
 20
129.41211262
 10
110.11933129
 20
129.35687919
 10
110.40084906
 20
129.28589655
 10
110.66554382
 20
129.19917892
 10
110.91340819
 20
129.09674049
 10
111.14443476
 20
128.97859545
 10
111.35861612
 20
128.84475802
 10
111.55594489
 20
128.69524239
 10
111.55594489
 20
128.69524239
 10
111.73515072
 20
128.53065334
 10
111.89547156
 20
128.35208799
 10
112.03691239
 20
128.15957904
 10
112.15947822
 20
127.95315919
 10
112.26317406
 20
127.73286114
 10
112.34800489
 20
127.49871759
 10
112.41397572
 20
127.25076124
 10
112.46109156
 20
126.98902479
 10
112.48935739
 20
126.71354094
 10
112.49877822
 20
126.42434239
 10
112.49877822
 20
126.42434239
 10
112.49399656
 20
126.23385782
 10
112.47966489
 20
126.05021185
 10
112.45580322
 20
125.87341609
 10
112.42243156
 20
125.70348212
 10
112.37956989
 20
125.54042155
 10
112.32723822
 20
125.38424599
 10
112.26545656
 20
125.23496702
 10
112.19424489
 20
125.09259625
 10
112.11362322
 20
124.95714529
 10
112.02361156
 20
124.82862572
 10
112.02361156
 20
124.82862572
 10
111.92517056
 20
124.70803347
 10
111.82022356
 20
124.59799772
 10
111.70873456
 20
124.49850497
 10
111.59066756
 20
124.40954172
 10
111.46598656
 20
124.33109447
 10
111.33465556
 20
124.26314972
 10
111.19663856
 20
124.20569397
 10
111.05189956
 20
124.15871372
 10
110.90040256
 20
124.12219547
 10
110.74211156
 20
124.09612572
 10
110.74211156
 20
124.09612572
 10
113.16844489
 20
120.39665905
 10
113.16844489
 20
120.39665905
 10
109.50794489
 20
120.39665905
 10
109.50794489
 20
120.39665905
 10
107.91796156
 20
123.39397572
 10
107.91796156
 20
123.39397572
 10
107.91796156
 20
120.39665905
 10
107.91796156
 20
120.39665905
 10
104.71491156
 20
120.39665905
 10
104.71491156
 20
120.39665905
 10
104.71491156
 20
120.39665905
  0
HATCH
  5
92
100
AcDbEntity
  8
Mst 1_1
 62
     7
100
AcDbHatch
 10
0.0
 20
0.0
 30
0.0
210
0.0
220
0.0
230
1.0
  2
SOLID
 70
     1
 71
     1
 91
        1
 92
        7
 72
     0
 73
     1
 93
       47
 10
104.71491156
 20
120.39665905
 10
104.71491156
 20
129.48317572
 10
108.82517822
 20
129.48317572
 10
109.17391399
 20
129.47527509
 10
109.50585636
 20
129.45158265
 10
109.82099792
 20
129.41211262
 10
110.11933129
 20
129.35687919
 10
110.40084906
 20
129.28589655
 10
110.66554382
 20
129.19917892
 10
110.91340819
 20
129.09674049
 10
111.14443476
 20
128.97859545
 10
111.35861612
 20
128.84475802
 10
111.55594489
 20
128.69524239
 10
111.73515072
 20
128.53065334
 10
111.89547156
 20
128.35208799
 10
112.03691239
 20
128.15957904
 10
112.15947822
 20
127.95315919
 10
112.26317406
 20
127.73286114
 10
112.34800489
 20
127.49871759
 10
112.41397572
 20
127.25076124
 10
112.46109156
 20
126.98902479
 10
112.48935739
 20
126.71354094
 10
112.49877822
 20
126.42434239
 10
112.49399656
 20
126.23385782
 10
112.47966489
 20
126.05021185
 10
112.45580322
 20
125.87341609
 10
112.42243156
 20
125.70348212
 10
112.37956989
 20
125.54042155
 10
112.32723822
 20
125.38424599
 10
112.26545656
 20
125.23496702
 10
112.19424489
 20
125.09259625
 10
112.11362322
 20
124.95714529
 10
112.02361156
 20
124.82862572
 10
111.92517056
 20
124.70803347
 10
111.82022356
 20
124.59799772
 10
111.70873456
 20
124.49850497
 10
111.59066756
 20
124.40954172
 10
111.46598656
 20
124.33109447
 10
111.33465556
 20
124.26314972
 10
111.19663856
 20
124.20569397
 10
111.05189956
 20
124.15871372
 10
110.90040256
 20
124.12219547
 10
110.74211156
 20
124.09612572
 10
113.16844489
 20
120.39665905
 10
109.50794489
 20
120.39665905
 10
107.91796156
 20
123.39397572
 10
107.91796156
 20
120.39665905
 97
        1
330
91
 75
     0
 76
     2
 47
0.775229
 98
        1
 10
0.0
 20
0.0
  0
LWPOLYLINE
  5
93
102
{ACAD_REACTORS
330
94
102
}
100
AcDbEntity
  8
Mst 1_1
 62
    12
100
AcDbPolyline
 90
       52
 70
     1
 43
0.0
 10
107.91796156
 20
127.14454239
 10
107.91796156
 20
125.36949239
 10
107.91796156
 20
125.36949239
 10
108.42707822
 20
125.36949239
 10
108.42707822
 20
125.36949239
 10
108.51812467
 20
125.37176379
 10
108.60480382
 20
125.37857359
 10
108.68713037
 20
125.38991519
 10
108.76511902
 20
125.40578199
 10
108.83878447
 20
125.42616739
 10
108.90814142
 20
125.45106479
 10
108.97320457
 20
125.48046759
 10
109.03398862
 20
125.51436919
 10
109.09050827
 20
125.55276299
 10
109.14277822
 20
125.59564239
 10
109.14277822
 20
125.59564239
 10
109.19062239
 20
125.64272587
 10
109.23345156
 20
125.69374825
 10
109.27126072
 20
125.74871244
 10
109.30404489
 20
125.80762132
 10
109.33179906
 20
125.8704778
 10
109.35451822
 20
125.93728479
 10
109.37219739
 20
126.00804517
 10
109.38483156
 20
126.08276185
 10
109.39241572
 20
126.16143774
 10
109.39494489
 20
126.24407572
 10
109.39494489
 20
126.24407572
 10
109.39241572
 20
126.32891452
 10
109.38483156
 20
126.40974412
 10
109.37219739
 20
126.48655432
 10
109.35451822
 20
126.55933492
 10
109.33179906
 20
126.62807572
 10
109.30404489
 20
126.69276652
 10
109.27126072
 20
126.75339712
 10
109.23345156
 20
126.80995732
 10
109.19062239
 20
126.86243692
 10
109.14277822
 20
126.91082572
 10
109.14277822
 20
126.91082572
 10
109.09050827
 20
126.95496189
 10
109.03398862
 20
126.99453705
 10
108.97320457
 20
127.02953122
 10
108.90814142
 20
127.05992439
 10
108.83878447
 20
127.08569655
 10
108.76511902
 20
127.10682772
 10
108.68713037
 20
127.12329789
 10
108.60480382
 20
127.13508705
 10
108.51812467
 20
127.14217522
 10
108.42707822
 20
127.14454239
 10
108.42707822
 20
127.14454239
 10
107.91796156
 20
127.14454239
 10
107.91796156
 20
127.14454239
 10
107.91796156
 20
127.14454239
  0
HATCH
  5
94
100
AcDbEntity
  8
Mst 1_1
 62
    12
100
AcDbHatch
 10
0.0
 20
0.0
 30
0.0
210
0.0
220
0.0
230
1.0
  2
SOLID
 70
     1
 71
     1
 91
        1
 92
        7
 72
     0
 73
     1
 93
       43
 10
107.91796156
 20
127.14454239
 10
107.91796156
 20
125.36949239
 10
108.42707822
 20
125.36949239
 10
108.51812467
 20
125.37176379
 10
108.60480382
 20
125.37857359
 10
108.68713037
 20
125.38991519
 10
108.76511902
 20
125.40578199
 10
108.83878447
 20
125.42616739
 10
108.90814142
 20
125.45106479
 10
108.97320457
 20
125.48046759
 10
109.03398862
 20
125.51436919
 10
109.09050827
 20
125.55276299
 10
109.14277822
 20
125.59564239
 10
109.19062239
 20
125.64272587
 10
109.23345156
 20
125.69374825
 10
109.27126072
 20
125.74871244
 10
109.30404489
 20
125.80762132
 10
109.33179906
 20
125.8704778
 10
109.35451822
 20
125.93728479
 10
109.37219739
 20
126.00804517
 10
109.38483156
 20
126.08276185
 10
109.39241572
 20
126.16143774
 10
109.39494489
 20
126.24407572
 10
109.39241572
 20
126.32891452
 10
109.38483156
 20
126.40974412
 10
109.37219739
 20
126.48655432
 10
109.35451822
 20
126.55933492
 10
109.33179906
 20
126.62807572
 10
109.30404489
 20
126.69276652
 10
109.27126072
 20
126.75339712
 10
109.23345156
 20
126.80995732
 10
109.19062239
 20
126.86243692
 10
109.14277822
 20
126.91082572
 10
109.09050827
 20
126.95496189
 10
109.03398862
 20
126.99453705
 10
108.97320457
 20
127.02953122
 10
108.90814142
 20
127.05992439
 10
108.83878447
 20
127.08569655
 10
108.76511902
 20
127.10682772
 10
108.68713037
 20
127.12329789
 10
108.60480382
 20
127.13508705
 10
108.51812467
 20
127.14217522
 10
108.42707822
 20
127.14454239
 97
        1
330
93
 75
     0
 76
     2
 47
0.775229
 98
        1
 10
0.0
 20
0.0
  0
LWPOLYLINE
  5
95
102
{ACAD_REACTORS
330
96
102
}
100
AcDbEntity
  8
Mst 1_1
 62
     7
370
     9
100
AcDbPolyline
 90
       56
 70
     1
 43
0.0
 10
95.71531156
 20
120.39665905
 10
95.71531156
 20
129.48317572
 10
95.71531156
 20
129.48317572
 10
99.62002822
 20
129.48317572
 10
99.62002822
 20
129.48317572
 10
100.02080437
 20
129.47522705
 10
100.39945542
 20
129.45138439
 10
100.75598527
 20
129.41165272
 10
101.09039782
 20
129.35603705
 10
101.40269697
 20
129.28454239
 10
101.69288662
 20
129.19717372
 10
101.96097067
 20
129.09393605
 10
102.20695302
 20
128.97483439
 10
102.43083757
 20
128.83987372
 10
102.63262822
 20
128.68905905
 10
102.63262822
 20
128.68905905
 10
102.81368342
 20
128.52069772
 10
102.97568782
 20
128.33381039
 10
103.11863962
 20
128.12837705
 10
103.24253702
 20
127.90437772
 10
103.34737822
 20
127.66179239
 10
103.43316142
 20
127.40060105
 10
103.49988482
 20
127.12078372
 10
103.54754662
 20
126.82232039
 10
103.57614502
 20
126.50519105
 10
103.58567822
 20
126.16937572
 10
103.58567822
 20
126.16937572
 10
103.57710832
 20
125.8563837
 10
103.55140502
 20
125.56072159
 10
103.50857792
 20
125.28239527
 10
103.44863662
 20
125.02141065
 10
103.37159072
 20
124.77777364
 10
103.27744982
 20
124.55149012
 10
103.16622352
 20
124.342566
 10
103.03792142
 20
124.15100719
 10
102.89255312
 20
123.97681957
 10
102.73012822
 20
123.82000905
 10
102.73012822
 20
123.82000905
 10
102.54837556
 20
123.6794516
 10
102.34657289
 20
123.55363745
 10
102.12471322
 20
123.4425789
 10
101.88278956
 20
123.34628825
 10
101.62079489
 20
123.2647778
 10
101.33872222
 20
123.19805985
 10
101.03656456
 20
123.1461467
 10
100.71431489
 20
123.10905065
 10
100.37196622
 20
123.086784
 10
100.00951156
 20
123.07935905
 10
100.00951156
 20
123.07935905
 10
98.98656156
 20
123.07935905
 10
98.98656156
 20
123.07935905
 10
98.98656156
 20
120.39665905
 10
98.98656156
 20
120.39665905
 10
95.71531156
 20
120.39665905
 10
95.71531156
 20
120.39665905
 10
95.71531156
 20
120.39665905
  0
HATCH
  5
96
100
AcDbEntity
  8
Mst 1_1
 62
     7
100
AcDbHatch
 10
0.0
 20
0.0
 30
0.0
210
0.0
220
0.0
230
1.0
  2
SOLID
 70
     1
 71
     1
 91
        1
 92
        7
 72
     0
 73
     1
 93
       45
 10
95.71531156
 20
120.39665905
 10
95.71531156
 20
129.48317572
 10
99.62002822
 20
129.48317572
 10
100.02080437
 20
129.47522705
 10
100.39945542
 20
129.45138439
 10
100.75598527
 20
129.41165272
 10
101.09039782
 20
129.35603705
 10
101.40269697
 20
129.28454239
 10
101.69288662
 20
129.19717372
 10
101.96097067
 20
129.09393605
 10
102.20695302
 20
128.97483439
 10
102.43083757
 20
128.83987372
 10
102.63262822
 20
128.68905905
 10
102.81368342
 20
128.52069772
 10
102.97568782
 20
128.33381039
 10
103.11863962
 20
128.12837705
 10
103.24253702
 20
127.90437772
 10
103.34737822
 20
127.66179239
 10
103.43316142
 20
127.40060105
 10
103.49988482
 20
127.12078372
 10
103.54754662
 20
126.82232039
 10
103.57614502
 20
126.50519105
 10
103.58567822
 20
126.16937572
 10
103.57710832
 20
125.8563837
 10
103.55140502
 20
125.56072159
 10
103.50857792
 20
125.28239527
 10
103.44863662
 20
125.02141065
 10
103.37159072
 20
124.77777364
 10
103.27744982
 20
124.55149012
 10
103.16622352
 20
124.342566
 10
103.03792142
 20
124.15100719
 10
102.89255312
 20
123.97681957
 10
102.73012822
 20
123.82000905
 10
102.54837556
 20
123.6794516
 10
102.34657289
 20
123.55363745
 10
102.12471322
 20
123.4425789
 10
101.88278956
 20
123.34628825
 10
101.62079489
 20
123.2647778
 10
101.33872222
 20
123.19805985
 10
101.03656456
 20
123.1461467
 10
100.71431489
 20
123.10905065
 10
100.37196622
 20
123.086784
 10
100.00951156
 20
123.07935905
 10
98.98656156
 20
123.07935905
 10
98.98656156
 20
120.39665905
 97
        1
330
95
 75
     0
 76
     2
 47
0.775229
 98
        1
 10
0.0
 20
0.0
  0
LWPOLYLINE
  5
97
102
{ACAD_REACTORS
330
98
102
}
100
AcDbEntity
  8
Mst 1_1
 62
    12
100
AcDbPolyline
 90
       52
 70
     1
 43
0.0
 10
98.99932822
 20
126.95762572
 10
98.99932822
 20
125.44305905
 10
98.99932822
 20
125.44305905
 10
99.50697822
 20
125.44305905
 10
99.50697822
 20
125.44305905
 10
99.59781634
 20
125.44502735
 10
99.68442116
 20
125.45092545
 10
99.76676337
 20
125.46074315
 10
99.84481369
 20
125.47447025
 10
99.91854281
 20
125.49209655
 10
99.98792142
 20
125.51361185
 10
100.05292024
 20
125.53900595
 10
100.11350996
 20
125.56826865
 10
100.16966127
 20
125.60138975
 10
100.22134489
 20
125.63835905
 10
100.22134489
 20
125.63835905
 10
100.26841364
 20
125.67917642
 10
100.31054689
 20
125.72326399
 10
100.34774014
 20
125.77062995
 10
100.37998889
 20
125.82128252
 10
100.40728864
 20
125.87522989
 10
100.42963489
 20
125.93248025
 10
100.44702314
 20
125.99304182
 10
100.45944889
 20
126.05692279
 10
100.46690764
 20
126.12413135
 10
100.46939489
 20
126.19467572
 10
100.46939489
 20
126.19467572
 10
100.46686112
 20
126.2649334
 10
100.45925276
 20
126.33204919
 10
100.44655919
 20
126.39602717
 10
100.42876982
 20
126.45687145
 10
100.40587406
 20
126.51458614
 10
100.37786129
 20
126.56917532
 10
100.34472092
 20
126.6206431
 10
100.30644236
 20
126.66899359
 10
100.26301499
 20
126.71423087
 10
100.21442822
 20
126.75635905
 10
100.21442822
 20
126.75635905
 10
100.16168232
 20
126.79439047
 10
100.10495902
 20
126.82848439
 10
100.04424992
 20
126.8586253
 10
99.97954662
 20
126.88479772
 10
99.91084072
 20
126.90698614
 10
99.83812382
 20
126.92517505
 10
99.76138752
 20
126.93934897
 10
99.68062342
 20
126.94949239
 10
99.59582312
 20
126.9555898
 10
99.50697822
 20
126.95762572
 10
99.50697822
 20
126.95762572
 10
98.99932822
 20
126.95762572
 10
98.99932822
 20
126.95762572
 10
98.99932822
 20
126.95762572
  0
HATCH
  5
98
100
AcDbEntity
  8
Mst 1_1
 62
    12
100
AcDbHatch
 10
0.0
 20
0.0
 30
0.0
210
0.0
220
0.0
230
1.0
  2
SOLID
 70
     1
 71
     1
 91
        1
 92
        7
 72
     0
 73
     1
 93
       43
 10
98.99932822
 20
126.95762572
 10
98.99932822
 20
125.44305905
 10
99.50697822
 20
125.44305905
 10
99.59781634
 20
125.44502735
 10
99.68442116
 20
125.45092545
 10
99.76676337
 20
125.46074315
 10
99.84481369
 20
125.47447025
 10
99.91854281
 20
125.49209655
 10
99.98792142
 20
125.51361185
 10
100.05292024
 20
125.53900595
 10
100.11350996
 20
125.56826865
 10
100.16966127
 20
125.60138975
 10
100.22134489
 20
125.63835905
 10
100.26841364
 20
125.67917642
 10
100.31054689
 20
125.72326399
 10
100.34774014
 20
125.77062995
 10
100.37998889
 20
125.82128252
 10
100.40728864
 20
125.87522989
 10
100.42963489
 20
125.93248025
 10
100.44702314
 20
125.99304182
 10
100.45944889
 20
126.05692279
 10
100.46690764
 20
126.12413135
 10
100.46939489
 20
126.19467572
 10
100.46686112
 20
126.2649334
 10
100.45925276
 20
126.33204919
 10
100.44655919
 20
126.39602717
 10
100.42876982
 20
126.45687145
 10
100.40587406
 20
126.51458614
 10
100.37786129
 20
126.56917532
 10
100.34472092
 20
126.6206431
 10
100.30644236
 20
126.66899359
 10
100.26301499
 20
126.71423087
 10
100.21442822
 20
126.75635905
 10
100.16168232
 20
126.79439047
 10
100.10495902
 20
126.82848439
 10
100.04424992
 20
126.8586253
 10
99.97954662
 20
126.88479772
 10
99.91084072
 20
126.90698614
 10
99.83812382
 20
126.92517505
 10
99.76138752
 20
126.93934897
 10
99.68062342
 20
126.94949239
 10
99.59582312
 20
126.9555898
 10
99.50697822
 20
126.95762572
 97
        1
330
97
 75
     0
 76
     2
 47
0.775229
 98
        1
 10
0.0
 20
0.0
  0
LWPOLYLINE
  5
99
102
{ACAD_REACTORS
330
9A
102
}
100
AcDbEntity
  8
Mst 1_1
 62
    12
100
AcDbPolyline
 90
       10
 70
     1
 43
0.0
 10
136.76177822
 20
120.39665905
 10
136.76177822
 20
129.48317572
 10
136.76177822
 20
129.48317572
 10
141.22961156
 20
129.48317572
 10
141.22961156
 20
129.48317572
 10
141.22961156
 20
120.39665905
 10
141.22961156
 20
120.39665905
 10
136.76177822
 20
120.39665905
 10
136.76177822
 20
120.39665905
 10
136.76177822
 20
120.39665905
  0
HATCH
  5
9A
100
AcDbEntity
  8
Mst 1_1
 62
    12
100
AcDbHatch
 10
0.0
 20
0.0
 30
0.0
210
0.0
220
0.0
230
1.0
  2
SOLID
 70
     1
 71
     1
 91
        1
 92
        7
 72
     0
 73
     1
 93
        4
 10
136.76177822
 20
120.39665905
 10
136.76177822
 20
129.48317572
 10
141.22961156
 20
129.48317572
 10
141.22961156
 20
120.39665905
 97
        1
330
99
 75
     0
 76
     2
 47
0.775229
 98
        1
 10
0.0
 20
0.0
  0
LWPOLYLINE
  5
9B
102
{ACAD_REACTORS
330
9C
102
}
100
AcDbEntity
  8
Mst 1_1
 62
    12
100
AcDbPolyline
 90
      114
 70
     1
 43
0.0
 10
148.97894489
 20
122.45777572
 10
148.94459089
 20
122.51259407
 10
148.91203289
 20
122.56514452
 10
148.88127689
 20
122.61545017
 10
148.85232889
 20
122.66353412
 10
148.82519489
 20
122.70941947
 10
148.79988089
 20
122.75312932
 10
148.77639289
 20
122.79468677
 10
148.75473689
 20
122.83411492
 10
148.73491889
 20
122.87143687
 10
148.71694489
 20
122.90667572
 10
148.71694489
 20
122.90667572
 10
148.69964222
 20
122.94062689
 10
148.68332356
 20
122.97383705
 10
148.66797289
 20
123.00631622
 10
148.65357422
 20
123.03807439
 10
148.64011156
 20
123.06912155
 10
148.62756889
 20
123.09946772
 10
148.61593022
 20
123.12912289
 10
148.60517956
 20
123.15809705
 10
148.59530089
 20
123.18640022
 10
148.58627822
 20
123.21404239
 10
148.58627822
 20
123.21404239
 10
148.57861389
 20
123.1878384
 10
148.57018356
 20
123.16107452
 10
148.56093122
 20
123.13374784
 10
148.55080089
 20
123.10585545
 10
148.53973656
 20
123.07739447
 10
148.52768222
 20
123.04836199
 10
148.51458189
 20
123.0187551
 10
148.50037956
 20
122.98857092
 10
148.48501922
 20
122.95780654
 10
148.46844489
 20
122.92645905
 10
148.46844489
 20
122.92645905
 10
148.45110856
 20
122.89305307
 10
148.43111422
 20
122.85661519
 10
148.40848389
 20
122.8171605
 10
148.38323956
 20
122.77470412
 10
148.35540322
 20
122.72926114
 10
148.32499689
 20
122.68084665
 10
148.29204256
 20
122.62947577
 10
148.25656222
 20
122.57516359
 10
148.21857789
 20
122.5179252
 10
148.17811156
 20
122.45777572
 10
148.17811156
 20
122.45777572
 10
146.78844489
 20
120.39665905
 10
146.78844489
 20
120.39665905
 10
141.76077822
 20
120.39665905
 10
141.76077822
 20
120.39665905
 10
146.10361156
 20
125.23667572
 10
146.10361156
 20
125.23667572
 10
142.27161156
 20
129.48317572
 10
142.27161156
 20
129.48317572
 10
147.29111156
 20
129.48317572
 10
147.29111156
 20
129.48317572
 10
148.19444489
 20
128.00009239
 10
148.19444489
 20
128.00009239
 10
148.19727089
 20
127.9945793
 10
148.20063289
 20
127.98848172
 10
148.20450689
 20
127.98180214
 10
148.20886889
 20
127.97454305
 10
148.21369489
 20
127.96670697
 10
148.21896089
 20
127.95829639
 10
148.22464289
 20
127.9493138
 10
148.23071689
 20
127.93976172
 10
148.23715889
 20
127.92964264
 10
148.24394489
 20
127.91895905
 10
148.24394489
 20
127.91895905
 10
148.29268022
 20
127.83630614
 10
148.33818756
 20
127.75705772
 10
148.38046889
 20
127.6812293
 10
148.41952622
 20
127.60883639
 10
148.45536156
 20
127.53989447
 10
148.48797689
 20
127.47441905
 10
148.51737422
 20
127.41242564
 10
148.54355556
 20
127.35392972
 10
148.56652289
 20
127.2989468
 10
148.58627822
 20
127.24749239
 10
148.58627822
 20
127.24749239
 10
148.59839189
 20
127.28013569
 10
148.61104756
 20
127.31288479
 10
148.62426722
 20
127.34575349
 10
148.63807289
 20
127.37875559
 10
148.65248656
 20
127.41190489
 10
148.66753022
 20
127.44521519
 10
148.68322589
 20
127.47870029
 10
148.69959556
 20
127.51237399
 10
148.71666122
 20
127.54625009
 10
148.73444489
 20
127.58034239
 10
148.73444489
 20
127.58034239
 10
148.75173122
 20
127.61542474
 10
148.77035556
 20
127.65206519
 10
148.79026589
 20
127.69025384
 10
148.81141022
 20
127.72998079
 10
148.83373656
 20
127.77123614
 10
148.85719289
 20
127.81400999
 10
148.88172722
 20
127.85829244
 10
148.90728756
 20
127.90407359
 10
148.93382189
 20
127.95134354
 10
148.96127822
 20
128.00009239
 10
148.96127822
 20
128.00009239
 10
149.88877822
 20
129.48317572
 10
149.88877822
 20
129.48317572
 10
154.88544489
 20
129.48317572
 10
154.88544489
 20
129.48317572
 10
151.06611156
 20
125.23667572
 10
151.06611156
 20
125.23667572
 10
155.41377822
 20
120.39665905
 10
155.41377822
 20
120.39665905
 10
150.38161156
 20
120.39665905
 10
150.38161156
 20
120.39665905
 10
148.97894489
 20
122.45777572
 10
148.97894489
 20
122.45777572
 10
148.97894489
 20
122.45777572
  0
HATCH
  5
9C
100
AcDbEntity
  8
Mst 1_1
 62
    12
100
AcDbHatch
 10
0.0
 20
0.0
 30
0.0
210
0.0
220
0.0
230
1.0
  2
SOLID
 70
     1
 71
     1
 91
        1
 92
        7
 72
     0
 73
     1
 93
       92
 10
148.97894489
 20
122.45777572
 10
148.94459089
 20
122.51259407
 10
148.91203289
 20
122.56514452
 10
148.88127689
 20
122.61545017
 10
148.85232889
 20
122.66353412
 10
148.82519489
 20
122.70941947
 10
148.79988089
 20
122.75312932
 10
148.77639289
 20
122.79468677
 10
148.75473689
 20
122.83411492
 10
148.73491889
 20
122.87143687
 10
148.71694489
 20
122.90667572
 10
148.69964222
 20
122.94062689
 10
148.68332356
 20
122.97383705
 10
148.66797289
 20
123.00631622
 10
148.65357422
 20
123.03807439
 10
148.64011156
 20
123.06912155
 10
148.62756889
 20
123.09946772
 10
148.61593022
 20
123.12912289
 10
148.60517956
 20
123.15809705
 10
148.59530089
 20
123.18640022
 10
148.58627822
 20
123.21404239
 10
148.57861389
 20
123.1878384
 10
148.57018356
 20
123.16107452
 10
148.56093122
 20
123.13374784
 10
148.55080089
 20
123.10585545
 10
148.53973656
 20
123.07739447
 10
148.52768222
 20
123.04836199
 10
148.51458189
 20
123.0187551
 10
148.50037956
 20
122.98857092
 10
148.48501922
 20
122.95780654
 10
148.46844489
 20
122.92645905
 10
148.45110856
 20
122.89305307
 10
148.43111422
 20
122.85661519
 10
148.40848389
 20
122.8171605
 10
148.38323956
 20
122.77470412
 10
148.35540322
 20
122.72926114
 10
148.32499689
 20
122.68084665
 10
148.29204256
 20
122.62947577
 10
148.25656222
 20
122.57516359
 10
148.21857789
 20
122.5179252
 10
148.17811156
 20
122.45777572
 10
146.78844489
 20
120.39665905
 10
141.76077822
 20
120.39665905
 10
146.10361156
 20
125.23667572
 10
142.27161156
 20
129.48317572
 10
147.29111156
 20
129.48317572
 10
148.19444489
 20
128.00009239
 10
148.19727089
 20
127.9945793
 10
148.20063289
 20
127.98848172
 10
148.20450689
 20
127.98180214
 10
148.20886889
 20
127.97454305
 10
148.21369489
 20
127.96670697
 10
148.21896089
 20
127.95829639
 10
148.22464289
 20
127.9493138
 10
148.23071689
 20
127.93976172
 10
148.23715889
 20
127.92964264
 10
148.24394489
 20
127.91895905
 10
148.29268022
 20
127.83630614
 10
148.33818756
 20
127.75705772
 10
148.38046889
 20
127.6812293
 10
148.41952622
 20
127.60883639
 10
148.45536156
 20
127.53989447
 10
148.48797689
 20
127.47441905
 10
148.51737422
 20
127.41242564
 10
148.54355556
 20
127.35392972
 10
148.56652289
 20
127.2989468
 10
148.58627822
 20
127.24749239
 10
148.59839189
 20
127.28013569
 10
148.61104756
 20
127.31288479
 10
148.62426722
 20
127.34575349
 10
148.63807289
 20
127.37875559
 10
148.65248656
 20
127.41190489
 10
148.66753022
 20
127.44521519
 10
148.68322589
 20
127.47870029
 10
148.69959556
 20
127.51237399
 10
148.71666122
 20
127.54625009
 10
148.73444489
 20
127.58034239
 10
148.75173122
 20
127.61542474
 10
148.77035556
 20
127.65206519
 10
148.79026589
 20
127.69025384
 10
148.81141022
 20
127.72998079
 10
148.83373656
 20
127.77123614
 10
148.85719289
 20
127.81400999
 10
148.88172722
 20
127.85829244
 10
148.90728756
 20
127.90407359
 10
148.93382189
 20
127.95134354
 10
148.96127822
 20
128.00009239
 10
149.88877822
 20
129.48317572
 10
154.88544489
 20
129.48317572
 10
151.06611156
 20
125.23667572
 10
155.41377822
 20
120.39665905
 10
150.38161156
 20
120.39665905
 97
        1
330
9B
 75
     0
 76
     2
 47
0.775229
 98
        1
 10
0.0
 20
0.0
  0
LWPOLYLINE
  5
9D
102
{ACAD_REACTORS
330
9E
102
}
100
AcDbEntity
  8
Mst 1_1
 62
     7
100
AcDbPolyline
 90
       46
 70
     1
 43
0.0
 10
159.72894489
 20
135.60922572
 10
159.84147539
 20
135.60011222
 10
159.94838889
 20
135.57373772
 10
160.04821839
 20
135.53155122
 10
160.13949689
 20
135.47500172
 10
160.22075739
 20
135.40553822
 10
160.29053289
 20
135.32460972
 10
160.34735639
 20
135.23366522
 10
160.38976089
 20
135.13415372
 10
160.41627939
 20
135.02752422
 10
160.42544489
 20
134.91522572
 10
160.42544489
 20
134.91522572
 10
160.41627939
 20
134.80307205
 10
160.38976089
 20
134.69657639
 10
160.34735639
 20
134.59718672
 10
160.29053289
 20
134.50635105
 10
160.22075739
 20
134.42551739
 10
160.13949689
 20
134.35613372
 10
160.04821839
 20
134.29964805
 10
159.94838889
 20
134.25750839
 10
159.84147539
 20
134.23116272
 10
159.72894489
 20
134.22205905
 10
159.72894489
 20
134.22205905
 10
159.61582406
 20
134.23116272
 10
159.50851822
 20
134.25750839
 10
159.40846239
 20
134.29964805
 10
159.31709156
 20
134.35613372
 10
159.23584072
 20
134.42551739
 10
159.16614489
 20
134.50635105
 10
159.10943906
 20
134.59718672
 10
159.06715822
 20
134.69657639
 10
159.04073739
 20
134.80307205
 10
159.03161156
 20
134.91522572
 10
159.03161156
 20
134.91522572
 10
159.04073739
 20
135.02752422
 10
159.06715822
 20
135.13415372
 10
159.10943906
 20
135.23366522
 10
159.16614489
 20
135.32460972
 10
159.23584072
 20
135.40553822
 10
159.31709156
 20
135.47500172
 10
159.40846239
 20
135.53155122
 10
159.50851822
 20
135.57373772
 10
159.61582406
 20
135.60011222
 10
159.72894489
 20
135.60922572
 10
159.72894489
 20
135.60922572
 10
159.72894489
 20
135.60922572
  0
HATCH
  5
9E
100
AcDbEntity
  8
Mst 1_1
 62
     7
100
AcDbHatch
 10
0.0
 20
0.0
 30
0.0
210
0.0
220
0.0
230
1.0
  2
SOLID
 70
     1
 71
     1
 91
        1
 92
        7
 72
     0
 73
     1
 93
       40
 10
159.72894489
 20
135.60922572
 10
159.84147539
 20
135.60011222
 10
159.94838889
 20
135.57373772
 10
160.04821839
 20
135.53155122
 10
160.13949689
 20
135.47500172
 10
160.22075739
 20
135.40553822
 10
160.29053289
 20
135.32460972
 10
160.34735639
 20
135.23366522
 10
160.38976089
 20
135.13415372
 10
160.41627939
 20
135.02752422
 10
160.42544489
 20
134.91522572
 10
160.41627939
 20
134.80307205
 10
160.38976089
 20
134.69657639
 10
160.34735639
 20
134.59718672
 10
160.29053289
 20
134.50635105
 10
160.22075739
 20
134.42551739
 10
160.13949689
 20
134.35613372
 10
160.04821839
 20
134.29964805
 10
159.94838889
 20
134.25750839
 10
159.84147539
 20
134.23116272
 10
159.72894489
 20
134.22205905
 10
159.61582406
 20
134.23116272
 10
159.50851822
 20
134.25750839
 10
159.40846239
 20
134.29964805
 10
159.31709156
 20
134.35613372
 10
159.23584072
 20
134.42551739
 10
159.16614489
 20
134.50635105
 10
159.10943906
 20
134.59718672
 10
159.06715822
 20
134.69657639
 10
159.04073739
 20
134.80307205
 10
159.03161156
 20
134.91522572
 10
159.04073739
 20
135.02752422
 10
159.06715822
 20
135.13415372
 10
159.10943906
 20
135.23366522
 10
159.16614489
 20
135.32460972
 10
159.23584072
 20
135.40553822
 10
159.31709156
 20
135.47500172
 10
159.40846239
 20
135.53155122
 10
159.50851822
 20
135.57373772
 10
159.61582406
 20
135.60011222
 97
        1
330
9D
 75
     0
 76
     2
 47
0.775229
 98
        1
 10
0.0
 20
0.0
  0
LWPOLYLINE
  5
9F
102
{ACAD_REACTORS
330
A0
102
}
100
AcDbEntity
  8
Mst 1_1
 62
    12
100
AcDbPolyline
 90
       29
 70
     1
 43
0.0
 10
159.40927822
 20
135.39722572
 10
159.40927822
 20
134.49055905
 10
159.40927822
 20
134.49055905
 10
159.54344489
 20
134.49055905
 10
159.54344489
 20
134.49055905
 10
159.54344489
 20
134.89755905
 10
159.54344489
 20
134.89755905
 10
159.72177822
 20
134.89755905
 10
159.72177822
 20
134.89755905
 10
159.98111156
 20
134.49655905
 10
159.98111156
 20
134.49655905
 10
160.11727822
 20
134.49655905
 10
160.11727822
 20
134.49655905
 10
159.85844489
 20
134.90489239
 10
159.85844489
 20
134.90489239
 10
159.94703189
 20
134.92331405
 10
160.01670089
 20
134.96346572
 10
160.06716389
 20
135.01977739
 10
160.09813289
 20
135.08667905
 10
160.10931989
 20
135.15860072
 10
160.10043689
 20
135.22997239
 10
160.07119589
 20
135.29522405
 10
160.02130889
 20
135.34878572
 10
159.95048789
 20
135.38508739
 10
159.85844489
 20
135.39855905
 10
159.85844489
 20
135.39855905
 10
159.40927822
 20
135.39722572
 10
159.40927822
 20
135.39722572
 10
159.40927822
 20
135.39722572
  0
HATCH
  5
A0
100
AcDbEntity
  8
Mst 1_1
 62
    12
100
AcDbHatch
 10
0.0
 20
0.0
 30
0.0
210
0.0
220
0.0
230
1.0
  2
SOLID
 70
     1
 71
     1
 91
        1
 92
        7
 72
     0
 73
     1
 93
       18
 10
159.40927822
 20
135.39722572
 10
159.40927822
 20
134.49055905
 10
159.54344489
 20
134.49055905
 10
159.54344489
 20
134.89755905
 10
159.72177822
 20
134.89755905
 10
159.98111156
 20
134.49655905
 10
160.11727822
 20
134.49655905
 10
159.85844489
 20
134.90489239
 10
159.94703189
 20
134.92331405
 10
160.01670089
 20
134.96346572
 10
160.06716389
 20
135.01977739
 10
160.09813289
 20
135.08667905
 10
160.10931989
 20
135.15860072
 10
160.10043689
 20
135.22997239
 10
160.07119589
 20
135.29522405
 10
160.02130889
 20
135.34878572
 10
159.95048789
 20
135.38508739
 10
159.85844489
 20
135.39855905
 97
        1
330
9F
 75
     0
 76
     2
 47
0.775229
 98
        1
 10
0.0
 20
0.0
  0
LWPOLYLINE
  5
A1
102
{ACAD_REACTORS
330
A2
102
}
100
AcDbEntity
  8
Mst 1_1
 62
     7
100
AcDbPolyline
 90
       19
 70
     1
 43
0.0
 10
159.54344489
 20
135.29405905
 10
159.54344489
 20
135.00339239
 10
159.54344489
 20
135.00339239
 10
159.84477822
 20
135.00422572
 10
159.84477822
 20
135.00422572
 10
159.89775672
 20
135.01607605
 10
159.93922622
 20
135.04044839
 10
159.96908772
 20
135.07407472
 10
159.98724222
 20
135.11368705
 10
159.99359072
 20
135.15601739
 10
159.98803422
 20
135.19779772
 10
159.97047372
 20
135.23576005
 10
159.94081022
 20
135.26663639
 10
159.89894472
 20
135.28715872
 10
159.84477822
 20
135.29405905
 10
159.84477822
 20
135.29405905
 10
159.54344489
 20
135.29405905
 10
159.54344489
 20
135.29405905
 10
159.54344489
 20
135.29405905
  0
HATCH
  5
A2
100
AcDbEntity
  8
Mst 1_1
 62
     7
100
AcDbHatch
 10
0.0
 20
0.0
 30
0.0
210
0.0
220
0.0
230
1.0
  2
SOLID
 70
     1
 71
     1
 91
        1
 92
        7
 72
     0
 73
     1
 93
       13
 10
159.54344489
 20
135.29405905
 10
159.54344489
 20
135.00339239
 10
159.84477822
 20
135.00422572
 10
159.89775672
 20
135.01607605
 10
159.93922622
 20
135.04044839
 10
159.96908772
 20
135.07407472
 10
159.98724222
 20
135.11368705
 10
159.99359072
 20
135.15601739
 10
159.98803422
 20
135.19779772
 10
159.97047372
 20
135.23576005
 10
159.94081022
 20
135.26663639
 10
159.89894472
 20
135.28715872
 10
159.84477822
 20
135.29405905
 97
        1
330
A1
 75
     0
 76
     2
 47
0.775229
 98
        1
 10
0.0
 20
0.0
  0
LINE
  5
A3
100
AcDbEntity
  8
Mst 1_1
 62
     7
  6
DASHED
370
    -3
100
AcDbLine
 10
-3.23595307
 20
-22.35694764
 30
0.0
 11
-3.23595307
 21
-237.24655931
 31
0.0
  0
LINE
  5
A4
100
AcDbEntity
  8
Mst 1_1
 62
     7
  6
DASHED
370
    -3
100
AcDbLine
 10
36.76404693
 20
-22.35694764
 30
0.0
 11
36.76404693
 21
-56.41517642
 31
0.0
  0
CIRCLE
  5
A5
100
AcDbEntity
  8
Mst 1_1
 62
   137
  6
CONTINUOUS
370
     9
100
AcDbCircle
 10
-77.49213075
 20
-132.35694764
 30
0.0
 40
1.97011029
  0
CIRCLE
  5
A6
100
AcDbEntity
  8
Mst 1_1
 62
   137
  6
CONTINUOUS
370
     9
100
AcDbCircle
 10
-77.49213075
 20
-132.35694764
 30
0.0
 40
3.3
  0
ARC
  5
A7
100
AcDbEntity
  8
Mst 1_1
 62
   137
  6
CONTINUOUS
370
     9
100
AcDbCircle
 10
-79.10585691
 20
-132.35694764
 30
0.0
 40
0.35638414
100
AcDbArc
 50
104.00039951
 51
255.99960049
  0
ARC
  5
A8
100
AcDbEntity
  8
Mst 1_1
 62
   137
  6
CONTINUOUS
370
     9
100
AcDbCircle
 10
-79.37722352
 20
-133.44530649
 30
0.0
 40
0.76529533
100
AcDbArc
 50
344.00041281
 51
75.99958535
  0
ARC
  5
A9
100
AcDbEntity
  8
Mst 1_1
 62
   137
  6
CONTINUOUS
370
     9
100
AcDbCircle
 10
-78.29899381
 20
-133.7544755
 30
0.0
 40
0.35638413
100
AcDbArc
 50
164.00040911
 51
315.99958502
  0
ARC
  5
AA
100
AcDbEntity
  8
Mst 1_1
 62
   137
  6
CONTINUOUS
370
     9
100
AcDbCircle
 10
-77.49213075
 20
-134.5336652
 30
0.0
 40
0.76529523
100
AcDbArc
 50
44.00040429
 51
135.99959571
  0
ARC
  5
AB
100
AcDbEntity
  8
Mst 1_1
 62
   137
  6
CONTINUOUS
370
     9
100
AcDbCircle
 10
-76.68526765
 20
-133.75447556
 30
0.0
 40
0.35638411
100
AcDbArc
 50
224.00040506
 51
15.9996008
  0
ARC
  5
AC
100
AcDbEntity
  8
Mst 1_1
 62
   137
  6
CONTINUOUS
370
     9
100
AcDbCircle
 10
-75.87840458
 20
-132.35694764
 30
0.0
 40
0.35638414
100
AcDbArc
 50
284.00039951
 51
75.99960049
  0
ARC
  5
AD
100
AcDbEntity
  8
Mst 1_1
 62
   137
  6
CONTINUOUS
370
     9
100
AcDbCircle
 10
-75.60703797
 20
-131.26858879
 30
0.0
 40
0.76529533
100
AcDbArc
 50
164.00041281
 51
255.99958535
  0
ARC
  5
AE
100
AcDbEntity
  8
Mst 1_1
 62
   137
  6
CONTINUOUS
370
     9
100
AcDbCircle
 10
-76.68526768
 20
-130.95941978
 30
0.0
 40
0.35638413
100
AcDbArc
 50
344.00040911
 51
135.99958502
  0
ARC
  5
AF
100
AcDbEntity
  8
Mst 1_1
 62
   137
  6
CONTINUOUS
370
     9
100
AcDbCircle
 10
-77.49213075
 20
-130.18023008
 30
0.0
 40
0.76529523
100
AcDbArc
 50
224.00040429
 51
315.99959571
  0
ARC
  5
B0
100
AcDbEntity
  8
Mst 1_1
 62
   137
  6
CONTINUOUS
370
     9
100
AcDbCircle
 10
-78.29899384
 20
-130.95941972
 30
0.0
 40
0.35638411
100
AcDbArc
 50
44.00040506
 51
195.9996008
  0
ARC
  5
B1
100
AcDbEntity
  8
Mst 1_1
 62
   137
  6
CONTINUOUS
370
     9
100
AcDbCircle
 10
-79.37722352
 20
-131.26858879
 30
0.0
 40
0.76529533
100
AcDbArc
 50
284.00041459
 51
15.99958726
  0
ARC
  5
B2
100
AcDbEntity
  8
Mst 1_1
 62
   137
  6
CONTINUOUS
370
     9
100
AcDbCircle
 10
-75.60703797
 20
-133.44530649
 30
0.0
 40
0.76529533
100
AcDbArc
 50
104.00041459
 51
195.99958726
  0
POLYLINE
  5
B3
100
AcDbEntity
  8
Mst 1_1
 62
   137
  6
CONTINUOUS
370
     9
100
AcDb3dPolyline
 66
     1
 70
     9
 10
0.0
 20
0.0
 30
1000.0
 39
-1000.0
  0
VERTEX
  5
B4
100
AcDbEntity
  8
Mst 1_1
100
AcDbVertex
100
AcDb3dPolylineVertex
 10
57.41945369
 20
-133.91266192
 30
1000.0
 70
    32
  0
VERTEX
  5
B5
100
AcDbEntity
  8
Mst 1_1
100
AcDbVertex
100
AcDb3dPolylineVertex
 10
31.76404693
 20
-133.91266192
 30
1000.0
 70
    32
  0
VERTEX
  5
B6
100
AcDbEntity
  8
Mst 1_1
100
AcDbVertex
100
AcDb3dPolylineVertex
 10
31.76404693
 20
-130.80123335
 30
1000.0
 70
    32
  0
VERTEX
  5
B7
100
AcDbEntity
  8
Mst 1_1
100
AcDbVertex
100
AcDb3dPolylineVertex
 10
57.41945369
 20
-130.80123335
 30
1000.0
 70
    32
  0
VERTEX
  5
B8
100
AcDbEntity
  8
Mst 1_1
100
AcDbVertex
100
AcDb3dPolylineVertex
 10
58.0780307
 20
-130.8189506
 30
1250.0
 70
    32
  0
VERTEX
  5
B9
100
AcDbEntity
  8
Mst 1_1
100
AcDbVertex
100
AcDb3dPolylineVertex
 10
58.73594702
 20
-130.85335559
 30
1500.0
 70
    32
  0
VERTEX
  5
BA
100
AcDbEntity
  8
Mst 1_1
100
AcDbVertex
100
AcDb3dPolylineVertex
 10
59.39277986
 20
-130.90442621
 30
1750.0
 70
    32
  0
VERTEX
  5
BB
100
AcDbEntity
  8
Mst 1_1
100
AcDbVertex
100
AcDb3dPolylineVertex
 10
60.04810713
 20
-130.97212964
 30
2000.0
 70
    32
  0
VERTEX
  5
BC
100
AcDbEntity
  8
Mst 1_1
100
AcDbVertex
100
AcDb3dPolylineVertex
 10
60.70150771
 20
-131.05642238
 30
2250.0
 70
    32
  0
VERTEX
  5
BD
100
AcDbEntity
  8
Mst 1_1
100
AcDbVertex
100
AcDb3dPolylineVertex
 10
61.35256172
 20
-131.15725025
 30
2500.0
 70
    32
  0
VERTEX
  5
BE
100
AcDbEntity
  8
Mst 1_1
100
AcDbVertex
100
AcDb3dPolylineVertex
 10
66.76404693
 20
-132.35694764
 30
2500.0
 70
    32
  0
VERTEX
  5
BF
100
AcDbEntity
  8
Mst 1_1
100
AcDbVertex
100
AcDb3dPolylineVertex
 10
61.35256172
 20
-133.55664503
 30
2500.0
 70
    32
  0
VERTEX
  5
C0
100
AcDbEntity
  8
Mst 1_1
100
AcDbVertex
100
AcDb3dPolylineVertex
 10
60.70150771
 20
-133.6574729
 30
2250.0
 70
    32
  0
VERTEX
  5
C1
100
AcDbEntity
  8
Mst 1_1
100
AcDbVertex
100
AcDb3dPolylineVertex
 10
60.04810713
 20
-133.74176563
 30
2000.0
 70
    32
  0
VERTEX
  5
C2
100
AcDbEntity
  8
Mst 1_1
100
AcDbVertex
100
AcDb3dPolylineVertex
 10
59.39277986
 20
-133.80946907
 30
1750.0
 70
    32
  0
VERTEX
  5
C3
100
AcDbEntity
  8
Mst 1_1
100
AcDbVertex
100
AcDb3dPolylineVertex
 10
58.73594702
 20
-133.86053968
 30
1500.0
 70
    32
  0
VERTEX
  5
C4
100
AcDbEntity
  8
Mst 1_1
100
AcDbVertex
100
AcDb3dPolylineVertex
 10
58.0780307
 20
-133.89494467
 30
1250.0
 70
    32
  0
VERTEX
  5
C5
100
AcDbEntity
  8
Mst 1_1
100
AcDbVertex
100
AcDb3dPolylineVertex
 10
57.41945369
 20
-133.91266192
 30
1000.0
 70
    32
  0
SEQEND
  5
C6
100
AcDbEntity
  8
Mst 1_1
  0
LWPOLYLINE
  5
C7
100
AcDbEntity
  8
Mst 1_1
 62
   137
  6
CONTINUOUS
370
     9
100
AcDbPolyline
 90
        4
 70
     1
 43
0.0
 10
29.56404693
 20
-130.5890905
 10
19.92404693
 20
-130.5890905
 10
19.92404693
 20
-134.12480478
 10
29.56404693
 20
-134.12480478
  0
LWPOLYLINE
  5
C8
100
AcDbEntity
  8
Mst 1_1
 62
   137
  6
CONTINUOUS
370
     9
100
AcDbPolyline
 90
        4
 70
     1
 43
0.0
 10
57.43875711
 20
-133.91266192
 10
55.30251181
 20
-129.88194764
 10
54.96791917
 20
-130.80123335
 10
57.10416447
 20
-134.83194764
  0
LWPOLYLINE
  5
C9
100
AcDbEntity
  8
Mst 1_1
 62
   137
  6
CONTINUOUS
370
     9
100
AcDbPolyline
 90
        4
 70
     1
 43
0.0
 10
60.96566033
 20
-133.61614493
 10
59.03953477
 20
-129.92925439
 10
58.70066863
 20
-130.86089429
 10
60.644407
 20
-134.49964922
  0
LINE
  5
CA
100
AcDbEntity
  8
Mst 1_1
 62
   137
  6
CONTINUOUS
370
     9
100
AcDbLine
 10
59.03953477
 20
-129.92925439
 30
0.0
 11
60.644407
 21
-134.49964922
 31
0.0
  0
LWPOLYLINE
  5
CB
100
AcDbEntity
  8
Mst 1_1
 62
   137
  6
CONTINUOUS
370
     9
100
AcDbPolyline
 90
        4
 70
     1
 43
0.0
 10
64.0355687
 20
-132.9618367
 10
62.77871933
 20
-130.53727384
 10
62.46343011
 20
-131.40352384
 10
63.72027949
 20
-133.8280867
  0
LINE
  5
CC
100
AcDbEntity
  8
Mst 1_1
 62
   137
  6
CONTINUOUS
370
     9
100
AcDbLine
 10
62.77871933
 20
-130.53727384
 30
0.0
 11
63.72027949
 21
-133.8280867
 31
0.0
  0
LWPOLYLINE
  5
CD
100
AcDbEntity
  8
Mst 1_1
 62
   137
  6
CONTINUOUS
370
     9
100
AcDbPolyline
 90
        4
 70
     1
 43
0.0
 10
66.26611733
 20
-132.24655931
 10
65.9220893
 20
-131.58290175
 10
65.72426029
 20
-132.12643249
 10
66.20381897
 20
-132.35694764
  0
LINE
  5
CE
100
AcDbEntity
  8
Mst 1_1
 62
   137
  6
CONTINUOUS
370
     9
100
AcDbLine
 10
65.9220893
 20
-131.58290175
 30
0.0
 11
66.20381897
 21
-132.35694764
 31
0.0
  0
LWPOLYLINE
  5
CF
100
AcDbEntity
  8
Mst 1_1
 62
   137
  6
CONTINUOUS
370
     9
100
AcDbPolyline
 90
        3
 70
     0
 43
0.0
 38
2500.0
 10
62.60930411
 20
-131.00273833
 10
61.35256172
 20
-130.72412525
 42
0.02538716
 10
59.29018953
 20
-130.40904484
  0
LWPOLYLINE
  5
D0
100
AcDbEntity
  8
Mst 1_1
 62
   137
  6
CONTINUOUS
370
     9
100
AcDbPolyline
 90
        3
 70
     0
 43
0.0
 38
2500.0
 10
63.55139751
 20
-133.50229987
 10
61.35256172
 20
-133.98977003
 42
-0.00622926
 10
60.79035938
 20
-134.09825401
  0
LINE
  5
D1
100
AcDbEntity
  8
Mst 1_1
 62
   137
  6
CONTINUOUS
370
     9
100
AcDbLine
 10
55.30251181
 20
-129.88194764
 30
0.0
 11
57.10416447
 21
-134.83194764
 31
0.0
  0
LWPOLYLINE
  5
D2
100
AcDbEntity
  8
Mst 1_1
 62
     1
  6
CADWORK_8
370
    15
100
AcDbPolyline
 90
        3
 70
     0
 43
0.0
 10
66.76404693
 20
-132.35694764
 10
-3.17595307
 20
-132.35694764
 10
-3.17595307
 20
-132.35694764
  0
LWPOLYLINE
  5
D3
100
AcDbEntity
  8
Mst 1_1
 62
   137
  6
CONTINUOUS
370
     9
100
AcDbPolyline
 90
        4
 70
     1
 43
0.0
 10
53.76161425
 20
-133.91266192
 10
51.62536895
 20
-129.88194764
 10
51.29077632
 20
-130.80123335
 10
53.42702161
 20
-134.83194764
  0
LINE
  5
D4
100
AcDbEntity
  8
Mst 1_1
 62
   137
  6
CONTINUOUS
370
     9
100
AcDbLine
 10
51.62536895
 20
-129.88194764
 30
0.0
 11
53.42702161
 21
-134.83194764
 31
0.0
  0
LWPOLYLINE
  5
D5
100
AcDbEntity
  8
Mst 1_1
 62
   137
  6
CONTINUOUS
370
     9
100
AcDbPolyline
 90
        4
 70
     1
 43
0.0
 10
50.08447139
 20
-133.91266192
 10
47.9482261
 20
-129.88194764
 10
47.61363346
 20
-130.80123335
 10
49.74987876
 20
-134.83194764
  0
LINE
  5
D6
100
AcDbEntity
  8
Mst 1_1
 62
   137
  6
CONTINUOUS
370
     9
100
AcDbLine
 10
47.9482261
 20
-129.88194764
 30
0.0
 11
49.74987876
 21
-134.83194764
 31
0.0
  0
LWPOLYLINE
  5
D7
100
AcDbEntity
  8
Mst 1_1
 62
   137
  6
CONTINUOUS
370
     9
100
AcDbPolyline
 90
        4
 70
     1
 43
0.0
 10
46.40732854
 20
-133.91266192
 10
44.27108324
 20
-129.88194764
 10
43.9364906
 20
-130.80123335
 10
46.0727359
 20
-134.83194764
  0
LINE
  5
D8
100
AcDbEntity
  8
Mst 1_1
 62
   137
  6
CONTINUOUS
370
     9
100
AcDbLine
 10
44.27108324
 20
-129.88194764
 30
0.0
 11
46.0727359
 21
-134.83194764
 31
0.0
  0
LWPOLYLINE
  5
D9
100
AcDbEntity
  8
Mst 1_1
 62
   137
  6
CONTINUOUS
370
     9
100
AcDbPolyline
 90
        4
 70
     1
 43
0.0
 10
42.73018568
 20
-133.91266192
 10
40.59394038
 20
-129.88194764
 10
40.25934775
 20
-130.80123335
 10
42.39559304
 20
-134.83194764
  0
LINE
  5
DA
100
AcDbEntity
  8
Mst 1_1
 62
   137
  6
CONTINUOUS
370
     9
100
AcDbLine
 10
40.59394038
 20
-129.88194764
 30
0.0
 11
42.39559304
 21
-134.83194764
 31
0.0
  0
LWPOLYLINE
  5
DB
100
AcDbEntity
  8
Mst 1_1
 62
   137
  6
CONTINUOUS
370
     9
100
AcDbPolyline
 90
        4
 70
     1
 43
0.0
 10
39.05304282
 20
-133.91266192
 10
36.91679752
 20
-129.88194764
 10
36.58220489
 20
-130.80123335
 10
38.71845018
 20
-134.83194764
  0
LINE
  5
DC
100
AcDbEntity
  8
Mst 1_1
 62
   137
  6
CONTINUOUS
370
     9
100
AcDbLine
 10
36.91679752
 20
-129.88194764
 30
0.0
 11
38.71845018
 21
-134.83194764
 31
0.0
  0
LWPOLYLINE
  5
DD
100
AcDbEntity
  8
Mst 1_1
 62
   137
  6
CONTINUOUS
370
     9
100
AcDbPolyline
 90
        7
 70
     1
 43
0.0
 10
-3.17595307
 20
-128.72694764
 10
-3.0389222
 20
-128.72694764
 10
0.45404693
 20
-130.80123335
 10
0.45404693
 20
-133.91266192
 10
-3.0389222
 20
-135.98694764
 10
-3.17595307
 20
-135.98694764
 10
-3.17595307
 20
-132.35694764
  0
LINE
  5
DE
100
AcDbEntity
  8
Mst 1_1
 62
   137
  6
CONTINUOUS
370
     9
100
AcDbLine
 10
-3.0389222
 20
-128.72694764
 30
1000.0
 11
-3.0389222
 21
-135.98694764
 31
1000.0
  0
3DFACE
  5
DF
100
AcDbEntity
  8
Mst 1_1
 62
   137
  6
CONTINUOUS
370
     9
100
AcDbFace
 70
     0
 10
0.15821976
 20
-134.36064996
 30
1000.0
 11
-2.44726786
 21
-135.98694764
 31
1000.0
 12
-3.0389222
 22
-135.98694764
 32
1000.0
 13
0.45404693
 23
-133.91266192
 33
1000.0
  0
LWPOLYLINE
  5
E0
100
AcDbEntity
  8
Mst 1_1
 62
   137
  6
CONTINUOUS
370
     9
100
AcDbPolyline
 90
        6
 70
     1
 43
0.0
 38
1000.0
 39
-1000.0
 10
0.45404693
 20
-133.09639208
 10
0.10228749
 20
-132.98803497
 10
-2.50692895
 20
-133.72725745
 10
-3.0389222
 20
-134.10472542
 10
-2.38760677
 20
-134.14060159
 10
0.21415203
 20
-133.3755451
  0
3DFACE
  5
E1
100
AcDbEntity
  8
Mst 1_1
 62
   137
  6
CONTINUOUS
370
     9
100
AcDbFace
 70
     0
 10
18.82404693
 20
-130.80123335
 30
1000.0
 11
0.45404693
 21
-130.80123335
 31
1000.0
 12
0.45404693
 22
-133.91266192
 32
1000.0
 13
18.82404693
 23
-133.91266192
 33
1000.0
  0
LWPOLYLINE
  5
E2
100
AcDbEntity
  8
Mst 1_1
 62
   137
  6
CONTINUOUS
370
     9
100
AcDbPolyline
 90
        6
 70
     1
 43
0.0
 38
1000.0
 39
-1000.0
 10
0.45404693
 20
-131.61750319
 10
0.10228749
 20
-131.72586031
 10
-2.50692895
 20
-130.98663783
 10
-3.0389222
 20
-130.60916986
 10
-2.38760677
 20
-130.57329369
 10
0.21415203
 20
-131.33835018
  0
LINE
  5
E3
100
AcDbEntity
  8
Mst 1_1
 62
   137
  6
CONTINUOUS
370
     9
100
AcDbLine
 10
-3.0389222
 20
-130.60916986
 30
1000.0
 11
0.45404693
 21
-131.61750319
 31
1000.0
  0
LINE
  5
E4
100
AcDbEntity
  8
Mst 1_1
 62
   137
  6
CONTINUOUS
370
     9
100
AcDbLine
 10
-3.0389222
 20
-134.10472542
 30
1000.0
 11
0.45404693
 21
-133.09639208
 31
1000.0
  0
3DFACE
  5
E5
100
AcDbEntity
  8
Mst 1_1
 62
   137
  6
CONTINUOUS
370
     9
100
AcDbFace
 70
     0
 10
0.15821976
 20
-130.35324532
 30
1000.0
 11
-2.44726786
 21
-128.72694764
 31
1000.0
 12
-3.0389222
 22
-128.72694764
 32
1000.0
 13
0.45404693
 23
-130.80123335
 33
1000.0
  0
LWPOLYLINE
  5
E6
100
AcDbEntity
  8
Mst 1_1
 62
   137
  6
CONTINUOUS
370
     9
100
AcDbPolyline
 90
        6
 70
     1
 43
0.0
 38
1000.0
 39
-1000.0
 10
-3.17595307
 20
-132.35694764
 10
-3.17595307
 20
-135.98694764
 42
-0.11457924
 10
-3.83595307
 20
-134.32954583
 10
-3.83595307
 20
-132.35694764
 10
-3.83595307
 20
-130.38434945
 42
-0.11457924
 10
-3.17595307
 20
-128.72694764
  0
3DFACE
  5
E7
100
AcDbEntity
  8
Mst 1_1
 62
   137
  6
CONTINUOUS
370
     9
100
AcDbFace
 70
     0
 10
29.56404693
 20
-130.5890905
 30
1000.0
 11
31.76404693
 21
-130.80123335
 31
1000.0
 12
31.76404693
 22
-133.91266192
 32
1000.0
 13
29.56404693
 23
-134.12480478
 33
1000.0
  0
3DFACE
  5
E8
100
AcDbEntity
  8
Mst 1_1
 62
   137
  6
CONTINUOUS
370
     9
100
AcDbFace
 70
     0
 10
19.92404693
 20
-130.5890905
 30
1000.0
 11
18.82404693
 21
-130.80123335
 31
1000.0
 12
18.82404693
 22
-133.91266192
 32
1000.0
 13
19.92404693
 23
-134.12480478
 33
1000.0
  0
LWPOLYLINE
  5
E9
100
AcDbEntity
  8
Mst 1_1
 62
   137
  6
CONTINUOUS
370
     9
100
AcDbPolyline
 90
        4
 70
     1
 43
0.0
 10
18.47799578
 20
-133.91266192
 10
16.6747815
 20
-129.63444764
 10
16.35656721
 20
-130.80123335
 10
18.1597815
 20
-135.07944764
  0
LINE
  5
EA
100
AcDbEntity
  8
Mst 1_1
 62
   137
  6
CONTINUOUS
370
     9
100
AcDbLine
 10
16.6747815
 20
-129.63444764
 30
0.0
 11
18.1597815
 21
-135.07944764
 31
0.0
  0
LWPOLYLINE
  5
EB
100
AcDbEntity
  8
Mst 1_1
 62
   137
  6
CONTINUOUS
370
     9
100
AcDbPolyline
 90
        4
 70
     1
 43
0.0
 10
15.50799578
 20
-133.91266192
 10
13.7047815
 20
-129.63444764
 10
13.38656721
 20
-130.80123335
 10
15.1897815
 20
-135.07944764
  0
LINE
  5
EC
100
AcDbEntity
  8
Mst 1_1
 62
   137
  6
CONTINUOUS
370
     9
100
AcDbLine
 10
13.7047815
 20
-129.63444764
 30
0.0
 11
15.1897815
 21
-135.07944764
 31
0.0
  0
LWPOLYLINE
  5
ED
100
AcDbEntity
  8
Mst 1_1
 62
   137
  6
CONTINUOUS
370
     9
100
AcDbPolyline
 90
        4
 70
     1
 43
0.0
 10
12.53799578
 20
-133.91266192
 10
10.7347815
 20
-129.63444764
 10
10.41656721
 20
-130.80123335
 10
12.2197815
 20
-135.07944764
  0
LINE
  5
EE
100
AcDbEntity
  8
Mst 1_1
 62
   137
  6
CONTINUOUS
370
     9
100
AcDbLine
 10
10.7347815
 20
-129.63444764
 30
0.0
 11
12.2197815
 21
-135.07944764
 31
0.0
  0
LWPOLYLINE
  5
EF
100
AcDbEntity
  8
Mst 1_1
 62
   137
  6
CONTINUOUS
370
     9
100
AcDbPolyline
 90
        4
 70
     1
 43
0.0
 10
9.56799578
 20
-133.91266192
 10
7.7647815
 20
-129.63444764
 10
7.44656721
 20
-130.80123335
 10
9.2497815
 20
-135.07944764
  0
LINE
  5
F0
100
AcDbEntity
  8
Mst 1_1
 62
   137
  6
CONTINUOUS
370
     9
100
AcDbLine
 10
7.7647815
 20
-129.63444764
 30
0.0
 11
9.2497815
 21
-135.07944764
 31
0.0
  0
LWPOLYLINE
  5
F1
100
AcDbEntity
  8
Mst 1_1
 62
   137
  6
CONTINUOUS
370
     9
100
AcDbPolyline
 90
        4
 70
     1
 43
0.0
 10
6.59799578
 20
-133.91266192
 10
4.7947815
 20
-129.63444764
 10
4.47656721
 20
-130.80123335
 10
6.2797815
 20
-135.07944764
  0
LINE
  5
F2
100
AcDbEntity
  8
Mst 1_1
 62
   137
  6
CONTINUOUS
370
     9
100
AcDbLine
 10
4.7947815
 20
-129.63444764
 30
0.0
 11
6.2797815
 21
-135.07944764
 31
0.0
  0
LWPOLYLINE
  5
F3
100
AcDbEntity
  8
Mst 1_1
 62
   137
  6
CONTINUOUS
370
     9
100
AcDbPolyline
 90
        4
 70
     1
 43
0.0
 10
3.62799578
 20
-133.91266192
 10
1.8247815
 20
-129.63444764
 10
1.50656721
 20
-130.80123335
 10
3.3097815
 20
-135.07944764
  0
LINE
  5
F4
100
AcDbEntity
  8
Mst 1_1
 62
   137
  6
CONTINUOUS
370
     9
100
AcDbLine
 10
1.8247815
 20
-129.63444764
 30
0.0
 11
3.3097815
 21
-135.07944764
 31
0.0
  0
LINE
  5
F5
100
AcDbEntity
  8
Mst 1_1
 62
     7
  6
DASHED
370
    -3
100
AcDbLine
 10
66.76404693
 20
-22.35694764
 30
0.0
 11
66.76404693
 21
-147.35694764
 31
0.0
  0
LINE
  5
F6
100
AcDbEntity
  8
Mst 1_1
 62
     7
  6
DASHED
370
    -3
100
AcDbLine
 10
76.76404693
 20
-22.35694764
 30
0.0
 11
76.76404693
 21
-177.35694764
 31
0.0
  0
CIRCLE
  5
F7
100
AcDbEntity
  8
Mst 1_1
 62
   137
  6
CONTINUOUS
370
     9
100
AcDbCircle
 10
-77.49213075
 20
-162.35694764
 30
0.0
 40
1.97011029
  0
CIRCLE
  5
F8
100
AcDbEntity
  8
Mst 1_1
 62
   137
  6
CONTINUOUS
370
     9
100
AcDbCircle
 10
-77.49213075
 20
-162.35694764
 30
0.0
 40
3.3
  0
ARC
  5
F9
100
AcDbEntity
  8
Mst 1_1
 62
   137
  6
CONTINUOUS
370
     9
100
AcDbCircle
 10
-79.10585691
 20
-162.35694764
 30
0.0
 40
0.35638414
100
AcDbArc
 50
104.00039951
 51
255.99960049
  0
ARC
  5
FA
100
AcDbEntity
  8
Mst 1_1
 62
   137
  6
CONTINUOUS
370
     9
100
AcDbCircle
 10
-79.37722352
 20
-163.44530649
 30
0.0
 40
0.76529533
100
AcDbArc
 50
344.00041281
 51
75.99958535
  0
ARC
  5
FB
100
AcDbEntity
  8
Mst 1_1
 62
   137
  6
CONTINUOUS
370
     9
100
AcDbCircle
 10
-78.29899381
 20
-163.7544755
 30
0.0
 40
0.35638413
100
AcDbArc
 50
164.00040911
 51
315.99958502
  0
ARC
  5
FC
100
AcDbEntity
  8
Mst 1_1
 62
   137
  6
CONTINUOUS
370
     9
100
AcDbCircle
 10
-77.49213075
 20
-164.5336652
 30
0.0
 40
0.76529523
100
AcDbArc
 50
44.00040429
 51
135.99959571
  0
ARC
  5
FD
100
AcDbEntity
  8
Mst 1_1
 62
   137
  6
CONTINUOUS
370
     9
100
AcDbCircle
 10
-76.68526765
 20
-163.75447556
 30
0.0
 40
0.35638411
100
AcDbArc
 50
224.00040506
 51
15.9996008
  0
ARC
  5
FE
100
AcDbEntity
  8
Mst 1_1
 62
   137
  6
CONTINUOUS
370
     9
100
AcDbCircle
 10
-75.87840458
 20
-162.35694764
 30
0.0
 40
0.35638414
100
AcDbArc
 50
284.00039951
 51
75.99960049
  0
ARC
  5
FF
100
AcDbEntity
  8
Mst 1_1
 62
   137
  6
CONTINUOUS
370
     9
100
AcDbCircle
 10
-75.60703797
 20
-161.26858879
 30
0.0
 40
0.76529533
100
AcDbArc
 50
164.00041281
 51
255.99958535
  0
ARC
  5
100
100
AcDbEntity
  8
Mst 1_1
 62
   137
  6
CONTINUOUS
370
     9
100
AcDbCircle
 10
-76.68526768
 20
-160.95941978
 30
0.0
 40
0.35638413
100
AcDbArc
 50
344.00040911
 51
135.99958502
  0
ARC
  5
101
100
AcDbEntity
  8
Mst 1_1
 62
   137
  6
CONTINUOUS
370
     9
100
AcDbCircle
 10
-77.49213075
 20
-160.18023008
 30
0.0
 40
0.76529523
100
AcDbArc
 50
224.00040429
 51
315.99959571
  0
ARC
  5
102
100
AcDbEntity
  8
Mst 1_1
 62
   137
  6
CONTINUOUS
370
     9
100
AcDbCircle
 10
-78.29899384
 20
-160.95941972
 30
0.0
 40
0.35638411
100
AcDbArc
 50
44.00040506
 51
195.9996008
  0
ARC
  5
103
100
AcDbEntity
  8
Mst 1_1
 62
   137
  6
CONTINUOUS
370
     9
100
AcDbCircle
 10
-79.37722352
 20
-161.26858879
 30
0.0
 40
0.76529533
100
AcDbArc
 50
284.00041459
 51
15.99958726
  0
ARC
  5
104
100
AcDbEntity
  8
Mst 1_1
 62
   137
  6
CONTINUOUS
370
     9
100
AcDbCircle
 10
-75.60703797
 20
-163.44530649
 30
0.0
 40
0.76529533
100
AcDbArc
 50
104.00041459
 51
195.99958726
  0
POLYLINE
  5
105
100
AcDbEntity
  8
Mst 1_1
 62
   137
  6
CONTINUOUS
370
     9
100
AcDb3dPolyline
 66
     1
 70
     9
 10
0.0
 20
0.0
 30
1000.0
 39
-1000.0
  0
VERTEX
  5
106
100
AcDbEntity
  8
Mst 1_1
100
AcDbVertex
100
AcDb3dPolylineVertex
 10
67.91738328
 20
-163.91266192
 30
1000.0
 70
    32
  0
VERTEX
  5
107
100
AcDbEntity
  8
Mst 1_1
100
AcDbVertex
100
AcDb3dPolylineVertex
 10
36.76404693
 20
-163.91266192
 30
1000.0
 70
    32
  0
VERTEX
  5
108
100
AcDbEntity
  8
Mst 1_1
100
AcDbVertex
100
AcDb3dPolylineVertex
 10
36.76404693
 20
-160.80123335
 30
1000.0
 70
    32
  0
VERTEX
  5
109
100
AcDbEntity
  8
Mst 1_1
100
AcDbVertex
100
AcDb3dPolylineVertex
 10
67.91738328
 20
-160.80123335
 30
1000.0
 70
    32
  0
VERTEX
  5
10A
100
AcDbEntity
  8
Mst 1_1
100
AcDbVertex
100
AcDb3dPolylineVertex
 10
68.57596029
 20
-160.8189506
 30
1250.0
 70
    32
  0
VERTEX
  5
10B
100
AcDbEntity
  8
Mst 1_1
100
AcDbVertex
100
AcDb3dPolylineVertex
 10
69.23387661
 20
-160.85335559
 30
1500.0
 70
    32
  0
VERTEX
  5
10C
100
AcDbEntity
  8
Mst 1_1
100
AcDbVertex
100
AcDb3dPolylineVertex
 10
69.89070945
 20
-160.90442621
 30
1750.0
 70
    32
  0
VERTEX
  5
10D
100
AcDbEntity
  8
Mst 1_1
100
AcDbVertex
100
AcDb3dPolylineVertex
 10
70.54603672
 20
-160.97212964
 30
2000.0
 70
    32
  0
VERTEX
  5
10E
100
AcDbEntity
  8
Mst 1_1
100
AcDbVertex
100
AcDb3dPolylineVertex
 10
71.1994373
 20
-161.05642238
 30
2250.0
 70
    32
  0
VERTEX
  5
10F
100
AcDbEntity
  8
Mst 1_1
100
AcDbVertex
100
AcDb3dPolylineVertex
 10
71.85049131
 20
-161.15725025
 30
2500.0
 70
    32
  0
VERTEX
  5
110
100
AcDbEntity
  8
Mst 1_1
100
AcDbVertex
100
AcDb3dPolylineVertex
 10
77.26197652
 20
-162.35694764
 30
2500.0
 70
    32
  0
VERTEX
  5
111
100
AcDbEntity
  8
Mst 1_1
100
AcDbVertex
100
AcDb3dPolylineVertex
 10
71.85049131
 20
-163.55664503
 30
2500.0
 70
    32
  0
VERTEX
  5
112
100
AcDbEntity
  8
Mst 1_1
100
AcDbVertex
100
AcDb3dPolylineVertex
 10
71.1994373
 20
-163.6574729
 30
2250.0
 70
    32
  0
VERTEX
  5
113
100
AcDbEntity
  8
Mst 1_1
100
AcDbVertex
100
AcDb3dPolylineVertex
 10
70.54603672
 20
-163.74176563
 30
2000.0
 70
    32
  0
VERTEX
  5
114
100
AcDbEntity
  8
Mst 1_1
100
AcDbVertex
100
AcDb3dPolylineVertex
 10
69.89070945
 20
-163.80946907
 30
1750.0
 70
    32
  0
VERTEX
  5
115
100
AcDbEntity
  8
Mst 1_1
100
AcDbVertex
100
AcDb3dPolylineVertex
 10
69.23387661
 20
-163.86053968
 30
1500.0
 70
    32
  0
VERTEX
  5
116
100
AcDbEntity
  8
Mst 1_1
100
AcDbVertex
100
AcDb3dPolylineVertex
 10
68.57596029
 20
-163.89494467
 30
1250.0
 70
    32
  0
VERTEX
  5
117
100
AcDbEntity
  8
Mst 1_1
100
AcDbVertex
100
AcDb3dPolylineVertex
 10
67.91738328
 20
-163.91266192
 30
1000.0
 70
    32
  0
SEQEND
  5
118
100
AcDbEntity
  8
Mst 1_1
  0
LWPOLYLINE
  5
119
100
AcDbEntity
  8
Mst 1_1
 62
   137
  6
CONTINUOUS
370
     9
100
AcDbPolyline
 90
        4
 70
     1
 43
0.0
 10
34.56404693
 20
-160.5890905
 10
19.92404693
 20
-160.5890905
 10
19.92404693
 20
-164.12480478
 10
34.56404693
 20
-164.12480478
  0
LWPOLYLINE
  5
11A
100
AcDbEntity
  8
Mst 1_1
 62
   137
  6
CONTINUOUS
370
     9
100
AcDbPolyline
 90
        4
 70
     1
 43
0.0
 10
67.9366867
 20
-163.91266192
 10
65.8004414
 20
-159.88194764
 10
65.46584877
 20
-160.80123335
 10
67.60209406
 20
-164.83194764
  0
LWPOLYLINE
  5
11B
100
AcDbEntity
  8
Mst 1_1
 62
   137
  6
CONTINUOUS
370
     9
100
AcDbPolyline
 90
        4
 70
     1
 43
0.0
 10
71.46358993
 20
-163.61614493
 10
69.53746437
 20
-159.92925439
 10
69.19859823
 20
-160.86089429
 10
71.1423366
 20
-164.49964922
  0
LINE
  5
11C
100
AcDbEntity
  8
Mst 1_1
 62
   137
  6
CONTINUOUS
370
     9
100
AcDbLine
 10
69.53746437
 20
-159.92925439
 30
0.0
 11
71.1423366
 21
-164.49964922
 31
0.0
  0
LWPOLYLINE
  5
11D
100
AcDbEntity
  8
Mst 1_1
 62
   137
  6
CONTINUOUS
370
     9
100
AcDbPolyline
 90
        4
 70
     1
 43
0.0
 10
74.53349829
 20
-162.9618367
 10
73.27664892
 20
-160.53727384
 10
72.9613597
 20
-161.40352384
 10
74.21820908
 20
-163.8280867
  0
LINE
  5
11E
100
AcDbEntity
  8
Mst 1_1
 62
   137
  6
CONTINUOUS
370
     9
100
AcDbLine
 10
73.27664892
 20
-160.53727384
 30
0.0
 11
74.21820908
 21
-163.8280867
 31
0.0
  0
LWPOLYLINE
  5
11F
100
AcDbEntity
  8
Mst 1_1
 62
   137
  6
CONTINUOUS
370
     9
100
AcDbPolyline
 90
        4
 70
     1
 43
0.0
 10
76.76404693
 20
-162.24655931
 10
76.4200189
 20
-161.58290175
 10
76.22218988
 20
-162.12643249
 10
76.70174856
 20
-162.35694764
  0
LINE
  5
120
100
AcDbEntity
  8
Mst 1_1
 62
   137
  6
CONTINUOUS
370
     9
100
AcDbLine
 10
76.4200189
 20
-161.58290175
 30
0.0
 11
76.70174856
 21
-162.35694764
 31
0.0
  0
LWPOLYLINE
  5
121
100
AcDbEntity
  8
Mst 1_1
 62
   137
  6
CONTINUOUS
370
     9
100
AcDbPolyline
 90
        3
 70
     0
 43
0.0
 38
2500.0
 10
73.1072337
 20
-161.00273833
 10
71.85049131
 20
-160.72412525
 42
0.02538716
 10
69.78811912
 20
-160.40904484
  0
LWPOLYLINE
  5
122
100
AcDbEntity
  8
Mst 1_1
 62
   137
  6
CONTINUOUS
370
     9
100
AcDbPolyline
 90
        3
 70
     0
 43
0.0
 38
2500.0
 10
74.0493271
 20
-163.50229987
 10
71.85049131
 20
-163.98977003
 42
-0.00622926
 10
71.28828897
 20
-164.09825401
  0
LINE
  5
123
100
AcDbEntity
  8
Mst 1_1
 62
   137
  6
CONTINUOUS
370
     9
100
AcDbLine
 10
65.8004414
 20
-159.88194764
 30
0.0
 11
67.60209406
 21
-164.83194764
 31
0.0
  0
LWPOLYLINE
  5
124
100
AcDbEntity
  8
Mst 1_1
 62
     1
  6
CADWORK_8
370
    15
100
AcDbPolyline
 90
        3
 70
     0
 43
0.0
 10
77.26197652
 20
-162.35694764
 10
-3.17595307
 20
-162.35694764
 10
-3.17595307
 20
-162.35694764
  0
LWPOLYLINE
  5
125
100
AcDbEntity
  8
Mst 1_1
 62
   137
  6
CONTINUOUS
370
     9
100
AcDbPolyline
 90
        4
 70
     1
 43
0.0
 10
64.25954384
 20
-163.91266192
 10
62.12329855
 20
-159.88194764
 10
61.78870591
 20
-160.80123335
 10
63.92495121
 20
-164.83194764
  0
LINE
  5
126
100
AcDbEntity
  8
Mst 1_1
 62
   137
  6
CONTINUOUS
370
     9
100
AcDbLine
 10
62.12329855
 20
-159.88194764
 30
0.0
 11
63.92495121
 21
-164.83194764
 31
0.0
  0
LWPOLYLINE
  5
127
100
AcDbEntity
  8
Mst 1_1
 62
   137
  6
CONTINUOUS
370
     9
100
AcDbPolyline
 90
        4
 70
     1
 43
0.0
 10
60.58240099
 20
-163.91266192
 10
58.44615569
 20
-159.88194764
 10
58.11156305
 20
-160.80123335
 10
60.24780835
 20
-164.83194764
  0
LINE
  5
128
100
AcDbEntity
  8
Mst 1_1
 62
   137
  6
CONTINUOUS
370
     9
100
AcDbLine
 10
58.44615569
 20
-159.88194764
 30
0.0
 11
60.24780835
 21
-164.83194764
 31
0.0
  0
LWPOLYLINE
  5
129
100
AcDbEntity
  8
Mst 1_1
 62
   137
  6
CONTINUOUS
370
     9
100
AcDbPolyline
 90
        4
 70
     1
 43
0.0
 10
56.90525813
 20
-163.91266192
 10
54.76901283
 20
-159.88194764
 10
54.4344202
 20
-160.80123335
 10
56.57066549
 20
-164.83194764
  0
LINE
  5
12A
100
AcDbEntity
  8
Mst 1_1
 62
   137
  6
CONTINUOUS
370
     9
100
AcDbLine
 10
54.76901283
 20
-159.88194764
 30
0.0
 11
56.57066549
 21
-164.83194764
 31
0.0
  0
LWPOLYLINE
  5
12B
100
AcDbEntity
  8
Mst 1_1
 62
   137
  6
CONTINUOUS
370
     9
100
AcDbPolyline
 90
        4
 70
     1
 43
0.0
 10
53.22811527
 20
-163.91266192
 10
51.09186998
 20
-159.88194764
 10
50.75727734
 20
-160.80123335
 10
52.89352263
 20
-164.83194764
  0
LINE
  5
12C
100
AcDbEntity
  8
Mst 1_1
 62
   137
  6
CONTINUOUS
370
     9
100
AcDbLine
 10
51.09186998
 20
-159.88194764
 30
0.0
 11
52.89352263
 21
-164.83194764
 31
0.0
  0
LWPOLYLINE
  5
12D
100
AcDbEntity
  8
Mst 1_1
 62
   137
  6
CONTINUOUS
370
     9
100
AcDbPolyline
 90
        4
 70
     1
 43
0.0
 10
49.55097241
 20
-163.91266192
 10
47.41472712
 20
-159.88194764
 10
47.08013448
 20
-160.80123335
 10
49.21637978
 20
-164.83194764
  0
LINE
  5
12E
100
AcDbEntity
  8
Mst 1_1
 62
   137
  6
CONTINUOUS
370
     9
100
AcDbLine
 10
47.41472712
 20
-159.88194764
 30
0.0
 11
49.21637978
 21
-164.83194764
 31
0.0
  0
LWPOLYLINE
  5
12F
100
AcDbEntity
  8
Mst 1_1
 62
   137
  6
CONTINUOUS
370
     9
100
AcDbPolyline
 90
        7
 70
     1
 43
0.0
 10
-3.17595307
 20
-158.72694764
 10
-3.0389222
 20
-158.72694764
 10
0.45404693
 20
-160.80123335
 10
0.45404693
 20
-163.91266192
 10
-3.0389222
 20
-165.98694764
 10
-3.17595307
 20
-165.98694764
 10
-3.17595307
 20
-162.35694764
  0
LINE
  5
130
100
AcDbEntity
  8
Mst 1_1
 62
   137
  6
CONTINUOUS
370
     9
100
AcDbLine
 10
-3.0389222
 20
-158.72694764
 30
1000.0
 11
-3.0389222
 21
-165.98694764
 31
1000.0
  0
3DFACE
  5
131
100
AcDbEntity
  8
Mst 1_1
 62
   137
  6
CONTINUOUS
370
     9
100
AcDbFace
 70
     0
 10
0.15821976
 20
-164.36064996
 30
1000.0
 11
-2.44726786
 21
-165.98694764
 31
1000.0
 12
-3.0389222
 22
-165.98694764
 32
1000.0
 13
0.45404693
 23
-163.91266192
 33
1000.0
  0
LWPOLYLINE
  5
132
100
AcDbEntity
  8
Mst 1_1
 62
   137
  6
CONTINUOUS
370
     9
100
AcDbPolyline
 90
        6
 70
     1
 43
0.0
 38
1000.0
 39
-1000.0
 10
0.45404693
 20
-163.09639208
 10
0.10228749
 20
-162.98803497
 10
-2.50692895
 20
-163.72725745
 10
-3.0389222
 20
-164.10472542
 10
-2.38760677
 20
-164.14060159
 10
0.21415203
 20
-163.3755451
  0
3DFACE
  5
133
100
AcDbEntity
  8
Mst 1_1
 62
   137
  6
CONTINUOUS
370
     9
100
AcDbFace
 70
     0
 10
18.82404693
 20
-160.80123335
 30
1000.0
 11
0.45404693
 21
-160.80123335
 31
1000.0
 12
0.45404693
 22
-163.91266192
 32
1000.0
 13
18.82404693
 23
-163.91266192
 33
1000.0
  0
LWPOLYLINE
  5
134
100
AcDbEntity
  8
Mst 1_1
 62
   137
  6
CONTINUOUS
370
     9
100
AcDbPolyline
 90
        6
 70
     1
 43
0.0
 38
1000.0
 39
-1000.0
 10
0.45404693
 20
-161.61750319
 10
0.10228749
 20
-161.72586031
 10
-2.50692895
 20
-160.98663783
 10
-3.0389222
 20
-160.60916986
 10
-2.38760677
 20
-160.57329369
 10
0.21415203
 20
-161.33835018
  0
LINE
  5
135
100
AcDbEntity
  8
Mst 1_1
 62
   137
  6
CONTINUOUS
370
     9
100
AcDbLine
 10
-3.0389222
 20
-160.60916986
 30
1000.0
 11
0.45404693
 21
-161.61750319
 31
1000.0
  0
LINE
  5
136
100
AcDbEntity
  8
Mst 1_1
 62
   137
  6
CONTINUOUS
370
     9
100
AcDbLine
 10
-3.0389222
 20
-164.10472542
 30
1000.0
 11
0.45404693
 21
-163.09639208
 31
1000.0
  0
3DFACE
  5
137
100
AcDbEntity
  8
Mst 1_1
 62
   137
  6
CONTINUOUS
370
     9
100
AcDbFace
 70
     0
 10
0.15821976
 20
-160.35324532
 30
1000.0
 11
-2.44726786
 21
-158.72694764
 31
1000.0
 12
-3.0389222
 22
-158.72694764
 32
1000.0
 13
0.45404693
 23
-160.80123335
 33
1000.0
  0
LWPOLYLINE
  5
138
100
AcDbEntity
  8
Mst 1_1
 62
   137
  6
CONTINUOUS
370
     9
100
AcDbPolyline
 90
        6
 70
     1
 43
0.0
 38
1000.0
 39
-1000.0
 10
-3.17595307
 20
-162.35694764
 10
-3.17595307
 20
-165.98694764
 42
-0.11457924
 10
-3.83595307
 20
-164.32954583
 10
-3.83595307
 20
-162.35694764
 10
-3.83595307
 20
-160.38434945
 42
-0.11457924
 10
-3.17595307
 20
-158.72694764
  0
3DFACE
  5
139
100
AcDbEntity
  8
Mst 1_1
 62
   137
  6
CONTINUOUS
370
     9
100
AcDbFace
 70
     0
 10
34.56404693
 20
-160.5890905
 30
1000.0
 11
36.76404693
 21
-160.80123335
 31
1000.0
 12
36.76404693
 22
-163.91266192
 32
1000.0
 13
34.56404693
 23
-164.12480478
 33
1000.0
  0
3DFACE
  5
13A
100
AcDbEntity
  8
Mst 1_1
 62
   137
  6
CONTINUOUS
370
     9
100
AcDbFace
 70
     0
 10
19.92404693
 20
-160.5890905
 30
1000.0
 11
18.82404693
 21
-160.80123335
 31
1000.0
 12
18.82404693
 22
-163.91266192
 32
1000.0
 13
19.92404693
 23
-164.12480478
 33
1000.0
  0
LWPOLYLINE
  5
13B
100
AcDbEntity
  8
Mst 1_1
 62
   137
  6
CONTINUOUS
370
     9
100
AcDbPolyline
 90
        4
 70
     1
 43
0.0
 10
18.47799578
 20
-163.91266192
 10
16.6747815
 20
-159.63444764
 10
16.35656721
 20
-160.80123335
 10
18.1597815
 20
-165.07944764
  0
LINE
  5
13C
100
AcDbEntity
  8
Mst 1_1
 62
   137
  6
CONTINUOUS
370
     9
100
AcDbLine
 10
16.6747815
 20
-159.63444764
 30
0.0
 11
18.1597815
 21
-165.07944764
 31
0.0
  0
LWPOLYLINE
  5
13D
100
AcDbEntity
  8
Mst 1_1
 62
   137
  6
CONTINUOUS
370
     9
100
AcDbPolyline
 90
        4
 70
     1
 43
0.0
 10
15.50799578
 20
-163.91266192
 10
13.7047815
 20
-159.63444764
 10
13.38656721
 20
-160.80123335
 10
15.1897815
 20
-165.07944764
  0
LINE
  5
13E
100
AcDbEntity
  8
Mst 1_1
 62
   137
  6
CONTINUOUS
370
     9
100
AcDbLine
 10
13.7047815
 20
-159.63444764
 30
0.0
 11
15.1897815
 21
-165.07944764
 31
0.0
  0
LWPOLYLINE
  5
13F
100
AcDbEntity
  8
Mst 1_1
 62
   137
  6
CONTINUOUS
370
     9
100
AcDbPolyline
 90
        4
 70
     1
 43
0.0
 10
12.53799578
 20
-163.91266192
 10
10.7347815
 20
-159.63444764
 10
10.41656721
 20
-160.80123335
 10
12.2197815
 20
-165.07944764
  0
LINE
  5
140
100
AcDbEntity
  8
Mst 1_1
 62
   137
  6
CONTINUOUS
370
     9
100
AcDbLine
 10
10.7347815
 20
-159.63444764
 30
0.0
 11
12.2197815
 21
-165.07944764
 31
0.0
  0
LWPOLYLINE
  5
141
100
AcDbEntity
  8
Mst 1_1
 62
   137
  6
CONTINUOUS
370
     9
100
AcDbPolyline
 90
        4
 70
     1
 43
0.0
 10
9.56799578
 20
-163.91266192
 10
7.7647815
 20
-159.63444764
 10
7.44656721
 20
-160.80123335
 10
9.2497815
 20
-165.07944764
  0
LINE
  5
142
100
AcDbEntity
  8
Mst 1_1
 62
   137
  6
CONTINUOUS
370
     9
100
AcDbLine
 10
7.7647815
 20
-159.63444764
 30
0.0
 11
9.2497815
 21
-165.07944764
 31
0.0
  0
LWPOLYLINE
  5
143
100
AcDbEntity
  8
Mst 1_1
 62
   137
  6
CONTINUOUS
370
     9
100
AcDbPolyline
 90
        4
 70
     1
 43
0.0
 10
6.59799578
 20
-163.91266192
 10
4.7947815
 20
-159.63444764
 10
4.47656721
 20
-160.80123335
 10
6.2797815
 20
-165.07944764
  0
LINE
  5
144
100
AcDbEntity
  8
Mst 1_1
 62
   137
  6
CONTINUOUS
370
     9
100
AcDbLine
 10
4.7947815
 20
-159.63444764
 30
0.0
 11
6.2797815
 21
-165.07944764
 31
0.0
  0
LWPOLYLINE
  5
145
100
AcDbEntity
  8
Mst 1_1
 62
   137
  6
CONTINUOUS
370
     9
100
AcDbPolyline
 90
        4
 70
     1
 43
0.0
 10
3.62799578
 20
-163.91266192
 10
1.8247815
 20
-159.63444764
 10
1.50656721
 20
-160.80123335
 10
3.3097815
 20
-165.07944764
  0
LINE
  5
146
100
AcDbEntity
  8
Mst 1_1
 62
   137
  6
CONTINUOUS
370
     9
100
AcDbLine
 10
1.8247815
 20
-159.63444764
 30
0.0
 11
3.3097815
 21
-165.07944764
 31
0.0
  0
CIRCLE
  5
147
100
AcDbEntity
  8
Mst 1_1
 62
   137
  6
CONTINUOUS
370
     9
100
AcDbCircle
 10
-77.49213075
 20
-102.35694764
 30
0.0
 40
1.97011029
  0
CIRCLE
  5
148
100
AcDbEntity
  8
Mst 1_1
 62
   137
  6
CONTINUOUS
370
     9
100
AcDbCircle
 10
-77.49213075
 20
-102.35694764
 30
0.0
 40
3.3
  0
ARC
  5
149
100
AcDbEntity
  8
Mst 1_1
 62
   137
  6
CONTINUOUS
370
     9
100
AcDbCircle
 10
-79.10585691
 20
-102.35694764
 30
0.0
 40
0.35638414
100
AcDbArc
 50
104.00039951
 51
255.99960049
  0
ARC
  5
14A
100
AcDbEntity
  8
Mst 1_1
 62
   137
  6
CONTINUOUS
370
     9
100
AcDbCircle
 10
-79.37722352
 20
-103.44530649
 30
0.0
 40
0.76529533
100
AcDbArc
 50
344.00041281
 51
75.99958535
  0
ARC
  5
14B
100
AcDbEntity
  8
Mst 1_1
 62
   137
  6
CONTINUOUS
370
     9
100
AcDbCircle
 10
-78.29899381
 20
-103.7544755
 30
0.0
 40
0.35638413
100
AcDbArc
 50
164.00040911
 51
315.99958502
  0
ARC
  5
14C
100
AcDbEntity
  8
Mst 1_1
 62
   137
  6
CONTINUOUS
370
     9
100
AcDbCircle
 10
-77.49213075
 20
-104.5336652
 30
0.0
 40
0.76529523
100
AcDbArc
 50
44.00040429
 51
135.99959571
  0
ARC
  5
14D
100
AcDbEntity
  8
Mst 1_1
 62
   137
  6
CONTINUOUS
370
     9
100
AcDbCircle
 10
-76.68526765
 20
-103.75447556
 30
0.0
 40
0.35638411
100
AcDbArc
 50
224.00040506
 51
15.9996008
  0
ARC
  5
14E
100
AcDbEntity
  8
Mst 1_1
 62
   137
  6
CONTINUOUS
370
     9
100
AcDbCircle
 10
-75.87840458
 20
-102.35694764
 30
0.0
 40
0.35638414
100
AcDbArc
 50
284.00039951
 51
75.99960049
  0
ARC
  5
14F
100
AcDbEntity
  8
Mst 1_1
 62
   137
  6
CONTINUOUS
370
     9
100
AcDbCircle
 10
-75.60703797
 20
-101.26858879
 30
0.0
 40
0.76529533
100
AcDbArc
 50
164.00041281
 51
255.99958535
  0
ARC
  5
150
100
AcDbEntity
  8
Mst 1_1
 62
   137
  6
CONTINUOUS
370
     9
100
AcDbCircle
 10
-76.68526768
 20
-100.95941978
 30
0.0
 40
0.35638413
100
AcDbArc
 50
344.00040911
 51
135.99958502
  0
ARC
  5
151
100
AcDbEntity
  8
Mst 1_1
 62
   137
  6
CONTINUOUS
370
     9
100
AcDbCircle
 10
-77.49213075
 20
-100.18023008
 30
0.0
 40
0.76529523
100
AcDbArc
 50
224.00040429
 51
315.99959571
  0
ARC
  5
152
100
AcDbEntity
  8
Mst 1_1
 62
   137
  6
CONTINUOUS
370
     9
100
AcDbCircle
 10
-78.29899384
 20
-100.95941972
 30
0.0
 40
0.35638411
100
AcDbArc
 50
44.00040506
 51
195.9996008
  0
ARC
  5
153
100
AcDbEntity
  8
Mst 1_1
 62
   137
  6
CONTINUOUS
370
     9
100
AcDbCircle
 10
-79.37722352
 20
-101.26858879
 30
0.0
 40
0.76529533
100
AcDbArc
 50
284.00041459
 51
15.99958726
  0
ARC
  5
154
100
AcDbEntity
  8
Mst 1_1
 62
   137
  6
CONTINUOUS
370
     9
100
AcDbCircle
 10
-75.60703797
 20
-103.44530649
 30
0.0
 40
0.76529533
100
AcDbArc
 50
104.00041459
 51
195.99958726
  0
CIRCLE
  5
155
100
AcDbEntity
  8
Mst 1_1
 62
   137
  6
CONTINUOUS
370
     9
100
AcDbCircle
 10
-77.49213075
 20
-72.35694764
 30
0.0
 40
1.97011029
  0
CIRCLE
  5
156
100
AcDbEntity
  8
Mst 1_1
 62
   137
  6
CONTINUOUS
370
     9
100
AcDbCircle
 10
-77.49213075
 20
-72.35694764
 30
0.0
 40
3.3
  0
ARC
  5
157
100
AcDbEntity
  8
Mst 1_1
 62
   137
  6
CONTINUOUS
370
     9
100
AcDbCircle
 10
-79.10585691
 20
-72.35694764
 30
0.0
 40
0.35638414
100
AcDbArc
 50
104.00039951
 51
255.99960049
  0
ARC
  5
158
100
AcDbEntity
  8
Mst 1_1
 62
   137
  6
CONTINUOUS
370
     9
100
AcDbCircle
 10
-79.37722352
 20
-73.44530649
 30
0.0
 40
0.76529533
100
AcDbArc
 50
344.00041281
 51
75.99958535
  0
ARC
  5
159
100
AcDbEntity
  8
Mst 1_1
 62
   137
  6
CONTINUOUS
370
     9
100
AcDbCircle
 10
-78.29899381
 20
-73.7544755
 30
0.0
 40
0.35638413
100
AcDbArc
 50
164.00040911
 51
315.99958502
  0
ARC
  5
15A
100
AcDbEntity
  8
Mst 1_1
 62
   137
  6
CONTINUOUS
370
     9
100
AcDbCircle
 10
-77.49213075
 20
-74.5336652
 30
0.0
 40
0.76529523
100
AcDbArc
 50
44.00040429
 51
135.99959571
  0
ARC
  5
15B
100
AcDbEntity
  8
Mst 1_1
 62
   137
  6
CONTINUOUS
370
     9
100
AcDbCircle
 10
-76.68526765
 20
-73.75447556
 30
0.0
 40
0.35638411
100
AcDbArc
 50
224.00040506
 51
15.9996008
  0
ARC
  5
15C
100
AcDbEntity
  8
Mst 1_1
 62
   137
  6
CONTINUOUS
370
     9
100
AcDbCircle
 10
-75.87840458
 20
-72.35694764
 30
0.0
 40
0.35638414
100
AcDbArc
 50
284.00039951
 51
75.99960049
  0
ARC
  5
15D
100
AcDbEntity
  8
Mst 1_1
 62
   137
  6
CONTINUOUS
370
     9
100
AcDbCircle
 10
-75.60703797
 20
-71.26858879
 30
0.0
 40
0.76529533
100
AcDbArc
 50
164.00041281
 51
255.99958535
  0
ARC
  5
15E
100
AcDbEntity
  8
Mst 1_1
 62
   137
  6
CONTINUOUS
370
     9
100
AcDbCircle
 10
-76.68526768
 20
-70.95941978
 30
0.0
 40
0.35638413
100
AcDbArc
 50
344.00040911
 51
135.99958502
  0
ARC
  5
15F
100
AcDbEntity
  8
Mst 1_1
 62
   137
  6
CONTINUOUS
370
     9
100
AcDbCircle
 10
-77.49213075
 20
-70.18023008
 30
0.0
 40
0.76529523
100
AcDbArc
 50
224.00040429
 51
315.99959571
  0
ARC
  5
160
100
AcDbEntity
  8
Mst 1_1
 62
   137
  6
CONTINUOUS
370
     9
100
AcDbCircle
 10
-78.29899384
 20
-70.95941972
 30
0.0
 40
0.35638411
100
AcDbArc
 50
44.00040506
 51
195.9996008
  0
ARC
  5
161
100
AcDbEntity
  8
Mst 1_1
 62
   137
  6
CONTINUOUS
370
     9
100
AcDbCircle
 10
-79.37722352
 20
-71.26858879
 30
0.0
 40
0.76529533
100
AcDbArc
 50
284.00041459
 51
15.99958726
  0
ARC
  5
162
100
AcDbEntity
  8
Mst 1_1
 62
   137
  6
CONTINUOUS
370
     9
100
AcDbCircle
 10
-75.60703797
 20
-73.44530649
 30
0.0
 40
0.76529533
100
AcDbArc
 50
104.00041459
 51
195.99958726
  0
POLYLINE
  5
163
100
AcDbEntity
  8
Mst 1_1
 62
   137
  6
CONTINUOUS
370
     9
100
AcDb3dPolyline
 66
     1
 70
     9
 10
0.0
 20
0.0
 30
1000.0
 39
-1000.0
  0
VERTEX
  5
164
100
AcDbEntity
  8
Mst 1_1
100
AcDbVertex
100
AcDb3dPolylineVertex
 10
47.41945369
 20
-104.02305026
 30
1000.0
 70
    32
  0
VERTEX
  5
165
100
AcDbEntity
  8
Mst 1_1
100
AcDbVertex
100
AcDb3dPolylineVertex
 10
26.58220489
 20
-104.02305026
 30
1000.0
 70
    32
  0
VERTEX
  5
166
100
AcDbEntity
  8
Mst 1_1
100
AcDbVertex
100
AcDb3dPolylineVertex
 10
26.58220489
 20
-100.91162169
 30
1000.0
 70
    32
  0
VERTEX
  5
167
100
AcDbEntity
  8
Mst 1_1
100
AcDbVertex
100
AcDb3dPolylineVertex
 10
47.41945369
 20
-100.91162169
 30
1000.0
 70
    32
  0
VERTEX
  5
168
100
AcDbEntity
  8
Mst 1_1
100
AcDbVertex
100
AcDb3dPolylineVertex
 10
48.0780307
 20
-100.92933894
 30
1250.0
 70
    32
  0
VERTEX
  5
169
100
AcDbEntity
  8
Mst 1_1
100
AcDbVertex
100
AcDb3dPolylineVertex
 10
48.73594702
 20
-100.96374393
 30
1500.0
 70
    32
  0
VERTEX
  5
16A
100
AcDbEntity
  8
Mst 1_1
100
AcDbVertex
100
AcDb3dPolylineVertex
 10
49.39277986
 20
-101.01481455
 30
1750.0
 70
    32
  0
VERTEX
  5
16B
100
AcDbEntity
  8
Mst 1_1
100
AcDbVertex
100
AcDb3dPolylineVertex
 10
50.04810713
 20
-101.08251798
 30
2000.0
 70
    32
  0
VERTEX
  5
16C
100
AcDbEntity
  8
Mst 1_1
100
AcDbVertex
100
AcDb3dPolylineVertex
 10
50.70150771
 20
-101.16681071
 30
2250.0
 70
    32
  0
VERTEX
  5
16D
100
AcDbEntity
  8
Mst 1_1
100
AcDbVertex
100
AcDb3dPolylineVertex
 10
51.35256172
 20
-101.26763858
 30
2500.0
 70
    32
  0
VERTEX
  5
16E
100
AcDbEntity
  8
Mst 1_1
100
AcDbVertex
100
AcDb3dPolylineVertex
 10
56.76404693
 20
-102.46733597
 30
2500.0
 70
    32
  0
VERTEX
  5
16F
100
AcDbEntity
  8
Mst 1_1
100
AcDbVertex
100
AcDb3dPolylineVertex
 10
51.35256172
 20
-103.66703336
 30
2500.0
 70
    32
  0
VERTEX
  5
170
100
AcDbEntity
  8
Mst 1_1
100
AcDbVertex
100
AcDb3dPolylineVertex
 10
50.70150771
 20
-103.76786123
 30
2250.0
 70
    32
  0
VERTEX
  5
171
100
AcDbEntity
  8
Mst 1_1
100
AcDbVertex
100
AcDb3dPolylineVertex
 10
50.04810713
 20
-103.85215397
 30
2000.0
 70
    32
  0
VERTEX
  5
172
100
AcDbEntity
  8
Mst 1_1
100
AcDbVertex
100
AcDb3dPolylineVertex
 10
49.39277986
 20
-103.9198574
 30
1750.0
 70
    32
  0
VERTEX
  5
173
100
AcDbEntity
  8
Mst 1_1
100
AcDbVertex
100
AcDb3dPolylineVertex
 10
48.73594702
 20
-103.97092802
 30
1500.0
 70
    32
  0
VERTEX
  5
174
100
AcDbEntity
  8
Mst 1_1
100
AcDbVertex
100
AcDb3dPolylineVertex
 10
48.0780307
 20
-104.00533301
 30
1250.0
 70
    32
  0
VERTEX
  5
175
100
AcDbEntity
  8
Mst 1_1
100
AcDbVertex
100
AcDb3dPolylineVertex
 10
47.41945369
 20
-104.02305026
 30
1000.0
 70
    32
  0
SEQEND
  5
176
100
AcDbEntity
  8
Mst 1_1
  0
LWPOLYLINE
  5
177
100
AcDbEntity
  8
Mst 1_1
 62
   137
  6
CONTINUOUS
370
     9
100
AcDbPolyline
 90
        4
 70
     1
 43
0.0
 10
24.38220489
 20
-100.69947883
 10
17.92404693
 20
-100.69947883
 10
17.92404693
 20
-104.23519311
 10
24.38220489
 20
-104.23519311
  0
LWPOLYLINE
  5
178
100
AcDbEntity
  8
Mst 1_1
 62
   137
  6
CONTINUOUS
370
     9
100
AcDbPolyline
 90
        4
 70
     1
 43
0.0
 10
47.43875711
 20
-104.02305026
 10
45.30251181
 20
-99.99233597
 10
44.96791917
 20
-100.91162169
 10
47.10416447
 20
-104.94233597
  0
LWPOLYLINE
  5
179
100
AcDbEntity
  8
Mst 1_1
 62
   137
  6
CONTINUOUS
370
     9
100
AcDbPolyline
 90
        4
 70
     1
 43
0.0
 10
50.96566033
 20
-103.72653326
 10
49.03953477
 20
-100.03964272
 10
48.70066863
 20
-100.97128262
 10
50.644407
 20
-104.61003756
  0
LINE
  5
17A
100
AcDbEntity
  8
Mst 1_1
 62
   137
  6
CONTINUOUS
370
     9
100
AcDbLine
 10
49.03953477
 20
-100.03964272
 30
0.0
 11
50.644407
 21
-104.61003756
 31
0.0
  0
LWPOLYLINE
  5
17B
100
AcDbEntity
  8
Mst 1_1
 62
   137
  6
CONTINUOUS
370
     9
100
AcDbPolyline
 90
        4
 70
     1
 43
0.0
 10
54.0355687
 20
-103.07222503
 10
52.77871933
 20
-100.64766218
 10
52.46343011
 20
-101.51391218
 10
53.72027949
 20
-103.93847503
  0
LINE
  5
17C
100
AcDbEntity
  8
Mst 1_1
 62
   137
  6
CONTINUOUS
370
     9
100
AcDbLine
 10
52.77871933
 20
-100.64766218
 30
0.0
 11
53.72027949
 21
-103.93847503
 31
0.0
  0
LWPOLYLINE
  5
17D
100
AcDbEntity
  8
Mst 1_1
 62
   137
  6
CONTINUOUS
370
     9
100
AcDbPolyline
 90
        4
 70
     1
 43
0.0
 10
56.26611733
 20
-102.35694764
 10
55.9220893
 20
-101.69329008
 10
55.72426029
 20
-102.23682082
 10
56.20381897
 20
-102.46733597
  0
LINE
  5
17E
100
AcDbEntity
  8
Mst 1_1
 62
   137
  6
CONTINUOUS
370
     9
100
AcDbLine
 10
55.9220893
 20
-101.69329008
 30
0.0
 11
56.20381897
 21
-102.46733597
 31
0.0
  0
LWPOLYLINE
  5
17F
100
AcDbEntity
  8
Mst 1_1
 62
   137
  6
CONTINUOUS
370
     9
100
AcDbPolyline
 90
        3
 70
     0
 43
0.0
 38
2500.0
 10
52.60930411
 20
-101.11312666
 10
51.35256172
 20
-100.83451358
 42
0.02538716
 10
49.29018953
 20
-100.51943318
  0
LWPOLYLINE
  5
180
100
AcDbEntity
  8
Mst 1_1
 62
   137
  6
CONTINUOUS
370
     9
100
AcDbPolyline
 90
        3
 70
     0
 43
0.0
 38
2500.0
 10
53.55139751
 20
-103.6126882
 10
51.35256172
 20
-104.10015836
 42
-0.00622926
 10
50.79035938
 20
-104.20864234
  0
LINE
  5
181
100
AcDbEntity
  8
Mst 1_1
 62
   137
  6
CONTINUOUS
370
     9
100
AcDbLine
 10
45.30251181
 20
-99.99233597
 30
0.0
 11
47.10416447
 21
-104.94233597
 31
0.0
  0
LWPOLYLINE
  5
182
100
AcDbEntity
  8
Mst 1_1
 62
     1
  6
CADWORK_8
370
    15
100
AcDbPolyline
 90
        3
 70
     0
 43
0.0
 10
56.76404693
 20
-102.46733597
 10
-3.17595307
 20
-102.46733597
 10
-3.17595307
 20
-102.46733597
  0
LWPOLYLINE
  5
183
100
AcDbEntity
  8
Mst 1_1
 62
   137
  6
CONTINUOUS
370
     9
100
AcDbPolyline
 90
        4
 70
     1
 43
0.0
 10
43.76161425
 20
-104.02305026
 10
41.62536895
 20
-99.99233597
 10
41.29077632
 20
-100.91162169
 10
43.42702161
 20
-104.94233597
  0
LINE
  5
184
100
AcDbEntity
  8
Mst 1_1
 62
   137
  6
CONTINUOUS
370
     9
100
AcDbLine
 10
41.62536895
 20
-99.99233597
 30
0.0
 11
43.42702161
 21
-104.94233597
 31
0.0
  0
LWPOLYLINE
  5
185
100
AcDbEntity
  8
Mst 1_1
 62
   137
  6
CONTINUOUS
370
     9
100
AcDbPolyline
 90
        4
 70
     1
 43
0.0
 10
40.08447139
 20
-104.02305026
 10
37.9482261
 20
-99.99233597
 10
37.61363346
 20
-100.91162169
 10
39.74987876
 20
-104.94233597
  0
LINE
  5
186
100
AcDbEntity
  8
Mst 1_1
 62
   137
  6
CONTINUOUS
370
     9
100
AcDbLine
 10
37.9482261
 20
-99.99233597
 30
0.0
 11
39.74987876
 21
-104.94233597
 31
0.0
  0
LWPOLYLINE
  5
187
100
AcDbEntity
  8
Mst 1_1
 62
   137
  6
CONTINUOUS
370
     9
100
AcDbPolyline
 90
        4
 70
     1
 43
0.0
 10
36.40732854
 20
-104.02305026
 10
34.27108324
 20
-99.99233597
 10
33.9364906
 20
-100.91162169
 10
36.0727359
 20
-104.94233597
  0
LINE
  5
188
100
AcDbEntity
  8
Mst 1_1
 62
   137
  6
CONTINUOUS
370
     9
100
AcDbLine
 10
34.27108324
 20
-99.99233597
 30
0.0
 11
36.0727359
 21
-104.94233597
 31
0.0
  0
LWPOLYLINE
  5
189
100
AcDbEntity
  8
Mst 1_1
 62
   137
  6
CONTINUOUS
370
     9
100
AcDbPolyline
 90
        4
 70
     1
 43
0.0
 10
32.73018568
 20
-104.02305026
 10
30.59394038
 20
-99.99233597
 10
30.25934775
 20
-100.91162169
 10
32.39559304
 20
-104.94233597
  0
LINE
  5
18A
100
AcDbEntity
  8
Mst 1_1
 62
   137
  6
CONTINUOUS
370
     9
100
AcDbLine
 10
30.59394038
 20
-99.99233597
 30
0.0
 11
32.39559304
 21
-104.94233597
 31
0.0
  0
LWPOLYLINE
  5
18B
100
AcDbEntity
  8
Mst 1_1
 62
   137
  6
CONTINUOUS
370
     9
100
AcDbPolyline
 90
        4
 70
     1
 43
0.0
 10
29.05304282
 20
-104.02305026
 10
26.91679752
 20
-99.99233597
 10
26.58220489
 20
-100.91162169
 10
28.71845018
 20
-104.94233597
  0
LINE
  5
18C
100
AcDbEntity
  8
Mst 1_1
 62
   137
  6
CONTINUOUS
370
     9
100
AcDbLine
 10
26.91679752
 20
-99.99233597
 30
0.0
 11
28.71845018
 21
-104.94233597
 31
0.0
  0
LWPOLYLINE
  5
18D
100
AcDbEntity
  8
Mst 1_1
 62
   137
  6
CONTINUOUS
370
     9
100
AcDbPolyline
 90
        7
 70
     1
 43
0.0
 10
-3.17595307
 20
-98.83733597
 10
-3.0389222
 20
-98.83733597
 10
0.45404693
 20
-100.91162169
 10
0.45404693
 20
-104.02305026
 10
-3.0389222
 20
-106.09733597
 10
-3.17595307
 20
-106.09733597
 10
-3.17595307
 20
-102.46733597
  0
LINE
  5
18E
100
AcDbEntity
  8
Mst 1_1
 62
   137
  6
CONTINUOUS
370
     9
100
AcDbLine
 10
-3.0389222
 20
-98.83733597
 30
1000.0
 11
-3.0389222
 21
-106.09733597
 31
1000.0
  0
3DFACE
  5
18F
100
AcDbEntity
  8
Mst 1_1
 62
   137
  6
CONTINUOUS
370
     9
100
AcDbFace
 70
     0
 10
0.15821976
 20
-104.47103829
 30
1000.0
 11
-2.44726786
 21
-106.09733597
 31
1000.0
 12
-3.0389222
 22
-106.09733597
 32
1000.0
 13
0.45404693
 23
-104.02305026
 33
1000.0
  0
LWPOLYLINE
  5
190
100
AcDbEntity
  8
Mst 1_1
 62
   137
  6
CONTINUOUS
370
     9
100
AcDbPolyline
 90
        6
 70
     1
 43
0.0
 38
1000.0
 39
-1000.0
 10
0.45404693
 20
-103.20678042
 10
0.10228749
 20
-103.0984233
 10
-2.50692895
 20
-103.83764578
 10
-3.0389222
 20
-104.21511375
 10
-2.38760677
 20
-104.25098992
 10
0.21415203
 20
-103.48593343
  0
3DFACE
  5
191
100
AcDbEntity
  8
Mst 1_1
 62
   137
  6
CONTINUOUS
370
     9
100
AcDbFace
 70
     0
 10
16.82404693
 20
-100.91162169
 30
1000.0
 11
0.45404693
 21
-100.91162169
 31
1000.0
 12
0.45404693
 22
-104.02305026
 32
1000.0
 13
16.82404693
 23
-104.02305026
 33
1000.0
  0
LWPOLYLINE
  5
192
100
AcDbEntity
  8
Mst 1_1
 62
   137
  6
CONTINUOUS
370
     9
100
AcDbPolyline
 90
        6
 70
     1
 43
0.0
 38
1000.0
 39
-1000.0
 10
0.45404693
 20
-101.72789153
 10
0.10228749
 20
-101.83624865
 10
-2.50692895
 20
-101.09702616
 10
-3.0389222
 20
-100.71955819
 10
-2.38760677
 20
-100.68368202
 10
0.21415203
 20
-101.44873851
  0
LINE
  5
193
100
AcDbEntity
  8
Mst 1_1
 62
   137
  6
CONTINUOUS
370
     9
100
AcDbLine
 10
-3.0389222
 20
-100.71955819
 30
1000.0
 11
0.45404693
 21
-101.72789153
 31
1000.0
  0
LINE
  5
194
100
AcDbEntity
  8
Mst 1_1
 62
   137
  6
CONTINUOUS
370
     9
100
AcDbLine
 10
-3.0389222
 20
-104.21511375
 30
1000.0
 11
0.45404693
 21
-103.20678042
 31
1000.0
  0
3DFACE
  5
195
100
AcDbEntity
  8
Mst 1_1
 62
   137
  6
CONTINUOUS
370
     9
100
AcDbFace
 70
     0
 10
0.15821976
 20
-100.46363365
 30
1000.0
 11
-2.44726786
 21
-98.83733597
 31
1000.0
 12
-3.0389222
 22
-98.83733597
 32
1000.0
 13
0.45404693
 23
-100.91162169
 33
1000.0
  0
LWPOLYLINE
  5
196
100
AcDbEntity
  8
Mst 1_1
 62
   137
  6
CONTINUOUS
370
     9
100
AcDbPolyline
 90
        6
 70
     1
 43
0.0
 38
1000.0
 39
-1000.0
 10
-3.17595307
 20
-102.46733597
 10
-3.17595307
 20
-106.09733597
 42
-0.11457924
 10
-3.83595307
 20
-104.43993416
 10
-3.83595307
 20
-102.46733597
 10
-3.83595307
 20
-100.49473778
 42
-0.11457924
 10
-3.17595307
 20
-98.83733597
  0
3DFACE
  5
197
100
AcDbEntity
  8
Mst 1_1
 62
   137
  6
CONTINUOUS
370
     9
100
AcDbFace
 70
     0
 10
24.38220489
 20
-100.69947883
 30
1000.0
 11
26.58220489
 21
-100.91162169
 31
1000.0
 12
26.58220489
 22
-104.02305026
 32
1000.0
 13
24.38220489
 23
-104.23519311
 33
1000.0
  0
3DFACE
  5
198
100
AcDbEntity
  8
Mst 1_1
 62
   137
  6
CONTINUOUS
370
     9
100
AcDbFace
 70
     0
 10
17.92404693
 20
-100.69947883
 30
1000.0
 11
16.82404693
 21
-100.91162169
 31
1000.0
 12
16.82404693
 22
-104.02305026
 32
1000.0
 13
17.92404693
 23
-104.23519311
 33
1000.0
  0
LWPOLYLINE
  5
199
100
AcDbEntity
  8
Mst 1_1
 62
   137
  6
CONTINUOUS
370
     9
100
AcDbPolyline
 90
        4
 70
     1
 43
0.0
 10
15.50799578
 20
-104.02305026
 10
13.7047815
 20
-99.74483597
 10
13.38656721
 20
-100.91162169
 10
15.1897815
 20
-105.18983597
  0
LINE
  5
19A
100
AcDbEntity
  8
Mst 1_1
 62
   137
  6
CONTINUOUS
370
     9
100
AcDbLine
 10
13.7047815
 20
-99.74483597
 30
0.0
 11
15.1897815
 21
-105.18983597
 31
0.0
  0
LWPOLYLINE
  5
19B
100
AcDbEntity
  8
Mst 1_1
 62
   137
  6
CONTINUOUS
370
     9
100
AcDbPolyline
 90
        4
 70
     1
 43
0.0
 10
12.53799578
 20
-104.02305026
 10
10.7347815
 20
-99.74483597
 10
10.41656721
 20
-100.91162169
 10
12.2197815
 20
-105.18983597
  0
LINE
  5
19C
100
AcDbEntity
  8
Mst 1_1
 62
   137
  6
CONTINUOUS
370
     9
100
AcDbLine
 10
10.7347815
 20
-99.74483597
 30
0.0
 11
12.2197815
 21
-105.18983597
 31
0.0
  0
LWPOLYLINE
  5
19D
100
AcDbEntity
  8
Mst 1_1
 62
   137
  6
CONTINUOUS
370
     9
100
AcDbPolyline
 90
        4
 70
     1
 43
0.0
 10
9.56799578
 20
-104.02305026
 10
7.7647815
 20
-99.74483597
 10
7.44656721
 20
-100.91162169
 10
9.2497815
 20
-105.18983597
  0
LINE
  5
19E
100
AcDbEntity
  8
Mst 1_1
 62
   137
  6
CONTINUOUS
370
     9
100
AcDbLine
 10
7.7647815
 20
-99.74483597
 30
0.0
 11
9.2497815
 21
-105.18983597
 31
0.0
  0
LWPOLYLINE
  5
19F
100
AcDbEntity
  8
Mst 1_1
 62
   137
  6
CONTINUOUS
370
     9
100
AcDbPolyline
 90
        4
 70
     1
 43
0.0
 10
6.59799578
 20
-104.02305026
 10
4.7947815
 20
-99.74483597
 10
4.47656721
 20
-100.91162169
 10
6.2797815
 20
-105.18983597
  0
LINE
  5
1A0
100
AcDbEntity
  8
Mst 1_1
 62
   137
  6
CONTINUOUS
370
     9
100
AcDbLine
 10
4.7947815
 20
-99.74483597
 30
0.0
 11
6.2797815
 21
-105.18983597
 31
0.0
  0
LWPOLYLINE
  5
1A1
100
AcDbEntity
  8
Mst 1_1
 62
   137
  6
CONTINUOUS
370
     9
100
AcDbPolyline
 90
        4
 70
     1
 43
0.0
 10
3.62799578
 20
-104.02305026
 10
1.8247815
 20
-99.74483597
 10
1.50656721
 20
-100.91162169
 10
3.3097815
 20
-105.18983597
  0
LINE
  5
1A2
100
AcDbEntity
  8
Mst 1_1
 62
   137
  6
CONTINUOUS
370
     9
100
AcDbLine
 10
1.8247815
 20
-99.74483597
 30
0.0
 11
3.3097815
 21
-105.18983597
 31
0.0
  0
POLYLINE
  5
1A3
100
AcDbEntity
  8
Mst 1_1
 62
   137
  6
CONTINUOUS
370
     9
100
AcDb3dPolyline
 66
     1
 70
     9
 10
0.0
 20
0.0
 30
1000.0
 39
-1000.0
  0
VERTEX
  5
1A4
100
AcDbEntity
  8
Mst 1_1
100
AcDbVertex
100
AcDb3dPolylineVertex
 10
37.41945369
 20
-73.91266192
 30
1000.0
 70
    32
  0
VERTEX
  5
1A5
100
AcDbEntity
  8
Mst 1_1
100
AcDbVertex
100
AcDb3dPolylineVertex
 10
19.26404693
 20
-73.91266192
 30
1000.0
 70
    32
  0
VERTEX
  5
1A6
100
AcDbEntity
  8
Mst 1_1
100
AcDbVertex
100
AcDb3dPolylineVertex
 10
19.26404693
 20
-70.80123335
 30
1000.0
 70
    32
  0
VERTEX
  5
1A7
100
AcDbEntity
  8
Mst 1_1
100
AcDbVertex
100
AcDb3dPolylineVertex
 10
37.41945369
 20
-70.80123335
 30
1000.0
 70
    32
  0
VERTEX
  5
1A8
100
AcDbEntity
  8
Mst 1_1
100
AcDbVertex
100
AcDb3dPolylineVertex
 10
38.0780307
 20
-70.8189506
 30
1250.0
 70
    32
  0
VERTEX
  5
1A9
100
AcDbEntity
  8
Mst 1_1
100
AcDbVertex
100
AcDb3dPolylineVertex
 10
38.73594702
 20
-70.85335559
 30
1500.0
 70
    32
  0
VERTEX
  5
1AA
100
AcDbEntity
  8
Mst 1_1
100
AcDbVertex
100
AcDb3dPolylineVertex
 10
39.39277986
 20
-70.90442621
 30
1750.0
 70
    32
  0
VERTEX
  5
1AB
100
AcDbEntity
  8
Mst 1_1
100
AcDbVertex
100
AcDb3dPolylineVertex
 10
40.04810713
 20
-70.97212964
 30
2000.0
 70
    32
  0
VERTEX
  5
1AC
100
AcDbEntity
  8
Mst 1_1
100
AcDbVertex
100
AcDb3dPolylineVertex
 10
40.70150771
 20
-71.05642238
 30
2250.0
 70
    32
  0
VERTEX
  5
1AD
100
AcDbEntity
  8
Mst 1_1
100
AcDbVertex
100
AcDb3dPolylineVertex
 10
41.35256172
 20
-71.15725025
 30
2500.0
 70
    32
  0
VERTEX
  5
1AE
100
AcDbEntity
  8
Mst 1_1
100
AcDbVertex
100
AcDb3dPolylineVertex
 10
46.76404693
 20
-72.35694764
 30
2500.0
 70
    32
  0
VERTEX
  5
1AF
100
AcDbEntity
  8
Mst 1_1
100
AcDbVertex
100
AcDb3dPolylineVertex
 10
41.35256172
 20
-73.55664503
 30
2500.0
 70
    32
  0
VERTEX
  5
1B0
100
AcDbEntity
  8
Mst 1_1
100
AcDbVertex
100
AcDb3dPolylineVertex
 10
40.70150771
 20
-73.6574729
 30
2250.0
 70
    32
  0
VERTEX
  5
1B1
100
AcDbEntity
  8
Mst 1_1
100
AcDbVertex
100
AcDb3dPolylineVertex
 10
40.04810713
 20
-73.74176563
 30
2000.0
 70
    32
  0
VERTEX
  5
1B2
100
AcDbEntity
  8
Mst 1_1
100
AcDbVertex
100
AcDb3dPolylineVertex
 10
39.39277986
 20
-73.80946907
 30
1750.0
 70
    32
  0
VERTEX
  5
1B3
100
AcDbEntity
  8
Mst 1_1
100
AcDbVertex
100
AcDb3dPolylineVertex
 10
38.73594702
 20
-73.86053968
 30
1500.0
 70
    32
  0
VERTEX
  5
1B4
100
AcDbEntity
  8
Mst 1_1
100
AcDbVertex
100
AcDb3dPolylineVertex
 10
38.0780307
 20
-73.89494467
 30
1250.0
 70
    32
  0
VERTEX
  5
1B5
100
AcDbEntity
  8
Mst 1_1
100
AcDbVertex
100
AcDb3dPolylineVertex
 10
37.41945369
 20
-73.91266192
 30
1000.0
 70
    32
  0
SEQEND
  5
1B6
100
AcDbEntity
  8
Mst 1_1
  0
LWPOLYLINE
  5
1B7
100
AcDbEntity
  8
Mst 1_1
 62
   137
  6
CONTINUOUS
370
     9
100
AcDbPolyline
 90
        4
 70
     1
 43
0.0
 10
37.43875711
 20
-73.91266192
 10
35.30251181
 20
-69.88194764
 10
34.96791917
 20
-70.80123335
 10
37.10416447
 20
-74.83194764
  0
LWPOLYLINE
  5
1B8
100
AcDbEntity
  8
Mst 1_1
 62
   137
  6
CONTINUOUS
370
     9
100
AcDbPolyline
 90
        4
 70
     1
 43
0.0
 10
40.96566033
 20
-73.61614493
 10
39.03953477
 20
-69.92925439
 10
38.70066863
 20
-70.86089429
 10
40.644407
 20
-74.49964922
  0
LINE
  5
1B9
100
AcDbEntity
  8
Mst 1_1
 62
   137
  6
CONTINUOUS
370
     9
100
AcDbLine
 10
39.03953477
 20
-69.92925439
 30
0.0
 11
40.644407
 21
-74.49964922
 31
0.0
  0
LWPOLYLINE
  5
1BA
100
AcDbEntity
  8
Mst 1_1
 62
   137
  6
CONTINUOUS
370
     9
100
AcDbPolyline
 90
        4
 70
     1
 43
0.0
 10
44.0355687
 20
-72.9618367
 10
42.77871933
 20
-70.53727384
 10
42.46343011
 20
-71.40352384
 10
43.72027949
 20
-73.8280867
  0
LINE
  5
1BB
100
AcDbEntity
  8
Mst 1_1
 62
   137
  6
CONTINUOUS
370
     9
100
AcDbLine
 10
42.77871933
 20
-70.53727384
 30
0.0
 11
43.72027949
 21
-73.8280867
 31
0.0
  0
LWPOLYLINE
  5
1BC
100
AcDbEntity
  8
Mst 1_1
 62
   137
  6
CONTINUOUS
370
     9
100
AcDbPolyline
 90
        4
 70
     1
 43
0.0
 10
46.26611733
 20
-72.24655931
 10
45.9220893
 20
-71.58290175
 10
45.72426029
 20
-72.12643249
 10
46.20381897
 20
-72.35694764
  0
LINE
  5
1BD
100
AcDbEntity
  8
Mst 1_1
 62
   137
  6
CONTINUOUS
370
     9
100
AcDbLine
 10
45.9220893
 20
-71.58290175
 30
0.0
 11
46.20381897
 21
-72.35694764
 31
0.0
  0
LWPOLYLINE
  5
1BE
100
AcDbEntity
  8
Mst 1_1
 62
   137
  6
CONTINUOUS
370
     9
100
AcDbPolyline
 90
        3
 70
     0
 43
0.0
 38
2500.0
 10
42.60930411
 20
-71.00273833
 10
41.35256172
 20
-70.72412525
 42
0.02538716
 10
39.29018953
 20
-70.40904484
  0
LWPOLYLINE
  5
1BF
100
AcDbEntity
  8
Mst 1_1
 62
   137
  6
CONTINUOUS
370
     9
100
AcDbPolyline
 90
        3
 70
     0
 43
0.0
 38
2500.0
 10
43.55139751
 20
-73.50229987
 10
41.35256172
 20
-73.98977003
 42
-0.00622926
 10
40.79035938
 20
-74.09825401
  0
LINE
  5
1C0
100
AcDbEntity
  8
Mst 1_1
 62
   137
  6
CONTINUOUS
370
     9
100
AcDbLine
 10
35.30251181
 20
-69.88194764
 30
0.0
 11
37.10416447
 21
-74.83194764
 31
0.0
  0
LWPOLYLINE
  5
1C1
100
AcDbEntity
  8
Mst 1_1
 62
     1
  6
CADWORK_8
370
    15
100
AcDbPolyline
 90
        3
 70
     0
 43
0.0
 10
46.76404693
 20
-72.35694764
 10
-3.17595307
 20
-72.35694764
 10
-3.17595307
 20
-72.35694764
  0
LWPOLYLINE
  5
1C2
100
AcDbEntity
  8
Mst 1_1
 62
   137
  6
CONTINUOUS
370
     9
100
AcDbPolyline
 90
        4
 70
     1
 43
0.0
 10
33.76161425
 20
-73.91266192
 10
31.62536895
 20
-69.88194764
 10
31.29077632
 20
-70.80123335
 10
33.42702161
 20
-74.83194764
  0
LINE
  5
1C3
100
AcDbEntity
  8
Mst 1_1
 62
   137
  6
CONTINUOUS
370
     9
100
AcDbLine
 10
31.62536895
 20
-69.88194764
 30
0.0
 11
33.42702161
 21
-74.83194764
 31
0.0
  0
LWPOLYLINE
  5
1C4
100
AcDbEntity
  8
Mst 1_1
 62
   137
  6
CONTINUOUS
370
     9
100
AcDbPolyline
 90
        4
 70
     1
 43
0.0
 10
30.08447139
 20
-73.91266192
 10
27.9482261
 20
-69.88194764
 10
27.61363346
 20
-70.80123335
 10
29.74987876
 20
-74.83194764
  0
LINE
  5
1C5
100
AcDbEntity
  8
Mst 1_1
 62
   137
  6
CONTINUOUS
370
     9
100
AcDbLine
 10
27.9482261
 20
-69.88194764
 30
0.0
 11
29.74987876
 21
-74.83194764
 31
0.0
  0
LWPOLYLINE
  5
1C6
100
AcDbEntity
  8
Mst 1_1
 62
   137
  6
CONTINUOUS
370
     9
100
AcDbPolyline
 90
        4
 70
     1
 43
0.0
 10
26.40732854
 20
-73.91266192
 10
24.27108324
 20
-69.88194764
 10
23.9364906
 20
-70.80123335
 10
26.0727359
 20
-74.83194764
  0
LINE
  5
1C7
100
AcDbEntity
  8
Mst 1_1
 62
   137
  6
CONTINUOUS
370
     9
100
AcDbLine
 10
24.27108324
 20
-69.88194764
 30
0.0
 11
26.0727359
 21
-74.83194764
 31
0.0
  0
LWPOLYLINE
  5
1C8
100
AcDbEntity
  8
Mst 1_1
 62
   137
  6
CONTINUOUS
370
     9
100
AcDbPolyline
 90
        4
 70
     1
 43
0.0
 10
22.73018568
 20
-73.91266192
 10
20.59394038
 20
-69.88194764
 10
20.25934775
 20
-70.80123335
 10
22.39559304
 20
-74.83194764
  0
LINE
  5
1C9
100
AcDbEntity
  8
Mst 1_1
 62
   137
  6
CONTINUOUS
370
     9
100
AcDbLine
 10
20.59394038
 20
-69.88194764
 30
0.0
 11
22.39559304
 21
-74.83194764
 31
0.0
  0
LWPOLYLINE
  5
1CA
100
AcDbEntity
  8
Mst 1_1
 62
   137
  6
CONTINUOUS
370
     9
100
AcDbPolyline
 90
        7
 70
     1
 43
0.0
 10
-3.17595307
 20
-68.72694764
 10
-3.0389222
 20
-68.72694764
 10
0.45404693
 20
-70.80123335
 10
0.45404693
 20
-73.91266192
 10
-3.0389222
 20
-75.98694764
 10
-3.17595307
 20
-75.98694764
 10
-3.17595307
 20
-72.35694764
  0
LINE
  5
1CB
100
AcDbEntity
  8
Mst 1_1
 62
   137
  6
CONTINUOUS
370
     9
100
AcDbLine
 10
-3.0389222
 20
-68.72694764
 30
1000.0
 11
-3.0389222
 21
-75.98694764
 31
1000.0
  0
3DFACE
  5
1CC
100
AcDbEntity
  8
Mst 1_1
 62
   137
  6
CONTINUOUS
370
     9
100
AcDbFace
 70
     0
 10
0.15821976
 20
-74.36064996
 30
1000.0
 11
-2.44726786
 21
-75.98694764
 31
1000.0
 12
-3.0389222
 22
-75.98694764
 32
1000.0
 13
0.45404693
 23
-73.91266192
 33
1000.0
  0
LWPOLYLINE
  5
1CD
100
AcDbEntity
  8
Mst 1_1
 62
   137
  6
CONTINUOUS
370
     9
100
AcDbPolyline
 90
        6
 70
     1
 43
0.0
 38
1000.0
 39
-1000.0
 10
0.45404693
 20
-73.09639208
 10
0.10228749
 20
-72.98803497
 10
-2.50692895
 20
-73.72725745
 10
-3.0389222
 20
-74.10472542
 10
-2.38760677
 20
-74.14060159
 10
0.21415203
 20
-73.3755451
  0
3DFACE
  5
1CE
100
AcDbEntity
  8
Mst 1_1
 62
   137
  6
CONTINUOUS
370
     9
100
AcDbFace
 70
     0
 10
16.62404693
 20
-70.80123335
 30
1000.0
 11
0.45404693
 21
-70.80123335
 31
1000.0
 12
0.45404693
 22
-73.91266192
 32
1000.0
 13
16.62404693
 23
-73.91266192
 33
1000.0
  0
LWPOLYLINE
  5
1CF
100
AcDbEntity
  8
Mst 1_1
 62
   137
  6
CONTINUOUS
370
     9
100
AcDbPolyline
 90
        6
 70
     1
 43
0.0
 38
1000.0
 39
-1000.0
 10
0.45404693
 20
-71.61750319
 10
0.10228749
 20
-71.72586031
 10
-2.50692895
 20
-70.98663783
 10
-3.0389222
 20
-70.60916986
 10
-2.38760677
 20
-70.57329369
 10
0.21415203
 20
-71.33835018
  0
LINE
  5
1D0
100
AcDbEntity
  8
Mst 1_1
 62
   137
  6
CONTINUOUS
370
     9
100
AcDbLine
 10
-3.0389222
 20
-70.60916986
 30
1000.0
 11
0.45404693
 21
-71.61750319
 31
1000.0
  0
LINE
  5
1D1
100
AcDbEntity
  8
Mst 1_1
 62
   137
  6
CONTINUOUS
370
     9
100
AcDbLine
 10
-3.0389222
 20
-74.10472542
 30
1000.0
 11
0.45404693
 21
-73.09639208
 31
1000.0
  0
3DFACE
  5
1D2
100
AcDbEntity
  8
Mst 1_1
 62
   137
  6
CONTINUOUS
370
     9
100
AcDbFace
 70
     0
 10
0.15821976
 20
-70.35324532
 30
1000.0
 11
-2.44726786
 21
-68.72694764
 31
1000.0
 12
-3.0389222
 22
-68.72694764
 32
1000.0
 13
0.45404693
 23
-70.80123335
 33
1000.0
  0
LWPOLYLINE
  5
1D3
100
AcDbEntity
  8
Mst 1_1
 62
   137
  6
CONTINUOUS
370
     9
100
AcDbPolyline
 90
        6
 70
     1
 43
0.0
 38
1000.0
 39
-1000.0
 10
-3.17595307
 20
-72.35694764
 10
-3.17595307
 20
-75.98694764
 42
-0.11457924
 10
-3.83595307
 20
-74.32954583
 10
-3.83595307
 20
-72.35694764
 10
-3.83595307
 20
-70.38434945
 42
-0.11457924
 10
-3.17595307
 20
-68.72694764
  0
3DFACE
  5
1D4
100
AcDbEntity
  8
Mst 1_1
 62
   137
  6
CONTINUOUS
370
     9
100
AcDbFace
 70
     0
 10
19.26404693
 20
-70.80123335
 30
1000.0
 11
19.26404693
 21
-73.91266192
 31
1000.0
 12
17.72404693
 22
-74.12480478
 32
1000.0
 13
17.72404693
 23
-70.5890905
 33
1000.0
  0
3DFACE
  5
1D5
100
AcDbEntity
  8
Mst 1_1
 62
   137
  6
CONTINUOUS
370
     9
100
AcDbFace
 70
     0
 10
17.72404693
 20
-70.5890905
 30
1000.0
 11
16.62404693
 21
-70.80123335
 31
1000.0
 12
16.62404693
 22
-73.91266192
 32
1000.0
 13
17.72404693
 23
-74.12480478
 33
1000.0
  0
LWPOLYLINE
  5
1D6
100
AcDbEntity
  8
Mst 1_1
 62
   137
  6
CONTINUOUS
370
     9
100
AcDbPolyline
 90
        4
 70
     1
 43
0.0
 10
16.27799578
 20
-73.91266192
 10
14.4747815
 20
-69.63444764
 10
14.15656721
 20
-70.80123335
 10
15.9597815
 20
-75.07944764
  0
LINE
  5
1D7
100
AcDbEntity
  8
Mst 1_1
 62
   137
  6
CONTINUOUS
370
     9
100
AcDbLine
 10
14.4747815
 20
-69.63444764
 30
0.0
 11
15.9597815
 21
-75.07944764
 31
0.0
  0
LWPOLYLINE
  5
1D8
100
AcDbEntity
  8
Mst 1_1
 62
   137
  6
CONTINUOUS
370
     9
100
AcDbPolyline
 90
        4
 70
     1
 43
0.0
 10
13.30799578
 20
-73.91266192
 10
11.5047815
 20
-69.63444764
 10
11.18656721
 20
-70.80123335
 10
12.9897815
 20
-75.07944764
  0
LINE
  5
1D9
100
AcDbEntity
  8
Mst 1_1
 62
   137
  6
CONTINUOUS
370
     9
100
AcDbLine
 10
11.5047815
 20
-69.63444764
 30
0.0
 11
12.9897815
 21
-75.07944764
 31
0.0
  0
LWPOLYLINE
  5
1DA
100
AcDbEntity
  8
Mst 1_1
 62
   137
  6
CONTINUOUS
370
     9
100
AcDbPolyline
 90
        4
 70
     1
 43
0.0
 10
10.33799578
 20
-73.91266192
 10
8.5347815
 20
-69.63444764
 10
8.21656721
 20
-70.80123335
 10
10.0197815
 20
-75.07944764
  0
LINE
  5
1DB
100
AcDbEntity
  8
Mst 1_1
 62
   137
  6
CONTINUOUS
370
     9
100
AcDbLine
 10
8.5347815
 20
-69.63444764
 30
0.0
 11
10.0197815
 21
-75.07944764
 31
0.0
  0
LWPOLYLINE
  5
1DC
100
AcDbEntity
  8
Mst 1_1
 62
   137
  6
CONTINUOUS
370
     9
100
AcDbPolyline
 90
        4
 70
     1
 43
0.0
 10
7.36799578
 20
-73.91266192
 10
5.5647815
 20
-69.63444764
 10
5.24656721
 20
-70.80123335
 10
7.0497815
 20
-75.07944764
  0
LINE
  5
1DD
100
AcDbEntity
  8
Mst 1_1
 62
   137
  6
CONTINUOUS
370
     9
100
AcDbLine
 10
5.5647815
 20
-69.63444764
 30
0.0
 11
7.0497815
 21
-75.07944764
 31
0.0
  0
LWPOLYLINE
  5
1DE
100
AcDbEntity
  8
Mst 1_1
 62
   137
  6
CONTINUOUS
370
     9
100
AcDbPolyline
 90
        4
 70
     1
 43
0.0
 10
4.39799578
 20
-73.91266192
 10
2.5947815
 20
-69.63444764
 10
2.27656721
 20
-70.80123335
 10
4.0797815
 20
-75.07944764
  0
LINE
  5
1DF
100
AcDbEntity
  8
Mst 1_1
 62
   137
  6
CONTINUOUS
370
     9
100
AcDbLine
 10
2.5947815
 20
-69.63444764
 30
0.0
 11
4.0797815
 21
-75.07944764
 31
0.0
  0
LWPOLYLINE
  5
1E0
100
AcDbEntity
  8
Mst 1_1
 62
   137
  6
CONTINUOUS
370
     9
100
AcDbPolyline
 90
        4
 70
     1
 43
0.0
 10
1.42799578
 20
-73.91266192
 10
0.6642815
 20
-73.44594764
 10
0.61799578
 20
-73.91266192
 10
1.1097815
 20
-75.07944764
  0
LINE
  5
1E1
100
AcDbEntity
  8
Mst 1_1
 62
   137
  6
CONTINUOUS
370
     9
100
AcDbLine
 10
0.6642815
 20
-73.44594764
 30
0.0
 11
1.1097815
 21
-75.07944764
 31
0.0
  0
LWPOLYLINE
  5
1E2
100
AcDbEntity
  8
Mst 1_1
 62
   137
  6
CONTINUOUS
370
     9
100
AcDbPolyline
 90
        4
 70
     1
 43
0.0
 10
45.92097247
 20
-163.91266192
 10
43.78472717
 20
-159.88194764
 10
43.45013453
 20
-160.80123335
 10
45.58637983
 20
-164.83194764
  0
LINE
  5
1E3
100
AcDbEntity
  8
Mst 1_1
 62
   137
  6
CONTINUOUS
370
     9
100
AcDbLine
 10
43.78472717
 20
-159.88194764
 30
0.0
 11
45.58637983
 21
-164.83194764
 31
0.0
  0
LWPOLYLINE
  5
1E4
100
AcDbEntity
  8
Mst 1_1
 62
   137
  6
CONTINUOUS
370
     9
100
AcDbPolyline
 90
        4
 70
     1
 43
0.0
 10
42.29097252
 20
-163.91266192
 10
40.15472722
 20
-159.88194764
 10
39.82013459
 20
-160.80123335
 10
41.95637988
 20
-164.83194764
  0
LINE
  5
1E5
100
AcDbEntity
  8
Mst 1_1
 62
   137
  6
CONTINUOUS
370
     9
100
AcDbLine
 10
40.15472722
 20
-159.88194764
 30
0.0
 11
41.95637988
 21
-164.83194764
 31
0.0
  0
LWPOLYLINE
  5
1E6
100
AcDbEntity
  8
Mst 1_1
 62
   137
  6
CONTINUOUS
370
     9
100
AcDbPolyline
 90
        4
 70
     1
 43
0.0
 10
38.66097257
 20
-163.91266192
 10
37.42555361
 20
-162.35694764
 10
37.8391661
 20
-163.91266192
 10
38.32637994
 20
-164.83194764
  0
LINE
  5
1E7
100
AcDbEntity
  8
Mst 1_1
 62
   137
  6
CONTINUOUS
370
     9
100
AcDbLine
 10
37.42555361
 20
-162.35694764
 30
0.0
 11
38.32637994
 21
-164.83194764
 31
0.0
  0
LWPOLYLINE
  5
1E8
100
AcDbEntity
  8
Mst 1_1
 62
   137
  6
CONTINUOUS
370
     9
100
AcDbPolyline
 90
        4
 70
     1
 43
0.0
 10
35.42304287
 20
-133.91266192
 10
33.28679758
 20
-129.88194764
 10
32.95220494
 20
-130.80123335
 10
35.08845024
 20
-134.83194764
  0
LINE
  5
1E9
100
AcDbEntity
  8
Mst 1_1
 62
   137
  6
CONTINUOUS
370
     9
100
AcDbLine
 10
33.28679758
 20
-129.88194764
 30
0.0
 11
35.08845024
 21
-134.83194764
 31
0.0
  0
CIRCLE
  5
1EA
100
AcDbEntity
  8
Mst 1_1
 62
   137
  6
CONTINUOUS
370
     9
100
AcDbCircle
 10
-77.49213075
 20
-42.35694764
 30
0.0
 40
1.97011029
  0
CIRCLE
  5
1EB
100
AcDbEntity
  8
Mst 1_1
 62
   137
  6
CONTINUOUS
370
     9
100
AcDbCircle
 10
-77.49213075
 20
-42.35694764
 30
0.0
 40
3.3
  0
ARC
  5
1EC
100
AcDbEntity
  8
Mst 1_1
 62
   137
  6
CONTINUOUS
370
     9
100
AcDbCircle
 10
-79.10585691
 20
-42.35694764
 30
0.0
 40
0.35638414
100
AcDbArc
 50
104.00039951
 51
255.99960049
  0
ARC
  5
1ED
100
AcDbEntity
  8
Mst 1_1
 62
   137
  6
CONTINUOUS
370
     9
100
AcDbCircle
 10
-79.37722352
 20
-43.44530649
 30
0.0
 40
0.76529533
100
AcDbArc
 50
344.00041281
 51
75.99958535
  0
ARC
  5
1EE
100
AcDbEntity
  8
Mst 1_1
 62
   137
  6
CONTINUOUS
370
     9
100
AcDbCircle
 10
-78.29899381
 20
-43.7544755
 30
0.0
 40
0.35638413
100
AcDbArc
 50
164.00040911
 51
315.99958502
  0
ARC
  5
1EF
100
AcDbEntity
  8
Mst 1_1
 62
   137
  6
CONTINUOUS
370
     9
100
AcDbCircle
 10
-77.49213075
 20
-44.5336652
 30
0.0
 40
0.76529523
100
AcDbArc
 50
44.00040429
 51
135.99959571
  0
ARC
  5
1F0
100
AcDbEntity
  8
Mst 1_1
 62
   137
  6
CONTINUOUS
370
     9
100
AcDbCircle
 10
-76.68526765
 20
-43.75447556
 30
0.0
 40
0.35638411
100
AcDbArc
 50
224.00040506
 51
15.9996008
  0
ARC
  5
1F1
100
AcDbEntity
  8
Mst 1_1
 62
   137
  6
CONTINUOUS
370
     9
100
AcDbCircle
 10
-75.87840458
 20
-42.35694764
 30
0.0
 40
0.35638414
100
AcDbArc
 50
284.00039951
 51
75.99960049
  0
ARC
  5
1F2
100
AcDbEntity
  8
Mst 1_1
 62
   137
  6
CONTINUOUS
370
     9
100
AcDbCircle
 10
-75.60703797
 20
-41.26858879
 30
0.0
 40
0.76529533
100
AcDbArc
 50
164.00041281
 51
255.99958535
  0
ARC
  5
1F3
100
AcDbEntity
  8
Mst 1_1
 62
   137
  6
CONTINUOUS
370
     9
100
AcDbCircle
 10
-76.68526768
 20
-40.95941978
 30
0.0
 40
0.35638413
100
AcDbArc
 50
344.00040911
 51
135.99958502
  0
ARC
  5
1F4
100
AcDbEntity
  8
Mst 1_1
 62
   137
  6
CONTINUOUS
370
     9
100
AcDbCircle
 10
-77.49213075
 20
-40.18023008
 30
0.0
 40
0.76529523
100
AcDbArc
 50
224.00040429
 51
315.99959571
  0
ARC
  5
1F5
100
AcDbEntity
  8
Mst 1_1
 62
   137
  6
CONTINUOUS
370
     9
100
AcDbCircle
 10
-78.29899384
 20
-40.95941972
 30
0.0
 40
0.35638411
100
AcDbArc
 50
44.00040506
 51
195.9996008
  0
ARC
  5
1F6
100
AcDbEntity
  8
Mst 1_1
 62
   137
  6
CONTINUOUS
370
     9
100
AcDbCircle
 10
-79.37722352
 20
-41.26858879
 30
0.0
 40
0.76529533
100
AcDbArc
 50
284.00041459
 51
15.99958726
  0
ARC
  5
1F7
100
AcDbEntity
  8
Mst 1_1
 62
   137
  6
CONTINUOUS
370
     9
100
AcDbCircle
 10
-75.60703797
 20
-43.44530649
 30
0.0
 40
0.76529533
100
AcDbArc
 50
104.00041459
 51
195.99958726
  0
POLYLINE
  5
1F8
100
AcDbEntity
  8
Mst 1_1
 62
   137
  6
CONTINUOUS
370
     9
100
AcDb3dPolyline
 66
     1
 70
     9
 10
0.0
 20
0.0
 30
1000.0
 39
-1000.0
  0
VERTEX
  5
1F9
100
AcDbEntity
  8
Mst 1_1
100
AcDbVertex
100
AcDb3dPolylineVertex
 10
27.41945369
 20
-43.91266192
 30
1000.0
 70
    32
  0
VERTEX
  5
1FA
100
AcDbEntity
  8
Mst 1_1
100
AcDbVertex
100
AcDb3dPolylineVertex
 10
15.50799578
 20
-43.91266192
 30
1000.0
 70
    32
  0
VERTEX
  5
1FB
100
AcDbEntity
  8
Mst 1_1
100
AcDbVertex
100
AcDb3dPolylineVertex
 10
15.50799578
 20
-40.80123335
 30
1000.0
 70
    32
  0
VERTEX
  5
1FC
100
AcDbEntity
  8
Mst 1_1
100
AcDbVertex
100
AcDb3dPolylineVertex
 10
27.41945369
 20
-40.80123335
 30
1000.0
 70
    32
  0
VERTEX
  5
1FD
100
AcDbEntity
  8
Mst 1_1
100
AcDbVertex
100
AcDb3dPolylineVertex
 10
28.0780307
 20
-40.8189506
 30
1250.0
 70
    32
  0
VERTEX
  5
1FE
100
AcDbEntity
  8
Mst 1_1
100
AcDbVertex
100
AcDb3dPolylineVertex
 10
28.73594702
 20
-40.85335559
 30
1500.0
 70
    32
  0
VERTEX
  5
1FF
100
AcDbEntity
  8
Mst 1_1
100
AcDbVertex
100
AcDb3dPolylineVertex
 10
29.39277986
 20
-40.90442621
 30
1750.0
 70
    32
  0
VERTEX
  5
200
100
AcDbEntity
  8
Mst 1_1
100
AcDbVertex
100
AcDb3dPolylineVertex
 10
30.04810713
 20
-40.97212964
 30
2000.0
 70
    32
  0
VERTEX
  5
201
100
AcDbEntity
  8
Mst 1_1
100
AcDbVertex
100
AcDb3dPolylineVertex
 10
30.70150771
 20
-41.05642238
 30
2250.0
 70
    32
  0
VERTEX
  5
202
100
AcDbEntity
  8
Mst 1_1
100
AcDbVertex
100
AcDb3dPolylineVertex
 10
31.35256172
 20
-41.15725025
 30
2500.0
 70
    32
  0
VERTEX
  5
203
100
AcDbEntity
  8
Mst 1_1
100
AcDbVertex
100
AcDb3dPolylineVertex
 10
36.76404693
 20
-42.35694764
 30
2500.0
 70
    32
  0
VERTEX
  5
204
100
AcDbEntity
  8
Mst 1_1
100
AcDbVertex
100
AcDb3dPolylineVertex
 10
31.35256172
 20
-43.55664503
 30
2500.0
 70
    32
  0
VERTEX
  5
205
100
AcDbEntity
  8
Mst 1_1
100
AcDbVertex
100
AcDb3dPolylineVertex
 10
30.70150771
 20
-43.6574729
 30
2250.0
 70
    32
  0
VERTEX
  5
206
100
AcDbEntity
  8
Mst 1_1
100
AcDbVertex
100
AcDb3dPolylineVertex
 10
30.04810713
 20
-43.74176563
 30
2000.0
 70
    32
  0
VERTEX
  5
207
100
AcDbEntity
  8
Mst 1_1
100
AcDbVertex
100
AcDb3dPolylineVertex
 10
29.39277986
 20
-43.80946907
 30
1750.0
 70
    32
  0
VERTEX
  5
208
100
AcDbEntity
  8
Mst 1_1
100
AcDbVertex
100
AcDb3dPolylineVertex
 10
28.73594702
 20
-43.86053968
 30
1500.0
 70
    32
  0
VERTEX
  5
209
100
AcDbEntity
  8
Mst 1_1
100
AcDbVertex
100
AcDb3dPolylineVertex
 10
28.0780307
 20
-43.89494467
 30
1250.0
 70
    32
  0
VERTEX
  5
20A
100
AcDbEntity
  8
Mst 1_1
100
AcDbVertex
100
AcDb3dPolylineVertex
 10
27.41945369
 20
-43.91266192
 30
1000.0
 70
    32
  0
SEQEND
  5
20B
100
AcDbEntity
  8
Mst 1_1
  0
LWPOLYLINE
  5
20C
100
AcDbEntity
  8
Mst 1_1
 62
   137
  6
CONTINUOUS
370
     9
100
AcDbPolyline
 90
        4
 70
     1
 43
0.0
 10
14.40799578
 20
-40.5890905
 10
14.40799578
 20
-40.5890905
 10
14.40799578
 20
-44.12480478
 10
14.40799578
 20
-44.12480478
  0
LWPOLYLINE
  5
20D
100
AcDbEntity
  8
Mst 1_1
 62
   137
  6
CONTINUOUS
370
     9
100
AcDbPolyline
 90
        4
 70
     1
 43
0.0
 10
27.43875711
 20
-43.91266192
 10
25.30251181
 20
-39.88194764
 10
24.96791917
 20
-40.80123335
 10
27.10416447
 20
-44.83194764
  0
LWPOLYLINE
  5
20E
100
AcDbEntity
  8
Mst 1_1
 62
   137
  6
CONTINUOUS
370
     9
100
AcDbPolyline
 90
        4
 70
     1
 43
0.0
 10
30.96566033
 20
-43.61614493
 10
29.03953477
 20
-39.92925439
 10
28.70066863
 20
-40.86089429
 10
30.644407
 20
-44.49964922
  0
LINE
  5
20F
100
AcDbEntity
  8
Mst 1_1
 62
   137
  6
CONTINUOUS
370
     9
100
AcDbLine
 10
29.03953477
 20
-39.92925439
 30
0.0
 11
30.644407
 21
-44.49964922
 31
0.0
  0
LWPOLYLINE
  5
210
100
AcDbEntity
  8
Mst 1_1
 62
   137
  6
CONTINUOUS
370
     9
100
AcDbPolyline
 90
        4
 70
     1
 43
0.0
 10
34.0355687
 20
-42.9618367
 10
32.77871933
 20
-40.53727384
 10
32.46343011
 20
-41.40352384
 10
33.72027949
 20
-43.8280867
  0
LINE
  5
211
100
AcDbEntity
  8
Mst 1_1
 62
   137
  6
CONTINUOUS
370
     9
100
AcDbLine
 10
32.77871933
 20
-40.53727384
 30
0.0
 11
33.72027949
 21
-43.8280867
 31
0.0
  0
LWPOLYLINE
  5
212
100
AcDbEntity
  8
Mst 1_1
 62
   137
  6
CONTINUOUS
370
     9
100
AcDbPolyline
 90
        4
 70
     1
 43
0.0
 10
36.26611733
 20
-42.24655931
 10
35.9220893
 20
-41.58290175
 10
35.72426029
 20
-42.12643249
 10
36.20381897
 20
-42.35694764
  0
LINE
  5
213
100
AcDbEntity
  8
Mst 1_1
 62
   137
  6
CONTINUOUS
370
     9
100
AcDbLine
 10
35.9220893
 20
-41.58290175
 30
0.0
 11
36.20381897
 21
-42.35694764
 31
0.0
  0
LWPOLYLINE
  5
214
100
AcDbEntity
  8
Mst 1_1
 62
   137
  6
CONTINUOUS
370
     9
100
AcDbPolyline
 90
        3
 70
     0
 43
0.0
 38
2500.0
 10
32.60930411
 20
-41.00273833
 10
31.35256172
 20
-40.72412525
 42
0.02538716
 10
29.29018953
 20
-40.40904484
  0
LWPOLYLINE
  5
215
100
AcDbEntity
  8
Mst 1_1
 62
   137
  6
CONTINUOUS
370
     9
100
AcDbPolyline
 90
        3
 70
     0
 43
0.0
 38
2500.0
 10
33.55139751
 20
-43.50229987
 10
31.35256172
 20
-43.98977003
 42
-0.00622926
 10
30.79035938
 20
-44.09825401
  0
LINE
  5
216
100
AcDbEntity
  8
Mst 1_1
 62
   137
  6
CONTINUOUS
370
     9
100
AcDbLine
 10
25.30251181
 20
-39.88194764
 30
0.0
 11
27.10416447
 21
-44.83194764
 31
0.0
  0
LWPOLYLINE
  5
217
100
AcDbEntity
  8
Mst 1_1
 62
     1
  6
CADWORK_8
370
    15
100
AcDbPolyline
 90
        3
 70
     0
 43
0.0
 10
36.76404693
 20
-42.35694764
 10
-3.17595307
 20
-42.35694764
 10
-3.17595307
 20
-42.35694764
  0
LWPOLYLINE
  5
218
100
AcDbEntity
  8
Mst 1_1
 62
   137
  6
CONTINUOUS
370
     9
100
AcDbPolyline
 90
        4
 70
     1
 43
0.0
 10
23.76161425
 20
-43.91266192
 10
21.62536895
 20
-39.88194764
 10
21.29077632
 20
-40.80123335
 10
23.42702161
 20
-44.83194764
  0
LINE
  5
219
100
AcDbEntity
  8
Mst 1_1
 62
   137
  6
CONTINUOUS
370
     9
100
AcDbLine
 10
21.62536895
 20
-39.88194764
 30
0.0
 11
23.42702161
 21
-44.83194764
 31
0.0
  0
LWPOLYLINE
  5
21A
100
AcDbEntity
  8
Mst 1_1
 62
   137
  6
CONTINUOUS
370
     9
100
AcDbPolyline
 90
        4
 70
     1
 43
0.0
 10
20.08447139
 20
-43.91266192
 10
17.9482261
 20
-39.88194764
 10
17.61363346
 20
-40.80123335
 10
19.74987876
 20
-44.83194764
  0
LINE
  5
21B
100
AcDbEntity
  8
Mst 1_1
 62
   137
  6
CONTINUOUS
370
     9
100
AcDbLine
 10
17.9482261
 20
-39.88194764
 30
0.0
 11
19.74987876
 21
-44.83194764
 31
0.0
  0
LWPOLYLINE
  5
21C
100
AcDbEntity
  8
Mst 1_1
 62
   137
  6
CONTINUOUS
370
     9
100
AcDbPolyline
 90
        7
 70
     1
 43
0.0
 10
-3.17595307
 20
-38.72694764
 10
-3.0389222
 20
-38.72694764
 10
0.45404693
 20
-40.80123335
 10
0.45404693
 20
-43.91266192
 10
-3.0389222
 20
-45.98694764
 10
-3.17595307
 20
-45.98694764
 10
-3.17595307
 20
-42.35694764
  0
LINE
  5
21D
100
AcDbEntity
  8
Mst 1_1
 62
   137
  6
CONTINUOUS
370
     9
100
AcDbLine
 10
-3.0389222
 20
-38.72694764
 30
1000.0
 11
-3.0389222
 21
-45.98694764
 31
1000.0
  0
3DFACE
  5
21E
100
AcDbEntity
  8
Mst 1_1
 62
   137
  6
CONTINUOUS
370
     9
100
AcDbFace
 70
     0
 10
0.15821976
 20
-44.36064996
 30
1000.0
 11
-2.44726786
 21
-45.98694764
 31
1000.0
 12
-3.0389222
 22
-45.98694764
 32
1000.0
 13
0.45404693
 23
-43.91266192
 33
1000.0
  0
LWPOLYLINE
  5
21F
100
AcDbEntity
  8
Mst 1_1
 62
   137
  6
CONTINUOUS
370
     9
100
AcDbPolyline
 90
        6
 70
     1
 43
0.0
 38
1000.0
 39
-1000.0
 10
0.45404693
 20
-43.09639208
 10
0.10228749
 20
-42.98803497
 10
-2.50692895
 20
-43.72725745
 10
-3.0389222
 20
-44.10472542
 10
-2.38760677
 20
-44.14060159
 10
0.21415203
 20
-43.3755451
  0
3DFACE
  5
220
100
AcDbEntity
  8
Mst 1_1
 62
   137
  6
CONTINUOUS
370
     9
100
AcDbFace
 70
     0
 10
13.30799578
 20
-40.80123335
 30
1000.0
 11
0.45404693
 21
-40.80123335
 31
1000.0
 12
0.45404693
 22
-43.91266192
 32
1000.0
 13
13.30799578
 23
-43.91266192
 33
1000.0
  0
LWPOLYLINE
  5
221
100
AcDbEntity
  8
Mst 1_1
 62
   137
  6
CONTINUOUS
370
     9
100
AcDbPolyline
 90
        6
 70
     1
 43
0.0
 38
1000.0
 39
-1000.0
 10
0.45404693
 20
-41.61750319
 10
0.10228749
 20
-41.72586031
 10
-2.50692895
 20
-40.98663783
 10
-3.0389222
 20
-40.60916986
 10
-2.38760677
 20
-40.57329369
 10
0.21415203
 20
-41.33835018
  0
LINE
  5
222
100
AcDbEntity
  8
Mst 1_1
 62
   137
  6
CONTINUOUS
370
     9
100
AcDbLine
 10
-3.0389222
 20
-40.60916986
 30
1000.0
 11
0.45404693
 21
-41.61750319
 31
1000.0
  0
LINE
  5
223
100
AcDbEntity
  8
Mst 1_1
 62
   137
  6
CONTINUOUS
370
     9
100
AcDbLine
 10
-3.0389222
 20
-44.10472542
 30
1000.0
 11
0.45404693
 21
-43.09639208
 31
1000.0
  0
3DFACE
  5
224
100
AcDbEntity
  8
Mst 1_1
 62
   137
  6
CONTINUOUS
370
     9
100
AcDbFace
 70
     0
 10
0.15821976
 20
-40.35324532
 30
1000.0
 11
-2.44726786
 21
-38.72694764
 31
1000.0
 12
-3.0389222
 22
-38.72694764
 32
1000.0
 13
0.45404693
 23
-40.80123335
 33
1000.0
  0
LWPOLYLINE
  5
225
100
AcDbEntity
  8
Mst 1_1
 62
   137
  6
CONTINUOUS
370
     9
100
AcDbPolyline
 90
        6
 70
     1
 43
0.0
 38
1000.0
 39
-1000.0
 10
-3.17595307
 20
-42.35694764
 10
-3.17595307
 20
-45.98694764
 42
-0.11457924
 10
-3.83595307
 20
-44.32954583
 10
-3.83595307
 20
-42.35694764
 10
-3.83595307
 20
-40.38434945
 42
-0.11457924
 10
-3.17595307
 20
-38.72694764
  0
3DFACE
  5
226
100
AcDbEntity
  8
Mst 1_1
 62
   137
  6
CONTINUOUS
370
     9
100
AcDbFace
 70
     0
 10
14.40799578
 20
-40.5890905
 30
1000.0
 11
15.50799578
 21
-40.80123335
 31
1000.0
 12
15.50799578
 22
-43.91266192
 32
1000.0
 13
14.40799578
 23
-44.12480478
 33
1000.0
  0
3DFACE
  5
227
100
AcDbEntity
  8
Mst 1_1
 62
   137
  6
CONTINUOUS
370
     9
100
AcDbFace
 70
     0
 10
14.40799578
 20
-40.5890905
 30
1000.0
 11
13.30799578
 21
-40.80123335
 31
1000.0
 12
13.30799578
 22
-43.91266192
 32
1000.0
 13
14.40799578
 23
-44.12480478
 33
1000.0
  0
LWPOLYLINE
  5
228
100
AcDbEntity
  8
Mst 1_1
 62
   137
  6
CONTINUOUS
370
     9
100
AcDbPolyline
 90
        4
 70
     1
 43
0.0
 10
13.30799578
 20
-43.91266192
 10
11.5047815
 20
-39.63444764
 10
11.18656721
 20
-40.80123335
 10
12.9897815
 20
-45.07944764
  0
LINE
  5
229
100
AcDbEntity
  8
Mst 1_1
 62
   137
  6
CONTINUOUS
370
     9
100
AcDbLine
 10
11.5047815
 20
-39.63444764
 30
0.0
 11
12.9897815
 21
-45.07944764
 31
0.0
  0
LWPOLYLINE
  5
22A
100
AcDbEntity
  8
Mst 1_1
 62
   137
  6
CONTINUOUS
370
     9
100
AcDbPolyline
 90
        4
 70
     1
 43
0.0
 10
10.33799578
 20
-43.91266192
 10
8.5347815
 20
-39.63444764
 10
8.21656721
 20
-40.80123335
 10
10.0197815
 20
-45.07944764
  0
LINE
  5
22B
100
AcDbEntity
  8
Mst 1_1
 62
   137
  6
CONTINUOUS
370
     9
100
AcDbLine
 10
8.5347815
 20
-39.63444764
 30
0.0
 11
10.0197815
 21
-45.07944764
 31
0.0
  0
LWPOLYLINE
  5
22C
100
AcDbEntity
  8
Mst 1_1
 62
   137
  6
CONTINUOUS
370
     9
100
AcDbPolyline
 90
        4
 70
     1
 43
0.0
 10
7.36799578
 20
-43.91266192
 10
5.5647815
 20
-39.63444764
 10
5.24656721
 20
-40.80123335
 10
7.0497815
 20
-45.07944764
  0
LINE
  5
22D
100
AcDbEntity
  8
Mst 1_1
 62
   137
  6
CONTINUOUS
370
     9
100
AcDbLine
 10
5.5647815
 20
-39.63444764
 30
0.0
 11
7.0497815
 21
-45.07944764
 31
0.0
  0
LWPOLYLINE
  5
22E
100
AcDbEntity
  8
Mst 1_1
 62
   137
  6
CONTINUOUS
370
     9
100
AcDbPolyline
 90
        4
 70
     1
 43
0.0
 10
4.39799578
 20
-43.91266192
 10
2.5947815
 20
-39.63444764
 10
2.27656721
 20
-40.80123335
 10
4.0797815
 20
-45.07944764
  0
LINE
  5
22F
100
AcDbEntity
  8
Mst 1_1
 62
   137
  6
CONTINUOUS
370
     9
100
AcDbLine
 10
2.5947815
 20
-39.63444764
 30
0.0
 11
4.0797815
 21
-45.07944764
 31
0.0
  0
LWPOLYLINE
  5
230
100
AcDbEntity
  8
Mst 1_1
 62
   137
  6
CONTINUOUS
370
     9
100
AcDbPolyline
 90
        4
 70
     1
 43
0.0
 10
1.42799578
 20
-43.91266192
 10
0.6642815
 20
-43.44594764
 10
0.61799578
 20
-43.91266192
 10
1.1097815
 20
-45.07944764
  0
LINE
  5
231
100
AcDbEntity
  8
Mst 1_1
 62
   137
  6
CONTINUOUS
370
     9
100
AcDbLine
 10
0.6642815
 20
-43.44594764
 30
0.0
 11
1.1097815
 21
-45.07944764
 31
0.0
  0
LINE
  5
232
100
AcDbEntity
  8
Mst 1_1
 62
     7
  6
DASHED
370
    -3
100
AcDbLine
 10
46.76404693
 20
-22.35694764
 30
0.0
 11
46.76404693
 21
-87.35694764
 31
0.0
  0
LINE
  5
233
100
AcDbEntity
  8
Mst 1_1
 62
     7
  6
DASHED
370
    -3
100
AcDbLine
 10
56.76404693
 20
-22.35694764
 30
0.0
 11
56.76404693
 21
-117.35694764
 31
0.0
  0
CIRCLE
  5
234
100
AcDbEntity
  8
Mst 1_1
 62
   137
  6
CONTINUOUS
370
     9
100
AcDbCircle
 10
-77.49213075
 20
-192.35694764
 30
0.0
 40
1.97011029
  0
CIRCLE
  5
235
100
AcDbEntity
  8
Mst 1_1
 62
   137
  6
CONTINUOUS
370
     9
100
AcDbCircle
 10
-77.49213075
 20
-192.35694764
 30
0.0
 40
3.3
  0
ARC
  5
236
100
AcDbEntity
  8
Mst 1_1
 62
   137
  6
CONTINUOUS
370
     9
100
AcDbCircle
 10
-79.10585691
 20
-192.35694764
 30
0.0
 40
0.35638414
100
AcDbArc
 50
104.00039951
 51
255.99960049
  0
ARC
  5
237
100
AcDbEntity
  8
Mst 1_1
 62
   137
  6
CONTINUOUS
370
     9
100
AcDbCircle
 10
-79.37722352
 20
-193.44530649
 30
0.0
 40
0.76529533
100
AcDbArc
 50
344.00041281
 51
75.99958535
  0
ARC
  5
238
100
AcDbEntity
  8
Mst 1_1
 62
   137
  6
CONTINUOUS
370
     9
100
AcDbCircle
 10
-78.29899381
 20
-193.7544755
 30
0.0
 40
0.35638413
100
AcDbArc
 50
164.00040911
 51
315.99958502
  0
ARC
  5
239
100
AcDbEntity
  8
Mst 1_1
 62
   137
  6
CONTINUOUS
370
     9
100
AcDbCircle
 10
-77.49213075
 20
-194.5336652
 30
0.0
 40
0.76529523
100
AcDbArc
 50
44.00040429
 51
135.99959571
  0
ARC
  5
23A
100
AcDbEntity
  8
Mst 1_1
 62
   137
  6
CONTINUOUS
370
     9
100
AcDbCircle
 10
-76.68526765
 20
-193.75447556
 30
0.0
 40
0.35638411
100
AcDbArc
 50
224.00040506
 51
15.9996008
  0
ARC
  5
23B
100
AcDbEntity
  8
Mst 1_1
 62
   137
  6
CONTINUOUS
370
     9
100
AcDbCircle
 10
-75.87840458
 20
-192.35694764
 30
0.0
 40
0.35638414
100
AcDbArc
 50
284.00039951
 51
75.99960049
  0
ARC
  5
23C
100
AcDbEntity
  8
Mst 1_1
 62
   137
  6
CONTINUOUS
370
     9
100
AcDbCircle
 10
-75.60703797
 20
-191.26858879
 30
0.0
 40
0.76529533
100
AcDbArc
 50
164.00041281
 51
255.99958535
  0
ARC
  5
23D
100
AcDbEntity
  8
Mst 1_1
 62
   137
  6
CONTINUOUS
370
     9
100
AcDbCircle
 10
-76.68526768
 20
-190.95941978
 30
0.0
 40
0.35638413
100
AcDbArc
 50
344.00040911
 51
135.99958502
  0
ARC
  5
23E
100
AcDbEntity
  8
Mst 1_1
 62
   137
  6
CONTINUOUS
370
     9
100
AcDbCircle
 10
-77.49213075
 20
-190.18023008
 30
0.0
 40
0.76529523
100
AcDbArc
 50
224.00040429
 51
315.99959571
  0
ARC
  5
23F
100
AcDbEntity
  8
Mst 1_1
 62
   137
  6
CONTINUOUS
370
     9
100
AcDbCircle
 10
-78.29899384
 20
-190.95941972
 30
0.0
 40
0.35638411
100
AcDbArc
 50
44.00040506
 51
195.9996008
  0
ARC
  5
240
100
AcDbEntity
  8
Mst 1_1
 62
   137
  6
CONTINUOUS
370
     9
100
AcDbCircle
 10
-79.37722352
 20
-191.26858879
 30
0.0
 40
0.76529533
100
AcDbArc
 50
284.00041459
 51
15.99958726
  0
ARC
  5
241
100
AcDbEntity
  8
Mst 1_1
 62
   137
  6
CONTINUOUS
370
     9
100
AcDbCircle
 10
-75.60703797
 20
-193.44530649
 30
0.0
 40
0.76529533
100
AcDbArc
 50
104.00041459
 51
195.99958726
  0
POLYLINE
  5
242
100
AcDbEntity
  8
Mst 1_1
 62
   137
  6
CONTINUOUS
370
     9
100
AcDb3dPolyline
 66
     1
 70
     9
 10
0.0
 20
0.0
 30
1000.0
 39
-1000.0
  0
VERTEX
  5
243
100
AcDbEntity
  8
Mst 1_1
100
AcDbVertex
100
AcDb3dPolylineVertex
 10
87.41945369
 20
-193.91266192
 30
1000.0
 70
    32
  0
VERTEX
  5
244
100
AcDbEntity
  8
Mst 1_1
100
AcDbVertex
100
AcDb3dPolylineVertex
 10
46.76404693
 20
-193.91266192
 30
1000.0
 70
    32
  0
VERTEX
  5
245
100
AcDbEntity
  8
Mst 1_1
100
AcDbVertex
100
AcDb3dPolylineVertex
 10
46.76404693
 20
-190.80123335
 30
1000.0
 70
    32
  0
VERTEX
  5
246
100
AcDbEntity
  8
Mst 1_1
100
AcDbVertex
100
AcDb3dPolylineVertex
 10
87.41945369
 20
-190.80123335
 30
1000.0
 70
    32
  0
VERTEX
  5
247
100
AcDbEntity
  8
Mst 1_1
100
AcDbVertex
100
AcDb3dPolylineVertex
 10
88.0780307
 20
-190.8189506
 30
1250.0
 70
    32
  0
VERTEX
  5
248
100
AcDbEntity
  8
Mst 1_1
100
AcDbVertex
100
AcDb3dPolylineVertex
 10
88.73594702
 20
-190.85335559
 30
1500.0
 70
    32
  0
VERTEX
  5
249
100
AcDbEntity
  8
Mst 1_1
100
AcDbVertex
100
AcDb3dPolylineVertex
 10
89.39277986
 20
-190.90442621
 30
1750.0
 70
    32
  0
VERTEX
  5
24A
100
AcDbEntity
  8
Mst 1_1
100
AcDbVertex
100
AcDb3dPolylineVertex
 10
90.04810713
 20
-190.97212964
 30
2000.0
 70
    32
  0
VERTEX
  5
24B
100
AcDbEntity
  8
Mst 1_1
100
AcDbVertex
100
AcDb3dPolylineVertex
 10
90.70150771
 20
-191.05642238
 30
2250.0
 70
    32
  0
VERTEX
  5
24C
100
AcDbEntity
  8
Mst 1_1
100
AcDbVertex
100
AcDb3dPolylineVertex
 10
91.35256172
 20
-191.15725025
 30
2500.0
 70
    32
  0
VERTEX
  5
24D
100
AcDbEntity
  8
Mst 1_1
100
AcDbVertex
100
AcDb3dPolylineVertex
 10
96.76404693
 20
-192.35694764
 30
2500.0
 70
    32
  0
VERTEX
  5
24E
100
AcDbEntity
  8
Mst 1_1
100
AcDbVertex
100
AcDb3dPolylineVertex
 10
91.35256172
 20
-193.55664503
 30
2500.0
 70
    32
  0
VERTEX
  5
24F
100
AcDbEntity
  8
Mst 1_1
100
AcDbVertex
100
AcDb3dPolylineVertex
 10
90.70150771
 20
-193.6574729
 30
2250.0
 70
    32
  0
VERTEX
  5
250
100
AcDbEntity
  8
Mst 1_1
100
AcDbVertex
100
AcDb3dPolylineVertex
 10
90.04810713
 20
-193.74176563
 30
2000.0
 70
    32
  0
VERTEX
  5
251
100
AcDbEntity
  8
Mst 1_1
100
AcDbVertex
100
AcDb3dPolylineVertex
 10
89.39277986
 20
-193.80946907
 30
1750.0
 70
    32
  0
VERTEX
  5
252
100
AcDbEntity
  8
Mst 1_1
100
AcDbVertex
100
AcDb3dPolylineVertex
 10
88.73594702
 20
-193.86053968
 30
1500.0
 70
    32
  0
VERTEX
  5
253
100
AcDbEntity
  8
Mst 1_1
100
AcDbVertex
100
AcDb3dPolylineVertex
 10
88.0780307
 20
-193.89494467
 30
1250.0
 70
    32
  0
VERTEX
  5
254
100
AcDbEntity
  8
Mst 1_1
100
AcDbVertex
100
AcDb3dPolylineVertex
 10
87.41945369
 20
-193.91266192
 30
1000.0
 70
    32
  0
SEQEND
  5
255
100
AcDbEntity
  8
Mst 1_1
  0
LWPOLYLINE
  5
256
100
AcDbEntity
  8
Mst 1_1
 62
   137
  6
CONTINUOUS
370
     9
100
AcDbPolyline
 90
        4
 70
     1
 43
0.0
 10
44.56404693
 20
-190.5890905
 10
19.92404693
 20
-190.5890905
 10
19.92404693
 20
-194.12480478
 10
44.56404693
 20
-194.12480478
  0
LWPOLYLINE
  5
257
100
AcDbEntity
  8
Mst 1_1
 62
   137
  6
CONTINUOUS
370
     9
100
AcDbPolyline
 90
        4
 70
     1
 43
0.0
 10
87.43875711
 20
-193.91266192
 10
85.30251181
 20
-189.88194764
 10
84.96791917
 20
-190.80123335
 10
87.10416447
 20
-194.83194764
  0
LWPOLYLINE
  5
258
100
AcDbEntity
  8
Mst 1_1
 62
   137
  6
CONTINUOUS
370
     9
100
AcDbPolyline
 90
        4
 70
     1
 43
0.0
 10
90.96566033
 20
-193.61614493
 10
89.03953477
 20
-189.92925439
 10
88.70066863
 20
-190.86089429
 10
90.644407
 20
-194.49964922
  0
LINE
  5
259
100
AcDbEntity
  8
Mst 1_1
 62
   137
  6
CONTINUOUS
370
     9
100
AcDbLine
 10
89.03953477
 20
-189.92925439
 30
0.0
 11
90.644407
 21
-194.49964922
 31
0.0
  0
LWPOLYLINE
  5
25A
100
AcDbEntity
  8
Mst 1_1
 62
   137
  6
CONTINUOUS
370
     9
100
AcDbPolyline
 90
        4
 70
     1
 43
0.0
 10
94.0355687
 20
-192.9618367
 10
92.77871933
 20
-190.53727384
 10
92.46343011
 20
-191.40352384
 10
93.72027949
 20
-193.8280867
  0
LINE
  5
25B
100
AcDbEntity
  8
Mst 1_1
 62
   137
  6
CONTINUOUS
370
     9
100
AcDbLine
 10
92.77871933
 20
-190.53727384
 30
0.0
 11
93.72027949
 21
-193.8280867
 31
0.0
  0
LWPOLYLINE
  5
25C
100
AcDbEntity
  8
Mst 1_1
 62
   137
  6
CONTINUOUS
370
     9
100
AcDbPolyline
 90
        4
 70
     1
 43
0.0
 10
96.26611733
 20
-192.24655931
 10
95.9220893
 20
-191.58290175
 10
95.72426029
 20
-192.12643249
 10
96.20381897
 20
-192.35694764
  0
LINE
  5
25D
100
AcDbEntity
  8
Mst 1_1
 62
   137
  6
CONTINUOUS
370
     9
100
AcDbLine
 10
95.9220893
 20
-191.58290175
 30
0.0
 11
96.20381897
 21
-192.35694764
 31
0.0
  0
LWPOLYLINE
  5
25E
100
AcDbEntity
  8
Mst 1_1
 62
   137
  6
CONTINUOUS
370
     9
100
AcDbPolyline
 90
        3
 70
     0
 43
0.0
 38
2500.0
 10
92.60930411
 20
-191.00273833
 10
91.35256172
 20
-190.72412525
 42
0.02538716
 10
89.29018953
 20
-190.40904484
  0
LWPOLYLINE
  5
25F
100
AcDbEntity
  8
Mst 1_1
 62
   137
  6
CONTINUOUS
370
     9
100
AcDbPolyline
 90
        3
 70
     0
 43
0.0
 38
2500.0
 10
93.55139751
 20
-193.50229987
 10
91.35256172
 20
-193.98977003
 42
-0.00622926
 10
90.79035938
 20
-194.09825401
  0
LINE
  5
260
100
AcDbEntity
  8
Mst 1_1
 62
   137
  6
CONTINUOUS
370
     9
100
AcDbLine
 10
85.30251181
 20
-189.88194764
 30
0.0
 11
87.10416447
 21
-194.83194764
 31
0.0
  0
LWPOLYLINE
  5
261
100
AcDbEntity
  8
Mst 1_1
 62
     1
  6
CADWORK_8
370
    15
100
AcDbPolyline
 90
        3
 70
     0
 43
0.0
 10
96.76404693
 20
-192.35694764
 10
-3.17595307
 20
-192.35694764
 10
-3.17595307
 20
-192.35694764
  0
LWPOLYLINE
  5
262
100
AcDbEntity
  8
Mst 1_1
 62
   137
  6
CONTINUOUS
370
     9
100
AcDbPolyline
 90
        4
 70
     1
 43
0.0
 10
83.76161425
 20
-193.91266192
 10
81.62536895
 20
-189.88194764
 10
81.29077632
 20
-190.80123335
 10
83.42702161
 20
-194.83194764
  0
LINE
  5
263
100
AcDbEntity
  8
Mst 1_1
 62
   137
  6
CONTINUOUS
370
     9
100
AcDbLine
 10
81.62536895
 20
-189.88194764
 30
0.0
 11
83.42702161
 21
-194.83194764
 31
0.0
  0
LWPOLYLINE
  5
264
100
AcDbEntity
  8
Mst 1_1
 62
   137
  6
CONTINUOUS
370
     9
100
AcDbPolyline
 90
        4
 70
     1
 43
0.0
 10
80.08447139
 20
-193.91266192
 10
77.9482261
 20
-189.88194764
 10
77.61363346
 20
-190.80123335
 10
79.74987876
 20
-194.83194764
  0
LINE
  5
265
100
AcDbEntity
  8
Mst 1_1
 62
   137
  6
CONTINUOUS
370
     9
100
AcDbLine
 10
77.9482261
 20
-189.88194764
 30
0.0
 11
79.74987876
 21
-194.83194764
 31
0.0
  0
LWPOLYLINE
  5
266
100
AcDbEntity
  8
Mst 1_1
 62
   137
  6
CONTINUOUS
370
     9
100
AcDbPolyline
 90
        4
 70
     1
 43
0.0
 10
76.40732854
 20
-193.91266192
 10
74.27108324
 20
-189.88194764
 10
73.9364906
 20
-190.80123335
 10
76.0727359
 20
-194.83194764
  0
LINE
  5
267
100
AcDbEntity
  8
Mst 1_1
 62
   137
  6
CONTINUOUS
370
     9
100
AcDbLine
 10
74.27108324
 20
-189.88194764
 30
0.0
 11
76.0727359
 21
-194.83194764
 31
0.0
  0
LWPOLYLINE
  5
268
100
AcDbEntity
  8
Mst 1_1
 62
   137
  6
CONTINUOUS
370
     9
100
AcDbPolyline
 90
        7
 70
     1
 43
0.0
 10
-3.17595307
 20
-188.72694764
 10
-3.0389222
 20
-188.72694764
 10
0.45404693
 20
-190.80123335
 10
0.45404693
 20
-193.91266192
 10
-3.0389222
 20
-195.98694764
 10
-3.17595307
 20
-195.98694764
 10
-3.17595307
 20
-192.35694764
  0
LINE
  5
269
100
AcDbEntity
  8
Mst 1_1
 62
   137
  6
CONTINUOUS
370
     9
100
AcDbLine
 10
-3.0389222
 20
-188.72694764
 30
1000.0
 11
-3.0389222
 21
-195.98694764
 31
1000.0
  0
3DFACE
  5
26A
100
AcDbEntity
  8
Mst 1_1
 62
   137
  6
CONTINUOUS
370
     9
100
AcDbFace
 70
     0
 10
0.15821976
 20
-194.36064996
 30
1000.0
 11
-2.44726786
 21
-195.98694764
 31
1000.0
 12
-3.0389222
 22
-195.98694764
 32
1000.0
 13
0.45404693
 23
-193.91266192
 33
1000.0
  0
LWPOLYLINE
  5
26B
100
AcDbEntity
  8
Mst 1_1
 62
   137
  6
CONTINUOUS
370
     9
100
AcDbPolyline
 90
        6
 70
     1
 43
0.0
 38
1000.0
 39
-1000.0
 10
0.45404693
 20
-193.09639208
 10
0.10228749
 20
-192.98803497
 10
-2.50692895
 20
-193.72725745
 10
-3.0389222
 20
-194.10472542
 10
-2.38760677
 20
-194.14060159
 10
0.21415203
 20
-193.3755451
  0
3DFACE
  5
26C
100
AcDbEntity
  8
Mst 1_1
 62
   137
  6
CONTINUOUS
370
     9
100
AcDbFace
 70
     0
 10
18.82404693
 20
-190.80123335
 30
1000.0
 11
0.45404693
 21
-190.80123335
 31
1000.0
 12
0.45404693
 22
-193.91266192
 32
1000.0
 13
18.82404693
 23
-193.91266192
 33
1000.0
  0
LWPOLYLINE
  5
26D
100
AcDbEntity
  8
Mst 1_1
 62
   137
  6
CONTINUOUS
370
     9
100
AcDbPolyline
 90
        6
 70
     1
 43
0.0
 38
1000.0
 39
-1000.0
 10
0.45404693
 20
-191.61750319
 10
0.10228749
 20
-191.72586031
 10
-2.50692895
 20
-190.98663783
 10
-3.0389222
 20
-190.60916986
 10
-2.38760677
 20
-190.57329369
 10
0.21415203
 20
-191.33835018
  0
LINE
  5
26E
100
AcDbEntity
  8
Mst 1_1
 62
   137
  6
CONTINUOUS
370
     9
100
AcDbLine
 10
-3.0389222
 20
-190.60916986
 30
1000.0
 11
0.45404693
 21
-191.61750319
 31
1000.0
  0
LINE
  5
26F
100
AcDbEntity
  8
Mst 1_1
 62
   137
  6
CONTINUOUS
370
     9
100
AcDbLine
 10
-3.0389222
 20
-194.10472542
 30
1000.0
 11
0.45404693
 21
-193.09639208
 31
1000.0
  0
3DFACE
  5
270
100
AcDbEntity
  8
Mst 1_1
 62
   137
  6
CONTINUOUS
370
     9
100
AcDbFace
 70
     0
 10
0.15821976
 20
-190.35324532
 30
1000.0
 11
-2.44726786
 21
-188.72694764
 31
1000.0
 12
-3.0389222
 22
-188.72694764
 32
1000.0
 13
0.45404693
 23
-190.80123335
 33
1000.0
  0
LWPOLYLINE
  5
271
100
AcDbEntity
  8
Mst 1_1
 62
   137
  6
CONTINUOUS
370
     9
100
AcDbPolyline
 90
        6
 70
     1
 43
0.0
 38
1000.0
 39
-1000.0
 10
-3.17595307
 20
-192.35694764
 10
-3.17595307
 20
-195.98694764
 42
-0.11457924
 10
-3.83595307
 20
-194.32954583
 10
-3.83595307
 20
-192.35694764
 10
-3.83595307
 20
-190.38434945
 42
-0.11457924
 10
-3.17595307
 20
-188.72694764
  0
3DFACE
  5
272
100
AcDbEntity
  8
Mst 1_1
 62
   137
  6
CONTINUOUS
370
     9
100
AcDbFace
 70
     0
 10
44.56404693
 20
-190.5890905
 30
1000.0
 11
46.76404693
 21
-190.80123335
 31
1000.0
 12
46.76404693
 22
-193.91266192
 32
1000.0
 13
44.56404693
 23
-194.12480478
 33
1000.0
  0
3DFACE
  5
273
100
AcDbEntity
  8
Mst 1_1
 62
   137
  6
CONTINUOUS
370
     9
100
AcDbFace
 70
     0
 10
19.92404693
 20
-190.5890905
 30
1000.0
 11
18.82404693
 21
-190.80123335
 31
1000.0
 12
18.82404693
 22
-193.91266192
 32
1000.0
 13
19.92404693
 23
-194.12480478
 33
1000.0
  0
LWPOLYLINE
  5
274
100
AcDbEntity
  8
Mst 1_1
 62
   137
  6
CONTINUOUS
370
     9
100
AcDbPolyline
 90
        4
 70
     1
 43
0.0
 10
18.47799578
 20
-193.91266192
 10
16.6747815
 20
-189.63444764
 10
16.35656721
 20
-190.80123335
 10
18.1597815
 20
-195.07944764
  0
LINE
  5
275
100
AcDbEntity
  8
Mst 1_1
 62
   137
  6
CONTINUOUS
370
     9
100
AcDbLine
 10
16.6747815
 20
-189.63444764
 30
0.0
 11
18.1597815
 21
-195.07944764
 31
0.0
  0
LWPOLYLINE
  5
276
100
AcDbEntity
  8
Mst 1_1
 62
   137
  6
CONTINUOUS
370
     9
100
AcDbPolyline
 90
        4
 70
     1
 43
0.0
 10
15.50799578
 20
-193.91266192
 10
13.7047815
 20
-189.63444764
 10
13.38656721
 20
-190.80123335
 10
15.1897815
 20
-195.07944764
  0
LINE
  5
277
100
AcDbEntity
  8
Mst 1_1
 62
   137
  6
CONTINUOUS
370
     9
100
AcDbLine
 10
13.7047815
 20
-189.63444764
 30
0.0
 11
15.1897815
 21
-195.07944764
 31
0.0
  0
LWPOLYLINE
  5
278
100
AcDbEntity
  8
Mst 1_1
 62
   137
  6
CONTINUOUS
370
     9
100
AcDbPolyline
 90
        4
 70
     1
 43
0.0
 10
12.53799578
 20
-193.91266192
 10
10.7347815
 20
-189.63444764
 10
10.41656721
 20
-190.80123335
 10
12.2197815
 20
-195.07944764
  0
LINE
  5
279
100
AcDbEntity
  8
Mst 1_1
 62
   137
  6
CONTINUOUS
370
     9
100
AcDbLine
 10
10.7347815
 20
-189.63444764
 30
0.0
 11
12.2197815
 21
-195.07944764
 31
0.0
  0
LWPOLYLINE
  5
27A
100
AcDbEntity
  8
Mst 1_1
 62
   137
  6
CONTINUOUS
370
     9
100
AcDbPolyline
 90
        4
 70
     1
 43
0.0
 10
9.56799578
 20
-193.91266192
 10
7.7647815
 20
-189.63444764
 10
7.44656721
 20
-190.80123335
 10
9.2497815
 20
-195.07944764
  0
LINE
  5
27B
100
AcDbEntity
  8
Mst 1_1
 62
   137
  6
CONTINUOUS
370
     9
100
AcDbLine
 10
7.7647815
 20
-189.63444764
 30
0.0
 11
9.2497815
 21
-195.07944764
 31
0.0
  0
LWPOLYLINE
  5
27C
100
AcDbEntity
  8
Mst 1_1
 62
   137
  6
CONTINUOUS
370
     9
100
AcDbPolyline
 90
        4
 70
     1
 43
0.0
 10
6.59799578
 20
-193.91266192
 10
4.7947815
 20
-189.63444764
 10
4.47656721
 20
-190.80123335
 10
6.2797815
 20
-195.07944764
  0
LINE
  5
27D
100
AcDbEntity
  8
Mst 1_1
 62
   137
  6
CONTINUOUS
370
     9
100
AcDbLine
 10
4.7947815
 20
-189.63444764
 30
0.0
 11
6.2797815
 21
-195.07944764
 31
0.0
  0
LWPOLYLINE
  5
27E
100
AcDbEntity
  8
Mst 1_1
 62
   137
  6
CONTINUOUS
370
     9
100
AcDbPolyline
 90
        4
 70
     1
 43
0.0
 10
3.62799578
 20
-193.91266192
 10
1.8247815
 20
-189.63444764
 10
1.50656721
 20
-190.80123335
 10
3.3097815
 20
-195.07944764
  0
LINE
  5
27F
100
AcDbEntity
  8
Mst 1_1
 62
   137
  6
CONTINUOUS
370
     9
100
AcDbLine
 10
1.8247815
 20
-189.63444764
 30
0.0
 11
3.3097815
 21
-195.07944764
 31
0.0
  0
CIRCLE
  5
280
100
AcDbEntity
  8
Mst 1_1
 62
   137
  6
CONTINUOUS
370
     9
100
AcDbCircle
 10
-77.49213075
 20
-222.35694764
 30
0.0
 40
1.97011029
  0
CIRCLE
  5
281
100
AcDbEntity
  8
Mst 1_1
 62
   137
  6
CONTINUOUS
370
     9
100
AcDbCircle
 10
-77.49213075
 20
-222.35694764
 30
0.0
 40
3.3
  0
ARC
  5
282
100
AcDbEntity
  8
Mst 1_1
 62
   137
  6
CONTINUOUS
370
     9
100
AcDbCircle
 10
-79.10585691
 20
-222.35694764
 30
0.0
 40
0.35638414
100
AcDbArc
 50
104.00039951
 51
255.99960049
  0
ARC
  5
283
100
AcDbEntity
  8
Mst 1_1
 62
   137
  6
CONTINUOUS
370
     9
100
AcDbCircle
 10
-79.37722352
 20
-223.44530649
 30
0.0
 40
0.76529533
100
AcDbArc
 50
344.00041281
 51
75.99958535
  0
ARC
  5
284
100
AcDbEntity
  8
Mst 1_1
 62
   137
  6
CONTINUOUS
370
     9
100
AcDbCircle
 10
-78.29899381
 20
-223.7544755
 30
0.0
 40
0.35638413
100
AcDbArc
 50
164.00040911
 51
315.99958502
  0
ARC
  5
285
100
AcDbEntity
  8
Mst 1_1
 62
   137
  6
CONTINUOUS
370
     9
100
AcDbCircle
 10
-77.49213075
 20
-224.5336652
 30
0.0
 40
0.76529523
100
AcDbArc
 50
44.00040429
 51
135.99959571
  0
ARC
  5
286
100
AcDbEntity
  8
Mst 1_1
 62
   137
  6
CONTINUOUS
370
     9
100
AcDbCircle
 10
-76.68526765
 20
-223.75447556
 30
0.0
 40
0.35638411
100
AcDbArc
 50
224.00040506
 51
15.9996008
  0
ARC
  5
287
100
AcDbEntity
  8
Mst 1_1
 62
   137
  6
CONTINUOUS
370
     9
100
AcDbCircle
 10
-75.87840458
 20
-222.35694764
 30
0.0
 40
0.35638414
100
AcDbArc
 50
284.00039951
 51
75.99960049
  0
ARC
  5
288
100
AcDbEntity
  8
Mst 1_1
 62
   137
  6
CONTINUOUS
370
     9
100
AcDbCircle
 10
-75.60703797
 20
-221.26858879
 30
0.0
 40
0.76529533
100
AcDbArc
 50
164.00041281
 51
255.99958535
  0
ARC
  5
289
100
AcDbEntity
  8
Mst 1_1
 62
   137
  6
CONTINUOUS
370
     9
100
AcDbCircle
 10
-76.68526768
 20
-220.95941978
 30
0.0
 40
0.35638413
100
AcDbArc
 50
344.00040911
 51
135.99958502
  0
ARC
  5
28A
100
AcDbEntity
  8
Mst 1_1
 62
   137
  6
CONTINUOUS
370
     9
100
AcDbCircle
 10
-77.49213075
 20
-220.18023008
 30
0.0
 40
0.76529523
100
AcDbArc
 50
224.00040429
 51
315.99959571
  0
ARC
  5
28B
100
AcDbEntity
  8
Mst 1_1
 62
   137
  6
CONTINUOUS
370
     9
100
AcDbCircle
 10
-78.29899384
 20
-220.95941972
 30
0.0
 40
0.35638411
100
AcDbArc
 50
44.00040506
 51
195.9996008
  0
ARC
  5
28C
100
AcDbEntity
  8
Mst 1_1
 62
   137
  6
CONTINUOUS
370
     9
100
AcDbCircle
 10
-79.37722352
 20
-221.26858879
 30
0.0
 40
0.76529533
100
AcDbArc
 50
284.00041459
 51
15.99958726
  0
ARC
  5
28D
100
AcDbEntity
  8
Mst 1_1
 62
   137
  6
CONTINUOUS
370
     9
100
AcDbCircle
 10
-75.60703797
 20
-223.44530649
 30
0.0
 40
0.76529533
100
AcDbArc
 50
104.00041459
 51
195.99958726
  0
POLYLINE
  5
28E
100
AcDbEntity
  8
Mst 1_1
 62
   137
  6
CONTINUOUS
370
     9
100
AcDb3dPolyline
 66
     1
 70
     9
 10
0.0
 20
0.0
 30
1000.0
 39
-1000.0
  0
VERTEX
  5
28F
100
AcDbEntity
  8
Mst 1_1
100
AcDbVertex
100
AcDb3dPolylineVertex
 10
107.41945369
 20
-223.91266192
 30
1000.0
 70
    32
  0
VERTEX
  5
290
100
AcDbEntity
  8
Mst 1_1
100
AcDbVertex
100
AcDb3dPolylineVertex
 10
61.76404693
 20
-223.91266192
 30
1000.0
 70
    32
  0
VERTEX
  5
291
100
AcDbEntity
  8
Mst 1_1
100
AcDbVertex
100
AcDb3dPolylineVertex
 10
61.76404693
 20
-220.80123335
 30
1000.0
 70
    32
  0
VERTEX
  5
292
100
AcDbEntity
  8
Mst 1_1
100
AcDbVertex
100
AcDb3dPolylineVertex
 10
107.41945369
 20
-220.80123335
 30
1000.0
 70
    32
  0
VERTEX
  5
293
100
AcDbEntity
  8
Mst 1_1
100
AcDbVertex
100
AcDb3dPolylineVertex
 10
108.0780307
 20
-220.8189506
 30
1250.0
 70
    32
  0
VERTEX
  5
294
100
AcDbEntity
  8
Mst 1_1
100
AcDbVertex
100
AcDb3dPolylineVertex
 10
108.73594702
 20
-220.85335559
 30
1500.0
 70
    32
  0
VERTEX
  5
295
100
AcDbEntity
  8
Mst 1_1
100
AcDbVertex
100
AcDb3dPolylineVertex
 10
109.39277986
 20
-220.90442621
 30
1750.0
 70
    32
  0
VERTEX
  5
296
100
AcDbEntity
  8
Mst 1_1
100
AcDbVertex
100
AcDb3dPolylineVertex
 10
110.04810713
 20
-220.97212964
 30
2000.0
 70
    32
  0
VERTEX
  5
297
100
AcDbEntity
  8
Mst 1_1
100
AcDbVertex
100
AcDb3dPolylineVertex
 10
110.70150771
 20
-221.05642238
 30
2250.0
 70
    32
  0
VERTEX
  5
298
100
AcDbEntity
  8
Mst 1_1
100
AcDbVertex
100
AcDb3dPolylineVertex
 10
111.35256172
 20
-221.15725025
 30
2500.0
 70
    32
  0
VERTEX
  5
299
100
AcDbEntity
  8
Mst 1_1
100
AcDbVertex
100
AcDb3dPolylineVertex
 10
116.76404693
 20
-222.35694764
 30
2500.0
 70
    32
  0
VERTEX
  5
29A
100
AcDbEntity
  8
Mst 1_1
100
AcDbVertex
100
AcDb3dPolylineVertex
 10
111.35256172
 20
-223.55664503
 30
2500.0
 70
    32
  0
VERTEX
  5
29B
100
AcDbEntity
  8
Mst 1_1
100
AcDbVertex
100
AcDb3dPolylineVertex
 10
110.70150771
 20
-223.6574729
 30
2250.0
 70
    32
  0
VERTEX
  5
29C
100
AcDbEntity
  8
Mst 1_1
100
AcDbVertex
100
AcDb3dPolylineVertex
 10
110.04810713
 20
-223.74176563
 30
2000.0
 70
    32
  0
VERTEX
  5
29D
100
AcDbEntity
  8
Mst 1_1
100
AcDbVertex
100
AcDb3dPolylineVertex
 10
109.39277986
 20
-223.80946907
 30
1750.0
 70
    32
  0
VERTEX
  5
29E
100
AcDbEntity
  8
Mst 1_1
100
AcDbVertex
100
AcDb3dPolylineVertex
 10
108.73594702
 20
-223.86053968
 30
1500.0
 70
    32
  0
VERTEX
  5
29F
100
AcDbEntity
  8
Mst 1_1
100
AcDbVertex
100
AcDb3dPolylineVertex
 10
108.0780307
 20
-223.89494467
 30
1250.0
 70
    32
  0
VERTEX
  5
2A0
100
AcDbEntity
  8
Mst 1_1
100
AcDbVertex
100
AcDb3dPolylineVertex
 10
107.41945369
 20
-223.91266192
 30
1000.0
 70
    32
  0
SEQEND
  5
2A1
100
AcDbEntity
  8
Mst 1_1
  0
LWPOLYLINE
  5
2A2
100
AcDbEntity
  8
Mst 1_1
 62
   137
  6
CONTINUOUS
370
     9
100
AcDbPolyline
 90
        4
 70
     1
 43
0.0
 10
59.56404693
 20
-220.5890905
 10
22.92404693
 20
-220.5890905
 10
22.92404693
 20
-224.12480478
 10
59.56404693
 20
-224.12480478
  0
LWPOLYLINE
  5
2A3
100
AcDbEntity
  8
Mst 1_1
 62
   137
  6
CONTINUOUS
370
     9
100
AcDbPolyline
 90
        4
 70
     1
 43
0.0
 10
107.43875711
 20
-223.91266192
 10
105.30251181
 20
-219.88194764
 10
104.96791917
 20
-220.80123335
 10
107.10416447
 20
-224.83194764
  0
LWPOLYLINE
  5
2A4
100
AcDbEntity
  8
Mst 1_1
 62
   137
  6
CONTINUOUS
370
     9
100
AcDbPolyline
 90
        4
 70
     1
 43
0.0
 10
110.96566033
 20
-223.61614493
 10
109.03953477
 20
-219.92925439
 10
108.70066863
 20
-220.86089429
 10
110.644407
 20
-224.49964922
  0
LINE
  5
2A5
100
AcDbEntity
  8
Mst 1_1
 62
   137
  6
CONTINUOUS
370
     9
100
AcDbLine
 10
109.03953477
 20
-219.92925439
 30
0.0
 11
110.644407
 21
-224.49964922
 31
0.0
  0
LWPOLYLINE
  5
2A6
100
AcDbEntity
  8
Mst 1_1
 62
   137
  6
CONTINUOUS
370
     9
100
AcDbPolyline
 90
        4
 70
     1
 43
0.0
 10
114.0355687
 20
-222.9618367
 10
112.77871933
 20
-220.53727384
 10
112.46343011
 20
-221.40352384
 10
113.72027949
 20
-223.8280867
  0
LINE
  5
2A7
100
AcDbEntity
  8
Mst 1_1
 62
   137
  6
CONTINUOUS
370
     9
100
AcDbLine
 10
112.77871933
 20
-220.53727384
 30
0.0
 11
113.72027949
 21
-223.8280867
 31
0.0
  0
LWPOLYLINE
  5
2A8
100
AcDbEntity
  8
Mst 1_1
 62
   137
  6
CONTINUOUS
370
     9
100
AcDbPolyline
 90
        4
 70
     1
 43
0.0
 10
116.26611733
 20
-222.24655931
 10
115.9220893
 20
-221.58290175
 10
115.72426029
 20
-222.12643249
 10
116.20381897
 20
-222.35694764
  0
LINE
  5
2A9
100
AcDbEntity
  8
Mst 1_1
 62
   137
  6
CONTINUOUS
370
     9
100
AcDbLine
 10
115.9220893
 20
-221.58290175
 30
0.0
 11
116.20381897
 21
-222.35694764
 31
0.0
  0
LWPOLYLINE
  5
2AA
100
AcDbEntity
  8
Mst 1_1
 62
   137
  6
CONTINUOUS
370
     9
100
AcDbPolyline
 90
        3
 70
     0
 43
0.0
 38
2500.0
 10
112.60930411
 20
-221.00273833
 10
111.35256172
 20
-220.72412525
 42
0.02538716
 10
109.29018953
 20
-220.40904484
  0
LWPOLYLINE
  5
2AB
100
AcDbEntity
  8
Mst 1_1
 62
   137
  6
CONTINUOUS
370
     9
100
AcDbPolyline
 90
        3
 70
     0
 43
0.0
 38
2500.0
 10
113.55139751
 20
-223.50229987
 10
111.35256172
 20
-223.98977003
 42
-0.00622926
 10
110.79035938
 20
-224.09825401
  0
LINE
  5
2AC
100
AcDbEntity
  8
Mst 1_1
 62
   137
  6
CONTINUOUS
370
     9
100
AcDbLine
 10
105.30251181
 20
-219.88194764
 30
0.0
 11
107.10416447
 21
-224.83194764
 31
0.0
  0
LWPOLYLINE
  5
2AD
100
AcDbEntity
  8
Mst 1_1
 62
     1
  6
CADWORK_8
370
    15
100
AcDbPolyline
 90
        3
 70
     0
 43
0.0
 10
116.76404693
 20
-222.35694764
 10
-3.17595307
 20
-222.35694764
 10
-3.17595307
 20
-222.35694764
  0
LWPOLYLINE
  5
2AE
100
AcDbEntity
  8
Mst 1_1
 62
   137
  6
CONTINUOUS
370
     9
100
AcDbPolyline
 90
        4
 70
     1
 43
0.0
 10
103.76161425
 20
-223.91266192
 10
101.62536895
 20
-219.88194764
 10
101.29077632
 20
-220.80123335
 10
103.42702161
 20
-224.83194764
  0
LINE
  5
2AF
100
AcDbEntity
  8
Mst 1_1
 62
   137
  6
CONTINUOUS
370
     9
100
AcDbLine
 10
101.62536895
 20
-219.88194764
 30
0.0
 11
103.42702161
 21
-224.83194764
 31
0.0
  0
LWPOLYLINE
  5
2B0
100
AcDbEntity
  8
Mst 1_1
 62
   137
  6
CONTINUOUS
370
     9
100
AcDbPolyline
 90
        4
 70
     1
 43
0.0
 10
100.08447139
 20
-223.91266192
 10
97.9482261
 20
-219.88194764
 10
97.61363346
 20
-220.80123335
 10
99.74987876
 20
-224.83194764
  0
LINE
  5
2B1
100
AcDbEntity
  8
Mst 1_1
 62
   137
  6
CONTINUOUS
370
     9
100
AcDbLine
 10
97.9482261
 20
-219.88194764
 30
0.0
 11
99.74987876
 21
-224.83194764
 31
0.0
  0
LWPOLYLINE
  5
2B2
100
AcDbEntity
  8
Mst 1_1
 62
   137
  6
CONTINUOUS
370
     9
100
AcDbPolyline
 90
        4
 70
     1
 43
0.0
 10
96.40732854
 20
-223.91266192
 10
94.27108324
 20
-219.88194764
 10
93.9364906
 20
-220.80123335
 10
96.0727359
 20
-224.83194764
  0
LINE
  5
2B3
100
AcDbEntity
  8
Mst 1_1
 62
   137
  6
CONTINUOUS
370
     9
100
AcDbLine
 10
94.27108324
 20
-219.88194764
 30
0.0
 11
96.0727359
 21
-224.83194764
 31
0.0
  0
LWPOLYLINE
  5
2B4
100
AcDbEntity
  8
Mst 1_1
 62
   137
  6
CONTINUOUS
370
     9
100
AcDbPolyline
 90
        4
 70
     1
 43
0.0
 10
92.73018568
 20
-223.91266192
 10
90.59394038
 20
-219.88194764
 10
90.25934775
 20
-220.80123335
 10
92.39559304
 20
-224.83194764
  0
LINE
  5
2B5
100
AcDbEntity
  8
Mst 1_1
 62
   137
  6
CONTINUOUS
370
     9
100
AcDbLine
 10
90.59394038
 20
-219.88194764
 30
0.0
 11
92.39559304
 21
-224.83194764
 31
0.0
  0
LWPOLYLINE
  5
2B6
100
AcDbEntity
  8
Mst 1_1
 62
   137
  6
CONTINUOUS
370
     9
100
AcDbPolyline
 90
        4
 70
     1
 43
0.0
 10
89.05304282
 20
-223.91266192
 10
86.91679752
 20
-219.88194764
 10
86.58220489
 20
-220.80123335
 10
88.71845018
 20
-224.83194764
  0
LINE
  5
2B7
100
AcDbEntity
  8
Mst 1_1
 62
   137
  6
CONTINUOUS
370
     9
100
AcDbLine
 10
86.91679752
 20
-219.88194764
 30
0.0
 11
88.71845018
 21
-224.83194764
 31
0.0
  0
LWPOLYLINE
  5
2B8
100
AcDbEntity
  8
Mst 1_1
 62
   137
  6
CONTINUOUS
370
     9
100
AcDbPolyline
 90
        7
 70
     1
 43
0.0
 10
-3.17595307
 20
-218.72694764
 10
-3.0389222
 20
-218.72694764
 10
0.45404693
 20
-220.80123335
 10
0.45404693
 20
-223.91266192
 10
-3.0389222
 20
-225.98694764
 10
-3.17595307
 20
-225.98694764
 10
-3.17595307
 20
-222.35694764
  0
LINE
  5
2B9
100
AcDbEntity
  8
Mst 1_1
 62
   137
  6
CONTINUOUS
370
     9
100
AcDbLine
 10
-3.0389222
 20
-218.72694764
 30
1000.0
 11
-3.0389222
 21
-225.98694764
 31
1000.0
  0
3DFACE
  5
2BA
100
AcDbEntity
  8
Mst 1_1
 62
   137
  6
CONTINUOUS
370
     9
100
AcDbFace
 70
     0
 10
0.15821976
 20
-224.36064996
 30
1000.0
 11
-2.44726786
 21
-225.98694764
 31
1000.0
 12
-3.0389222
 22
-225.98694764
 32
1000.0
 13
0.45404693
 23
-223.91266192
 33
1000.0
  0
LWPOLYLINE
  5
2BB
100
AcDbEntity
  8
Mst 1_1
 62
   137
  6
CONTINUOUS
370
     9
100
AcDbPolyline
 90
        6
 70
     1
 43
0.0
 38
1000.0
 39
-1000.0
 10
0.45404693
 20
-223.09639208
 10
0.10228749
 20
-222.98803497
 10
-2.50692895
 20
-223.72725745
 10
-3.0389222
 20
-224.10472542
 10
-2.38760677
 20
-224.14060159
 10
0.21415203
 20
-223.3755451
  0
3DFACE
  5
2BC
100
AcDbEntity
  8
Mst 1_1
 62
   137
  6
CONTINUOUS
370
     9
100
AcDbFace
 70
     0
 10
21.82404693
 20
-220.80123335
 30
1000.0
 11
0.45404693
 21
-220.80123335
 31
1000.0
 12
0.45404693
 22
-223.91266192
 32
1000.0
 13
21.82404693
 23
-223.91266192
 33
1000.0
  0
LWPOLYLINE
  5
2BD
100
AcDbEntity
  8
Mst 1_1
 62
   137
  6
CONTINUOUS
370
     9
100
AcDbPolyline
 90
        6
 70
     1
 43
0.0
 38
1000.0
 39
-1000.0
 10
0.45404693
 20
-221.61750319
 10
0.10228749
 20
-221.72586031
 10
-2.50692895
 20
-220.98663783
 10
-3.0389222
 20
-220.60916986
 10
-2.38760677
 20
-220.57329369
 10
0.21415203
 20
-221.33835018
  0
LINE
  5
2BE
100
AcDbEntity
  8
Mst 1_1
 62
   137
  6
CONTINUOUS
370
     9
100
AcDbLine
 10
-3.0389222
 20
-220.60916986
 30
1000.0
 11
0.45404693
 21
-221.61750319
 31
1000.0
  0
LINE
  5
2BF
100
AcDbEntity
  8
Mst 1_1
 62
   137
  6
CONTINUOUS
370
     9
100
AcDbLine
 10
-3.0389222
 20
-224.10472542
 30
1000.0
 11
0.45404693
 21
-223.09639208
 31
1000.0
  0
3DFACE
  5
2C0
100
AcDbEntity
  8
Mst 1_1
 62
   137
  6
CONTINUOUS
370
     9
100
AcDbFace
 70
     0
 10
0.15821976
 20
-220.35324532
 30
1000.0
 11
-2.44726786
 21
-218.72694764
 31
1000.0
 12
-3.0389222
 22
-218.72694764
 32
1000.0
 13
0.45404693
 23
-220.80123335
 33
1000.0
  0
LWPOLYLINE
  5
2C1
100
AcDbEntity
  8
Mst 1_1
 62
   137
  6
CONTINUOUS
370
     9
100
AcDbPolyline
 90
        6
 70
     1
 43
0.0
 38
1000.0
 39
-1000.0
 10
-3.17595307
 20
-222.35694764
 10
-3.17595307
 20
-225.98694764
 42
-0.11457924
 10
-3.83595307
 20
-224.32954583
 10
-3.83595307
 20
-222.35694764
 10
-3.83595307
 20
-220.38434945
 42
-0.11457924
 10
-3.17595307
 20
-218.72694764
  0
3DFACE
  5
2C2
100
AcDbEntity
  8
Mst 1_1
 62
   137
  6
CONTINUOUS
370
     9
100
AcDbFace
 70
     0
 10
59.56404693
 20
-220.5890905
 30
1000.0
 11
61.76404693
 21
-220.80123335
 31
1000.0
 12
61.76404693
 22
-223.91266192
 32
1000.0
 13
59.56404693
 23
-224.12480478
 33
1000.0
  0
3DFACE
  5
2C3
100
AcDbEntity
  8
Mst 1_1
 62
   137
  6
CONTINUOUS
370
     9
100
AcDbFace
 70
     0
 10
22.92404693
 20
-220.5890905
 30
1000.0
 11
21.82404693
 21
-220.80123335
 31
1000.0
 12
21.82404693
 22
-223.91266192
 32
1000.0
 13
22.92404693
 23
-224.12480478
 33
1000.0
  0
LWPOLYLINE
  5
2C4
100
AcDbEntity
  8
Mst 1_1
 62
   137
  6
CONTINUOUS
370
     9
100
AcDbPolyline
 90
        4
 70
     1
 43
0.0
 10
15.50799578
 20
-223.91266192
 10
13.7047815
 20
-219.63444764
 10
13.38656721
 20
-220.80123335
 10
15.1897815
 20
-225.07944764
  0
LINE
  5
2C5
100
AcDbEntity
  8
Mst 1_1
 62
   137
  6
CONTINUOUS
370
     9
100
AcDbLine
 10
13.7047815
 20
-219.63444764
 30
0.0
 11
15.1897815
 21
-225.07944764
 31
0.0
  0
LWPOLYLINE
  5
2C6
100
AcDbEntity
  8
Mst 1_1
 62
   137
  6
CONTINUOUS
370
     9
100
AcDbPolyline
 90
        4
 70
     1
 43
0.0
 10
12.53799578
 20
-223.91266192
 10
10.7347815
 20
-219.63444764
 10
10.41656721
 20
-220.80123335
 10
12.2197815
 20
-225.07944764
  0
LINE
  5
2C7
100
AcDbEntity
  8
Mst 1_1
 62
   137
  6
CONTINUOUS
370
     9
100
AcDbLine
 10
10.7347815
 20
-219.63444764
 30
0.0
 11
12.2197815
 21
-225.07944764
 31
0.0
  0
LWPOLYLINE
  5
2C8
100
AcDbEntity
  8
Mst 1_1
 62
   137
  6
CONTINUOUS
370
     9
100
AcDbPolyline
 90
        4
 70
     1
 43
0.0
 10
9.56799578
 20
-223.91266192
 10
7.7647815
 20
-219.63444764
 10
7.44656721
 20
-220.80123335
 10
9.2497815
 20
-225.07944764
  0
LINE
  5
2C9
100
AcDbEntity
  8
Mst 1_1
 62
   137
  6
CONTINUOUS
370
     9
100
AcDbLine
 10
7.7647815
 20
-219.63444764
 30
0.0
 11
9.2497815
 21
-225.07944764
 31
0.0
  0
LWPOLYLINE
  5
2CA
100
AcDbEntity
  8
Mst 1_1
 62
   137
  6
CONTINUOUS
370
     9
100
AcDbPolyline
 90
        4
 70
     1
 43
0.0
 10
6.59799578
 20
-223.91266192
 10
4.7947815
 20
-219.63444764
 10
4.47656721
 20
-220.80123335
 10
6.2797815
 20
-225.07944764
  0
LINE
  5
2CB
100
AcDbEntity
  8
Mst 1_1
 62
   137
  6
CONTINUOUS
370
     9
100
AcDbLine
 10
4.7947815
 20
-219.63444764
 30
0.0
 11
6.2797815
 21
-225.07944764
 31
0.0
  0
LWPOLYLINE
  5
2CC
100
AcDbEntity
  8
Mst 1_1
 62
   137
  6
CONTINUOUS
370
     9
100
AcDbPolyline
 90
        4
 70
     1
 43
0.0
 10
3.62799578
 20
-223.91266192
 10
1.8247815
 20
-219.63444764
 10
1.50656721
 20
-220.80123335
 10
3.3097815
 20
-225.07944764
  0
LINE
  5
2CD
100
AcDbEntity
  8
Mst 1_1
 62
   137
  6
CONTINUOUS
370
     9
100
AcDbLine
 10
1.8247815
 20
-219.63444764
 30
0.0
 11
3.3097815
 21
-225.07944764
 31
0.0
  0
LWPOLYLINE
  5
2CE
100
AcDbEntity
  8
Mst 1_1
 62
   137
  6
CONTINUOUS
370
     9
100
AcDbPolyline
 90
        4
 70
     1
 43
0.0
 10
85.42304287
 20
-223.91266192
 10
83.28679758
 20
-219.88194764
 10
82.95220494
 20
-220.80123335
 10
85.08845024
 20
-224.83194764
  0
LINE
  5
2CF
100
AcDbEntity
  8
Mst 1_1
 62
   137
  6
CONTINUOUS
370
     9
100
AcDbLine
 10
83.28679758
 20
-219.88194764
 30
0.0
 11
85.08845024
 21
-224.83194764
 31
0.0
  0
LWPOLYLINE
  5
2D0
100
AcDbEntity
  8
Mst 1_1
 62
   137
  6
CONTINUOUS
370
     9
100
AcDbPolyline
 90
        4
 70
     1
 43
0.0
 10
81.79304293
 20
-223.91266192
 10
79.65679763
 20
-219.88194764
 10
79.32220499
 20
-220.80123335
 10
81.45845029
 20
-224.83194764
  0
LINE
  5
2D1
100
AcDbEntity
  8
Mst 1_1
 62
   137
  6
CONTINUOUS
370
     9
100
AcDbLine
 10
79.65679763
 20
-219.88194764
 30
0.0
 11
81.45845029
 21
-224.83194764
 31
0.0
  0
LWPOLYLINE
  5
2D2
100
AcDbEntity
  8
Mst 1_1
 62
   137
  6
CONTINUOUS
370
     9
100
AcDbPolyline
 90
        4
 70
     1
 43
0.0
 10
78.16304298
 20
-223.91266192
 10
76.02679768
 20
-219.88194764
 10
75.69220505
 20
-220.80123335
 10
77.82845034
 20
-224.83194764
  0
LINE
  5
2D3
100
AcDbEntity
  8
Mst 1_1
 62
   137
  6
CONTINUOUS
370
     9
100
AcDbLine
 10
76.02679768
 20
-219.88194764
 30
0.0
 11
77.82845034
 21
-224.83194764
 31
0.0
  0
LWPOLYLINE
  5
2D4
100
AcDbEntity
  8
Mst 1_1
 62
   137
  6
CONTINUOUS
370
     9
100
AcDbPolyline
 90
        4
 70
     1
 43
0.0
 10
63.64304319
 20
-223.91266192
 10
62.40762422
 20
-222.35694764
 10
62.82123671
 20
-223.91266192
 10
63.30845055
 20
-224.83194764
  0
LINE
  5
2D5
100
AcDbEntity
  8
Mst 1_1
 62
   137
  6
CONTINUOUS
370
     9
100
AcDbLine
 10
62.40762422
 20
-222.35694764
 30
0.0
 11
63.30845055
 21
-224.83194764
 31
0.0
  0
LINE
  5
2D6
100
AcDbEntity
  8
Mst 1_1
 62
     7
  6
DASHED
370
    -3
100
AcDbLine
 10
96.76404693
 20
-22.35694764
 30
0.0
 11
96.76404693
 21
-207.35694764
 31
0.0
  0
LINE
  5
2D7
100
AcDbEntity
  8
Mst 1_1
 62
     7
  6
DASHED
370
    -3
100
AcDbLine
 10
116.76404693
 20
-22.35694764
 30
0.0
 11
116.76404693
 21
-237.35694764
 31
0.0
  0
LWPOLYLINE
  5
2D8
100
AcDbEntity
  8
Mst 1_1
 62
   137
  6
CONTINUOUS
370
     9
100
AcDbPolyline
 90
        4
 70
     1
 43
0.0
 10
18.47799578
 20
-223.91266192
 10
16.6747815
 20
-219.63444764
 10
16.35656721
 20
-220.80123335
 10
18.1597815
 20
-225.07944764
  0
LINE
  5
2D9
100
AcDbEntity
  8
Mst 1_1
 62
   137
  6
CONTINUOUS
370
     9
100
AcDbLine
 10
16.6747815
 20
-219.63444764
 30
0.0
 11
18.1597815
 21
-225.07944764
 31
0.0
  0
LINE
  5
2DA
100
AcDbEntity
  8
Mst 1_1
 62
   137
  6
CONTINUOUS
370
     9
100
AcDbLine
 10
19.6447815
 20
-219.63444764
 30
0.0
 11
21.1297815
 21
-225.07944764
 31
0.0
  0
LWPOLYLINE
  5
2DB
100
AcDbEntity
  8
Mst 1_1
 62
   137
  6
CONTINUOUS
370
     9
100
AcDbPolyline
 90
        4
 70
     1
 43
0.0
 10
21.44799578
 20
-223.91266192
 10
19.6447815
 20
-219.63444764
 10
19.32656721
 20
-220.80123335
 10
21.1297815
 20
-225.07944764
  0
LWPOLYLINE
  5
2DC
100
AcDbEntity
  8
Mst 1_1
 62
   137
  6
CONTINUOUS
370
     9
100
AcDbPolyline
 90
        4
 70
     1
 43
0.0
 10
74.53304303
 20
-223.91266192
 10
72.39679773
 20
-219.88194764
 10
72.0622051
 20
-220.80123335
 10
74.19845039
 20
-224.83194764
  0
LINE
  5
2DD
100
AcDbEntity
  8
Mst 1_1
 62
   137
  6
CONTINUOUS
370
     9
100
AcDbLine
 10
72.39679773
 20
-219.88194764
 30
0.0
 11
74.19845039
 21
-224.83194764
 31
0.0
  0
LWPOLYLINE
  5
2DE
100
AcDbEntity
  8
Mst 1_1
 62
   137
  6
CONTINUOUS
370
     9
100
AcDbPolyline
 90
        4
 70
     1
 43
0.0
 10
70.90304308
 20
-223.91266192
 10
68.76679779
 20
-219.88194764
 10
68.43220515
 20
-220.80123335
 10
70.56845045
 20
-224.83194764
  0
LINE
  5
2DF
100
AcDbEntity
  8
Mst 1_1
 62
   137
  6
CONTINUOUS
370
     9
100
AcDbLine
 10
68.76679779
 20
-219.88194764
 30
0.0
 11
70.56845045
 21
-224.83194764
 31
0.0
  0
LWPOLYLINE
  5
2E0
100
AcDbEntity
  8
Mst 1_1
 62
   137
  6
CONTINUOUS
370
     9
100
AcDbPolyline
 90
        4
 70
     1
 43
0.0
 10
67.27304314
 20
-223.91266192
 10
65.13679784
 20
-219.88194764
 10
64.8022052
 20
-220.80123335
 10
66.9384505
 20
-224.83194764
  0
LINE
  5
2E1
100
AcDbEntity
  8
Mst 1_1
 62
   137
  6
CONTINUOUS
370
     9
100
AcDbLine
 10
65.13679784
 20
-219.88194764
 30
0.0
 11
66.9384505
 21
-224.83194764
 31
0.0
  0
LWPOLYLINE
  5
2E2
100
AcDbEntity
  8
Mst 1_1
 62
   137
  6
CONTINUOUS
370
     9
100
AcDbPolyline
 90
        4
 70
     1
 43
0.0
 10
72.73018568
 20
-193.91266192
 10
70.59394038
 20
-189.88194764
 10
70.25934775
 20
-190.80123335
 10
72.39559304
 20
-194.83194764
  0
LINE
  5
2E3
100
AcDbEntity
  8
Mst 1_1
 62
   137
  6
CONTINUOUS
370
     9
100
AcDbLine
 10
70.59394038
 20
-189.88194764
 30
0.0
 11
72.39559304
 21
-194.83194764
 31
0.0
  0
LWPOLYLINE
  5
2E4
100
AcDbEntity
  8
Mst 1_1
 62
   137
  6
CONTINUOUS
370
     9
100
AcDbPolyline
 90
        4
 70
     1
 43
0.0
 10
69.05304282
 20
-193.91266192
 10
66.91679752
 20
-189.88194764
 10
66.58220489
 20
-190.80123335
 10
68.71845018
 20
-194.83194764
  0
LINE
  5
2E5
100
AcDbEntity
  8
Mst 1_1
 62
   137
  6
CONTINUOUS
370
     9
100
AcDbLine
 10
66.91679752
 20
-189.88194764
 30
0.0
 11
68.71845018
 21
-194.83194764
 31
0.0
  0
LWPOLYLINE
  5
2E6
100
AcDbEntity
  8
Mst 1_1
 62
   137
  6
CONTINUOUS
370
     9
100
AcDbPolyline
 90
        4
 70
     1
 43
0.0
 10
65.37589996
 20
-193.91266192
 10
63.23965467
 20
-189.88194764
 10
62.90506203
 20
-190.80123335
 10
65.04130733
 20
-194.83194764
  0
LINE
  5
2E7
100
AcDbEntity
  8
Mst 1_1
 62
   137
  6
CONTINUOUS
370
     9
100
AcDbLine
 10
63.23965467
 20
-189.88194764
 30
0.0
 11
65.04130733
 21
-194.83194764
 31
0.0
  0
LWPOLYLINE
  5
2E8
100
AcDbEntity
  8
Mst 1_1
 62
   137
  6
CONTINUOUS
370
     9
100
AcDbPolyline
 90
        4
 70
     1
 43
0.0
 10
61.69875711
 20
-193.91266192
 10
59.56251181
 20
-189.88194764
 10
59.22791917
 20
-190.80123335
 10
61.36416447
 20
-194.83194764
  0
LINE
  5
2E9
100
AcDbEntity
  8
Mst 1_1
 62
   137
  6
CONTINUOUS
370
     9
100
AcDbLine
 10
59.56251181
 20
-189.88194764
 30
0.0
 11
61.36416447
 21
-194.83194764
 31
0.0
  0
LWPOLYLINE
  5
2EA
100
AcDbEntity
  8
Mst 1_1
 62
   137
  6
CONTINUOUS
370
     9
100
AcDbPolyline
 90
        4
 70
     1
 43
0.0
 10
58.02161425
 20
-193.91266192
 10
55.88536895
 20
-189.88194764
 10
55.55077632
 20
-190.80123335
 10
57.68702161
 20
-194.83194764
  0
LINE
  5
2EB
100
AcDbEntity
  8
Mst 1_1
 62
   137
  6
CONTINUOUS
370
     9
100
AcDbLine
 10
55.88536895
 20
-189.88194764
 30
0.0
 11
57.68702161
 21
-194.83194764
 31
0.0
  0
LWPOLYLINE
  5
2EC
100
AcDbEntity
  8
Mst 1_1
 62
   137
  6
CONTINUOUS
370
     9
100
AcDbPolyline
 90
        4
 70
     1
 43
0.0
 10
54.34447139
 20
-193.91266192
 10
52.2082261
 20
-189.88194764
 10
51.87363346
 20
-190.80123335
 10
54.00987876
 20
-194.83194764
  0
LINE
  5
2ED
100
AcDbEntity
  8
Mst 1_1
 62
   137
  6
CONTINUOUS
370
     9
100
AcDbLine
 10
52.2082261
 20
-189.88194764
 30
0.0
 11
54.00987876
 21
-194.83194764
 31
0.0
  0
LWPOLYLINE
  5
2EE
100
AcDbEntity
  8
Mst 1_1
 62
   137
  6
CONTINUOUS
370
     9
100
AcDbPolyline
 90
        4
 70
     1
 43
0.0
 10
50.66732854
 20
-193.91266192
 10
48.53108324
 20
-189.88194764
 10
48.1964906
 20
-190.80123335
 10
50.3327359
 20
-194.83194764
  0
LINE
  5
2EF
100
AcDbEntity
  8
Mst 1_1
 62
   137
  6
CONTINUOUS
370
     9
100
AcDbLine
 10
48.53108324
 20
-189.88194764
 30
0.0
 11
50.3327359
 21
-194.83194764
 31
0.0
  0
TEXT
  5
2F0
100
AcDbEntity
  8
Mst 1_1
 62
     7
370
    18
100
AcDbText
 10
-3.90261976
 20
-30.08694313
 30
0.0
 40
5.0
  1

  7
ARIAL
 50
0.0
 41
0.8
 51
0.0
100
AcDbText
  0
TEXT
  5
2F1
100
AcDbEntity
  8
Mst 1_1
 62
     7
370
    18
100
AcDbText
 10
41.76404693
 20
-22.35694764
 30
0.0
 40
5.0
  1
40
  7
ARIAL
 50
89.9999975
 41
0.8
 51
0.0
100
AcDbText
  0
TEXT
  5
2F2
100
AcDbEntity
  8
Mst 1_1
 62
     7
370
    18
100
AcDbText
 10
61.76404693
 20
-22.35694764
 30
0.0
 40
5.0
  1
60
  7
ARIAL
 50
89.9999975
 41
0.8
 51
0.0
100
AcDbText
  0
TEXT
  5
2F3
100
AcDbEntity
  8
Mst 1_1
 62
     7
370
    18
100
AcDbText
 10
-67.76414706
 20
-134.85694764
 30
0.0
 40
5.0
  1
PRO-UNX A2 5.0 x 70
  7
ARIAL
 50
0.0
 41
0.8
 51
0.0
100
AcDbText
  0
TEXT
  5
2F4
100
AcDbEntity
  8
Mst 1_1
 62
     7
370
    18
100
AcDbText
 10
-116.74665838
 20
-134.85694764
 30
0.0
 40
5.0
  1
T-Drive T20
  7
ARIAL
 50
0.0
 41
0.8
 51
0.0
100
AcDbText
  0
TEXT
  5
2F5
100
AcDbEntity
  8
Mst 1_1
 62
     7
370
    18
100
AcDbText
 10
71.76404693
 20
-22.35694764
 30
0.0
 40
5.0
  1
70
  7
ARIAL
 50
89.9999975
 41
0.8
 51
0.0
100
AcDbText
  0
TEXT
  5
2F6
100
AcDbEntity
  8
Mst 1_1
 62
     7
370
    18
100
AcDbText
 10
81.76404693
 20
-22.35694764
 30
0.0
 40
5.0
  1
80
  7
ARIAL
 50
89.9999975
 41
0.8
 51
0.0
100
AcDbText
  0
TEXT
  5
2F7
100
AcDbEntity
  8
Mst 1_1
 62
     7
370
    18
100
AcDbText
 10
-67.76414706
 20
-164.85694764
 30
0.0
 40
5.0
  1
PRO-UNX A2 5.0 x 80
  7
ARIAL
 50
0.0
 41
0.8
 51
0.0
100
AcDbText
  0
TEXT
  5
2F8
100
AcDbEntity
  8
Mst 1_1
 62
     7
370
    18
100
AcDbText
 10
-116.74665838
 20
-164.85694764
 30
0.0
 40
5.0
  1
T-Drive T20
  7
ARIAL
 50
0.0
 41
0.8
 51
0.0
100
AcDbText
  0
TEXT
  5
2F9
100
AcDbEntity
  8
Mst 1_1
 62
     7
370
    18
100
AcDbText
 10
-67.76414706
 20
-104.85694764
 30
0.0
 40
5.0
  1
PRO-UNX A2 5.0 x 60
  7
ARIAL
 50
0.0
 41
0.8
 51
0.0
100
AcDbText
  0
TEXT
  5
2FA
100
AcDbEntity
  8
Mst 1_1
 62
     7
370
    18
100
AcDbText
 10
-116.74665838
 20
-104.85694764
 30
0.0
 40
5.0
  1
T-Drive T20
  7
ARIAL
 50
0.0
 41
0.8
 51
0.0
100
AcDbText
  0
TEXT
  5
2FB
100
AcDbEntity
  8
Mst 1_1
 62
     7
370
    18
100
AcDbText
 10
-67.76414706
 20
-74.85694764
 30
0.0
 40
5.0
  1
PRO-UNX A2 5.0 x 50
  7
ARIAL
 50
0.0
 41
0.8
 51
0.0
100
AcDbText
  0
TEXT
  5
2FC
100
AcDbEntity
  8
Mst 1_1
 62
     7
370
    18
100
AcDbText
 10
-116.74665838
 20
-74.85694764
 30
0.0
 40
5.0
  1
T-Drive T20
  7
ARIAL
 50
0.0
 41
0.8
 51
0.0
100
AcDbText
  0
TEXT
  5
2FD
100
AcDbEntity
  8
Mst 1_1
 62
     7
370
    18
100
AcDbText
 10
-116.74665838
 20
-44.85694764
 30
0.0
 40
5.0
  1
T-Drive T20
  7
ARIAL
 50
0.0
 41
0.8
 51
0.0
100
AcDbText
  0
TEXT
  5
2FE
100
AcDbEntity
  8
Mst 1_1
 62
     7
370
    18
100
AcDbText
 10
-67.76414706
 20
-44.85694764
 30
0.0
 40
5.0
  1
PRO-UNX A2 5.0 x 40
  7
ARIAL
 50
0.0
 41
0.8
 51
0.0
100
AcDbText
  0
TEXT
  5
2FF
100
AcDbEntity
  8
Mst 1_1
 62
     7
370
    18
100
AcDbText
 10
51.76404693
 20
-22.35694764
 30
0.0
 40
5.0
  1
50
  7
ARIAL
 50
89.9999975
 41
0.8
 51
0.0
100
AcDbText
  0
TEXT
  5
300
100
AcDbEntity
  8
Mst 1_1
 62
     7
370
    18
100
AcDbText
 10
-67.76414706
 20
-194.85694764
 30
0.0
 40
5.0
  1
PRO-UNX A2 5.0 x 100
  7
ARIAL
 50
0.0
 41
0.8
 51
0.0
100
AcDbText
  0
TEXT
  5
301
100
AcDbEntity
  8
Mst 1_1
 62
     7
370
    18
100
AcDbText
 10
-116.74665838
 20
-194.85694764
 30
0.0
 40
5.0
  1
T-Drive T20
  7
ARIAL
 50
0.0
 41
0.8
 51
0.0
100
AcDbText
  0
TEXT
  5
302
100
AcDbEntity
  8
Mst 1_1
 62
     7
370
    18
100
AcDbText
 10
-67.76414706
 20
-224.85694764
 30
0.0
 40
5.0
  1
PRO-UNX A2 5.0 x 120
  7
ARIAL
 50
0.0
 41
0.8
 51
0.0
100
AcDbText
  0
TEXT
  5
303
100
AcDbEntity
  8
Mst 1_1
 62
     7
370
    18
100
AcDbText
 10
-116.74665838
 20
-224.85694764
 30
0.0
 40
5.0
  1
T-Drive T20
  7
ARIAL
 50
0.0
 41
0.8
 51
0.0
100
AcDbText
  0
TEXT
  5
304
100
AcDbEntity
  8
Mst 1_1
 62
     7
370
    18
100
AcDbText
 10
101.76404693
 20
-22.35694764
 30
0.0
 40
5.0
  1
100
  7
ARIAL
 50
89.9999975
 41
0.8
 51
0.0
100
AcDbText
  0
TEXT
  5
305
100
AcDbEntity
  8
Mst 1_1
 62
     7
370
    18
100
AcDbText
 10
121.76404693
 20
-22.35694764
 30
0.0
 40
5.0
  1
120
  7
ARIAL
 50
89.9999975
 41
0.8
 51
0.0
100
AcDbText
  0
ENDSEC
  0
SECTION
  2
OBJECTS
  0
DICTIONARY
  5
1
100
AcDbDictionary
  3
ACAD_GROUP
350
2
  3
ACAD_MLINESTYLE
350
3
  0
DICTIONARY
  5
2
102
{CDWK_REACTORS
330
1
102
}
100
AcDbDictionary
  0
DICTIONARY
  5
3
102
{CDWK_REACTORS
330
1
102
}
100
AcDbDictionary
  3
STANDARD
350
4
  0
MLINESTYLE
  5
4
102
{CDWK_REACTORS
330
3
102
}
100
AcDbMlineStyle
  2
STANDARD
 70
     0
  3

 62
     0
 51
90.0
 52
90.0
 71
     2
 49
0.5
 62
   256
  6
BYLAYER
 49
-0.5
 62
   256
  6
BYLAYER
  0
ENDSEC
  0
EOF
