  0
SECTION
  2
HEADER
  9
$ACADVER
  1
AC1014
  9
$DWGCODEPAGE
  3
ANSI_1252
  9
$INSBASE
 10
0.0
 20
0.0
 30
0.0
  9
$EXTMIN
 10
-500.65291934
 20
-489.25897042
  9
$EXTMAX
 10
205.95008688
 20
24.39708945
  9
$LIMMIN
 10
-500.65291934
 20
-489.25897042
  9
$LIMMAX
 10
205.95008688
 20
24.39708945
  9
$ORTHOMODE
 70
     0
  9
$REGENMODE
 70
     1
  9
$FILLMODE
 70
     1
  9
$QTEXTMODE
 70
     0
  9
$MIRRTEXT
 70
     1
  9
$DRAGMODE
 70
     2
  9
$LTSCALE
 40
1.0
  9
$OSMODE
 70
     0
  9
$ATTMODE
 70
     1
  9
$TEXTSIZE
 40
3.5
  9
$TRACEWID
 40
1.0
  9
$TEXTSTYLE
  7
STANDARD
  9
$CLAYER
  8
0
  9
$CELTYPE
  6
BYLAYER
  9
$CECOLOR
 62
   256
  9
$DIMSCALE
 40
1.0
  9
$DIMASZ
 40
2.0
  9
$DIMEXO
 40
5.0
  9
$DIMDLI
 40
10.0
  9
$DIMRND
 40
0.0
  9
$DIMDLE
 40
2.0
  9
$DIMEXE
 40
2.0
  9
$DIMTP
 40
0.0
  9
$DIMTM
 40
0.0
  9
$DIMTXT
 40
2.5
  9
$DIMCEN
 40
1.5
  9
$DIMTSZ
 40
0.0
  9
$DIMTOL
 70
     0
  9
$DIMLIM
 70
     0
  9
$DIMTIH
 70
     1
  9
$DIMTOH
 70
     0
  9
$DIMSE1
 70
     0
  9
$DIMSE2
 70
     0
  9
$DIMTAD
 70
     1
  9
$DIMZIN
 70
     8
  9
$DIMBLK
  1

  9
$DIMASO
 70
     1
  9
$DIMSHO
 70
     1
  9
$DIMPOST
  1

  9
$DIMAPOST
  1

  9
$DIMALT
 70
     0
  9
$DIMALTD
 70
     2
  9
$DIMALTF
 40
25.4
  9
$DIMLFAC
 40
1.0
  9
$DIMTOFL
 70
     0
  9
$DIMTVP
 40
0.0
  9
$DIMTIX
 70
     0
  9
$DIMSOXD
 70
     0
  9
$DIMSAH
 70
     0
  9
$DIMBLK1
  1

  9
$DIMBLK2
  1

  9
$DIMSTYLE
  2
*UNNAMED
  9
$DIMCLRD
 70
     9
  9
$DIMCLRE
 70
     9
  9
$DIMCLRT
 70
     7
  9
$DIMTFAC
 40
1.0
  9
$DIMGAP
 40
0.09
  9
$DIMUNIT
 70
     2
  9
$LUNITS
 70
     2
  9
$LUPREC
 70
     6
  9
$AXISMODE
 70
     0
  9
$AXISUNIT
 10
0.0
 20
0.0
  9
$SKETCHINC
 40
0.1
  9
$FILLETRAD
 40
0.0
  9
$AUNITS
 70
     0
  9
$AUPREC
 70
     0
  9
$MENU
  1
ACAD
  9
$ELEVATION
 40
0.0
  9
$PELEVATION
 40
0.0
  9
$THICKNESS
 40
0.0
  9
$LIMCHECK
 70
     0
  9
$BLIPMODE
 70
     1
  9
$CHAMFERA
 40
0.0
  9
$CHAMFERB
 40
0.0
  9
$SKPOLY
 70
     1
  9
$TDCREATE
 40
2458946.0000000000
  9
$TDUPDATE
 40
2458946.0000000000
  9
$TDINDWG
 40
0.0
  9
$TDUSRTIMER
 40
0.0
  9
$USRTIMER
 70
     1
  9
$ANGBASE
 50
0.0
  9
$ANGDIR
 70
     0
  9
$PDMODE
 70
     0
  9
$PDSIZE
 40
0.0
  9
$PLINEWID
 40
0.0
  9
$COORDS
 70
     2
  9
$SPLFRAME
 70
     0
  9
$SPLINETYPE
 70
     6
  9
$SPLINESEGS
 70
     8
  9
$ATTDIA
 70
     1
  9
$ATTREQ
 70
     1
  9
$HANDLING
 70
     1
  9
$HANDSEED
  5
     49B
  9
$SURFTAB1
 70
     6
  9
$SURFTAB2
 70
     6
  9
$SURFTYPE
 70
     6
  9
$SURFU
 70
     6
  9
$SURFV
 70
     6
  9
$UCSNAME
  2

  9
$UCSORG
 10
0.0
 20
0.0
 30
0.0
  9
$UCSXDIR
 10
1.0
 20
0.0
 30
0.0
  9
$UCSYDIR
 10
0.0
 20
1.0
 30
0.0
  9
$PUCSNAME
  2

  9
$PUCSORG
 10
0.0
 20
0.0
 30
0.0
  9
$PUCSXDIR
 10
1.0
 20
0.0
 30
0.0
  9
$PUCSYDIR
 10
0.0
 20
1.0
 30
0.0
  9
$USERI1
 70
     0
  9
$USERI2
 70
     0
  9
$USERI3
 70
     0
  9
$USERI4
 70
     0
  9
$USERI5
 70
     0
  9
$USERR1
 40
0.0
  9
$USERR2
 40
0.0
  9
$USERR3
 40
0.0
  9
$USERR4
 40
0.0
  9
$USERR5
 40
0.0
  9
$WORLDVIEW
 70
     1
  9
$SHADEDGE
 70
     3
  9
$SHADEDIF
 70
    70
  9
$TILEMODE
 70
     1
  9
$MAXACTVP
 70
    16
  9
$PINSBASE
 10
0.0
 20
0.0
 30
0.0
  9
$PLIMCHECK
 70
     0
  9
$PEXTMIN
 10
1.0000000000000E+20
 20
1.0000000000000E+20
 30
1.0000000000000E+20
  9
$PEXTMAX
 10
-1.0000000000000E+20
 20
-1.0000000000000E+20
 30
-1.0000000000000E+20
  9
$PLIMMIN
 10
0.0
 20
0.0
  9
$UNITMODE
 70
     0
  9
$VISRETAIN
 70
     0
  9
$MEASUREMENT
 70
     1
  0
ENDSEC
  0
SECTION
  2
TABLES
  0
TABLE
  2
VPORT
  5
EE
100
AcDbSymbolTable
 70
     1
  0
ENDTAB
  0
TABLE
  2
STYLE
  5
EF
100
AcDbSymbolTable
 70
     4
  0
STYLE
  5
F0
100
AcDbSymbolTableRecord
100
AcDbTextStyleTableRecord
  2
STANDARD
 70
     0
 40
0.0
 41
1.0
 50
0.0
 71
     0
 42
3.5
  3
MONOTXT
  4

  0
STYLE
  5
F1
100
AcDbSymbolTableRecord
100
AcDbTextStyleTableRecord
  2
SYMAP
 70
     0
 40
0.0
 41
1.0
 50
0.0
 71
     0
 42
3.5
  3
SYMAP
  4

  0
STYLE
  5
F2
100
AcDbSymbolTableRecord
100
AcDbTextStyleTableRecord
  2
CADWORK1
 70
     0
 40
0.0
 41
1.0
 50
0.0
 71
     0
 42
3.5
  3
MONOTXT
  4

  0
STYLE
  5
F3
100
AcDbSymbolTableRecord
100
AcDbTextStyleTableRecord
  2
MONOTXT
 70
     0
 40
0.0
 41
1.0
 50
0.0
 71
     0
 42
3.5
  3
MONOTXT
  4

  0
STYLE
  5
F4
100
AcDbSymbolTableRecord
100
AcDbTextStyleTableRecord
  2
TAHOMA
 70
     0
 40
0.0
 41
1.0
 50
0.0
 71
     0
 42
3.5
  3

  4

1001
ACAD
1000
Tahoma
1071
        0
  0
STYLE
  5
F5
100
AcDbSymbolTableRecord
100
AcDbTextStyleTableRecord
  2
ARIAL
 70
     0
 40
0.0
 41
1.0
 50
0.0
 71
     0
 42
3.5
  3

  4

1001
ACAD
1000
Arial
1071
        0
  0
ENDTAB
  0
TABLE
  2
LTYPE
  5
F6
100
AcDbSymbolTable
 70
    12
  0
LTYPE
  5
F7
100
AcDbSymbolTableRecord
100
AcDbLinetypeTableRecord
  2
BYBLOCK
 70
    64
  3

 72
    65
 73
     0
 40
0.0
  0
LTYPE
  5
F8
100
AcDbSymbolTableRecord
100
AcDbLinetypeTableRecord
  2
BYLAYER
 70
    64
  3

 72
    65
 73
     0
 40
0.0
  0
LTYPE
  5
F9
100
AcDbSymbolTableRecord
100
AcDbLinetypeTableRecord
  2
CONTINUOUS
 70
    64
  3
Solid line
 72
    65
 73
     0
 40
0.0
  0
LTYPE
  5
FA
100
AcDbSymbolTableRecord
100
AcDbLinetypeTableRecord
  2
DOT2
 70
    64
  3
...............................................
 72
    65
 73
     2
 40
1.25
 49
0.0
 74
     0
 49
-1.25
 74
     0
  0
LTYPE
  5
FB
100
AcDbSymbolTableRecord
100
AcDbLinetypeTableRecord
  2
DASHED
 70
    64
  3
__ __ __ __ __ __ __ __ __ __ __ __ __ __ __ __
 72
    65
 73
     2
 40
7.5
 49
5.0
 74
     0
 49
-2.5
 74
     0
  0
LTYPE
  5
FC
100
AcDbSymbolTableRecord
100
AcDbLinetypeTableRecord
  2
CADWORK_8
 70
    64
  3
___ ___ _ ___ ___ _ ___ ___ _ ___ ___ _ ___ ___
 72
    65
 73
     6
 40
16.0
 49
6.0
 74
     0
 49
-1.0
 74
     0
 49
6.0
 74
     0
 49
-1.0
 74
     0
 49
1.0
 74
     0
 49
-1.0
 74
     0
  0
LTYPE
  5
FD
100
AcDbSymbolTableRecord
100
AcDbLinetypeTableRecord
  2
DAL
 70
    64
  3
Solid line (for MAPS)
 72
    65
 73
     0
 40
0.0
  0
LTYPE
  5
FE
100
AcDbSymbolTableRecord
100
AcDbLinetypeTableRecord
  2
MUR
 70
    64
  3
Solid line (for MAPS)
 72
    65
 73
     0
 40
0.0
  0
LTYPE
  5
FF
100
AcDbSymbolTableRecord
100
AcDbLinetypeTableRecord
  2
SOM
 70
    64
  3
Solid line (for MAPS)
 72
    65
 73
     0
 40
0.0
  0
LTYPE
  5
100
100
AcDbSymbolTableRecord
100
AcDbLinetypeTableRecord
  2
COL
 70
    64
  3
Solid line (for MAPS)
 72
    65
 73
     0
 40
0.0
  0
LTYPE
  5
101
100
AcDbSymbolTableRecord
100
AcDbLinetypeTableRecord
  2
LGN
 70
    64
  3
Solid line (for MAPS)
 72
    65
 73
     0
 40
0.0
  0
LTYPE
  5
102
100
AcDbSymbolTableRecord
100
AcDbLinetypeTableRecord
  2
PNT
 70
    64
  3
Solid line (for MAPS)
 72
    65
 73
     0
 40
0.0
  0
ENDTAB
  0
TABLE
  2
LAYER
  5
103
100
AcDbSymbolTable
 70
     1
  0
LAYER
  5
104
100
AcDbSymbolTableRecord
100
AcDbLayerTableRecord
  2
0
 70
     0
 62
     1
  6
CONTINUOUS
370
    -3
  0
LAYER
  5
105
100
AcDbSymbolTableRecord
100
AcDbLayerTableRecord
  2
Mst 1_1
 70
     0
 62
     7
  6
CONTINUOUS
370
    -3
  0
ENDTAB
  0
TABLE
  2
VIEW
  5
106
100
AcDbSymbolTable
 70
     0
  0
ENDTAB
  0
TABLE
  2
UCS
  5
107
100
AcDbSymbolTable
 70
     0
  0
ENDTAB
  0
TABLE
  2
APPID
  5
108
100
AcDbSymbolTable
 70
     1
  0
APPID
  5
109
100
AcDbSymbolTableRecord
100
AcDbRegAppTableRecord
  2
ACAD
 70
     0
  0
ENDTAB
  0
TABLE
  2
DIMSTYLE
  5
10A
100
AcDbSymbolTable
 70
     0
  0
ENDTAB
  0
TABLE
  2
BLOCK_RECORD
  5
10B
100
AcDbSymbolTable
 70
     0
  0
BLOCK_RECORD
  5
10C
100
AcDbSymbolTableRecord
100
AcDbBlockTableRecord
  2
*MODEL_SPACE
  0
BLOCK_RECORD
  5
10D
100
AcDbSymbolTableRecord
100
AcDbBlockTableRecord
  2
*PAPER_SPACE
  0
BLOCK_RECORD
  5
10E
100
AcDbSymbolTableRecord
100
AcDbBlockTableRecord
  2
CDWK_EXTR_0
  0
BLOCK_RECORD
  5
10F
100
AcDbSymbolTableRecord
100
AcDbBlockTableRecord
  2
CDWK_EXTR_1D
  0
BLOCK_RECORD
  5
110
100
AcDbSymbolTableRecord
100
AcDbBlockTableRecord
  2
CDWK_EXTR_1G
  0
BLOCK_RECORD
  5
111
100
AcDbSymbolTableRecord
100
AcDbBlockTableRecord
  2
CDWK_EXTR_2
  0
BLOCK_RECORD
  5
112
100
AcDbSymbolTableRecord
100
AcDbBlockTableRecord
  2
CDWK_EXTR_3
  0
BLOCK_RECORD
  5
113
100
AcDbSymbolTableRecord
100
AcDbBlockTableRecord
  2
CDWK_EXTR_4
  0
BLOCK_RECORD
  5
114
100
AcDbSymbolTableRecord
100
AcDbBlockTableRecord
  2
CDWK_PTTYP0
  0
ENDTAB
  0
ENDSEC
  0
SECTION
  2
BLOCKS
  0
BLOCK
  5
115
100
AcDbEntity
  8
0
100
AcDbBlockBegin
  2
*MODEL_SPACE
 70
     0
 10
0.0
 20
0.0
 30
0.0
  3
*MODEL_SPACE
  1

  0
ENDBLK
  5
116
100
AcDbEntity
100
AcDbBlockEnd
  0
BLOCK
  5
117
100
AcDbEntity
  8
0
100
AcDbBlockBegin
  2
*PAPER_SPACE
 70
     0
 10
0.0
 20
0.0
 30
0.0
  3
*PAPER_SPACE
  1

  0
ENDBLK
  5
118
100
AcDbEntity
100
AcDbBlockEnd
  0
BLOCK
  5
119
100
AcDbEntity
  8
0
100
AcDbBlockBegin
  2
CDWK_EXTR_0
 70
     0
 10
0.0
 20
0.0
 30
0.0
  3
CDWK_EXTR_0
  1

  4
Cadwork line-extremity
  0
LINE
  5
11A
100
AcDbEntity
  8
0
 62
     0
370
    -2
100
AcDbLine
 10
0.0
 20
0.0
 30
0.0
 11
2.0
 21
0.5
 31
0.0
  0
LINE
  5
11B
100
AcDbEntity
  8
0
 62
     0
370
    -2
100
AcDbLine
 10
0.0
 20
0.0
 30
0.0
 11
2.0
 21
-0.5
 31
0.0
  0
LINE
  5
11C
100
AcDbEntity
  8
0
 62
     0
370
    -2
100
AcDbLine
 10
2.0
 20
0.5
 30
0.0
 11
2.0
 21
-0.5
 31
0.0
  0
ENDBLK
  5
11D
100
AcDbEntity
100
AcDbBlockEnd
  0
BLOCK
  5
11E
100
AcDbEntity
  8
0
100
AcDbBlockBegin
  2
CDWK_EXTR_1D
 70
     0
 10
0.0
 20
0.0
 30
0.0
  3
CDWK_EXTR_1D
  1

  4
Cadwork line-extremity
  0
LINE
  5
11F
100
AcDbEntity
  8
0
 62
     0
370
    -2
100
AcDbLine
 10
0.0
 20
0.0
 30
0.0
 11
0.0
 21
1.0
 31
0.0
  0
LINE
  5
120
100
AcDbEntity
  8
0
 62
     0
370
    -2
100
AcDbLine
 10
0.0
 20
1.0
 30
0.0
 11
0.5
 21
1.5
 31
0.0
  0
LINE
  5
121
100
AcDbEntity
  8
0
 62
     0
370
    -2
100
AcDbLine
 10
0.5
 20
1.5
 30
0.0
 11
1.5
 21
1.5
 31
0.0
  0
ENDBLK
  5
122
100
AcDbEntity
100
AcDbBlockEnd
  0
BLOCK
  5
123
100
AcDbEntity
  8
0
100
AcDbBlockBegin
  2
CDWK_EXTR_1G
 70
     0
 10
0.0
 20
0.0
 30
0.0
  3
CDWK_EXTR_1G
  1

  4
Cadwork line-extremity
  0
LINE
  5
124
100
AcDbEntity
  8
0
 62
     0
370
    -2
100
AcDbLine
 10
0.0
 20
0.0
 30
0.0
 11
0.0
 21
-1.0
 31
0.0
  0
LINE
  5
125
100
AcDbEntity
  8
0
 62
     0
370
    -2
100
AcDbLine
 10
0.0
 20
-1.0
 30
0.0
 11
0.5
 21
-1.5
 31
0.0
  0
LINE
  5
126
100
AcDbEntity
  8
0
 62
     0
370
    -2
100
AcDbLine
 10
0.5
 20
-1.5
 30
0.0
 11
1.5
 21
-1.5
 31
0.0
  0
ENDBLK
  5
127
100
AcDbEntity
100
AcDbBlockEnd
  0
BLOCK
  5
128
100
AcDbEntity
  8
0
100
AcDbBlockBegin
  2
CDWK_EXTR_2
 70
     0
 10
0.0
 20
0.0
 30
0.0
  3
CDWK_EXTR_2
  1

  4
Cadwork line-extremity
  0
SOLID
  5
129
100
AcDbEntity
  8
0
 62
     0
100
AcDbTrace
 10
0.0
 20
0.0
 11
2.0
 21
0.5
 12
2.0
 22
-0.5
 13
2.0
 23
-0.5
  0
ENDBLK
  5
12A
100
AcDbEntity
100
AcDbBlockEnd
  0
BLOCK
  5
12B
100
AcDbEntity
  8
0
100
AcDbBlockBegin
  2
CDWK_EXTR_3
 70
     0
 10
0.0
 20
0.0
 30
0.0
  3
CDWK_EXTR_3
  1

  4
Cadwork line-extremity
  0
SOLID
  5
12C
100
AcDbEntity
  8
0
 62
     0
100
AcDbTrace
 10
0.0
 20
0.0
 11
2.0
 21
0.5
 12
2.0
 22
-0.5
 13
2.0
 23
-0.5
  0
LINE
  5
12D
100
AcDbEntity
  8
0
 62
     0
370
    -2
100
AcDbLine
 10
0.0
 20
1.0
 30
0.0
 11
0.0
 21
-1.0
 31
0.0
  0
ENDBLK
  5
12E
100
AcDbEntity
100
AcDbBlockEnd
  0
BLOCK
  5
12F
100
AcDbEntity
  8
0
100
AcDbBlockBegin
  2
CDWK_EXTR_4
 70
     0
 10
0.0
 20
0.0
 30
0.0
  3
CDWK_EXTR_4
  1

  4
Cadwork line-extremity
  0
HATCH
  5
130
100
AcDbEntity
  8
0
 62
     0
370
    -2
100
AcDbHatch
 10
0.0
 20
0.0
 30
0.0
210
0.0
220
0.0
230
1.0
  2
SOLID
 70
     1
 71
     0
 91
        1
 92
        1
 93
        1
 72
     2
 10
0.0
 20
0.0
 40
0.5
 50
0.0
 51
360.0
 73
     1
 97
        0
 75
     0
 76
     1
 98
        1
 10
0.0
 20
0.0
  0
ENDBLK
  5
131
100
AcDbEntity
100
AcDbBlockEnd
  0
BLOCK
  5
132
100
AcDbEntity
  8
0
100
AcDbBlockBegin
  2
CDWK_PTTYP0
 70
     0
 10
0.0
 20
0.0
 30
0.0
  3
CDWK_PTTYP0
  1

  4
Cadwork point
  0
POINT
  5
133
100
AcDbEntity
  8
0
 62
     0
100
AcDbPoint
 10
0.0
 20
0.0
 30
0.0
  0
ENDBLK
  5
134
100
AcDbEntity
100
AcDbBlockEnd
  0
ENDSEC
  0
SECTION
  2
ENTITIES
  0
LINE
  5
135
100
AcDbEntity
  8
Mst 1_1
 62
     7
  6
DASHED
370
    -3
100
AcDbLine
 10
-218.51385116
 20
-138.17848608
 30
0.0
 11
-218.51385116
 21
-173.17848608
 31
0.0
  0
MTEXT
  5
136
100
AcDbEntity
  8
Mst 1_1
 62
     0
100
AcDbMText
 10
-481.17594485
 20
1.5974384
 30
2500.0
 11
1.0
 21
0.0
 31
0.0
 40
20.0
 41
466.3514494
 71
     1
 72
     1
  1
\fTahoma|b0|i0|c0|p18;\H20;\W0.80000001;\C7;Schiebetüranker \PPROFIX PSTA-B\P100.111.00XXX
  0
LWPOLYLINE
  5
137
102
{ACAD_REACTORS
330
138
102
}
100
AcDbEntity
  8
Mst 1_1
 62
    12
100
AcDbPolyline
 90
       46
 70
     1
 43
0.0
 10
171.05474163
 20
12.1631884
 10
170.9239203
 20
12.17382673
 10
170.79977096
 20
12.20461507
 10
170.68396563
 20
12.2538634
 10
170.5781763
 20
12.31988173
 10
170.48407496
 20
12.40098007
 10
170.40333363
 20
12.4954684
 10
170.3376243
 20
12.60165673
 10
170.28861896
 20
12.71785507
 10
170.25798963
 20
12.8423734
 10
170.2474083
 20
12.97352173
 10
170.2474083
 20
12.97352173
 10
170.25798963
 20
13.1047339
 10
170.28861896
 20
13.22933907
 10
170.3376243
 20
13.34564023
 10
170.40333363
 20
13.4519404
 10
170.48407496
 20
13.54654257
 10
170.5781763
 20
13.62774973
 10
170.68396563
 20
13.6938649
 10
170.79977096
 20
13.74319107
 10
170.9239203
 20
13.77403123
 10
171.05474163
 20
13.7846884
 10
171.05474163
 20
13.7846884
 10
171.1853963
 20
13.77403123
 10
171.30943896
 20
13.74319107
 10
171.42518763
 20
13.6938649
 10
171.5309603
 20
13.62774973
 10
171.62507496
 20
13.54654257
 10
171.70584963
 20
13.4519404
 10
171.7716023
 20
13.34564023
 10
171.82065096
 20
13.22933907
 10
171.85131363
 20
13.1047339
 10
171.8619083
 20
12.97352173
 10
171.8619083
 20
12.97352173
 10
171.85131363
 20
12.8423734
 10
171.82065096
 20
12.71785507
 10
171.7716023
 20
12.60165673
 10
171.70584963
 20
12.4954684
 10
171.62507496
 20
12.40098007
 10
171.5309603
 20
12.31988173
 10
171.42518763
 20
12.2538634
 10
171.30943896
 20
12.20461507
 10
171.1853963
 20
12.17382673
 10
171.05474163
 20
12.1631884
 10
171.05474163
 20
12.1631884
 10
171.05474163
 20
12.1631884
  0
HATCH
  5
138
100
AcDbEntity
  8
Mst 1_1
 62
    12
100
AcDbHatch
 10
0.0
 20
0.0
 30
0.0
210
0.0
220
0.0
230
1.0
  2
SOLID
 70
     1
 71
     1
 91
        1
 92
        7
 72
     0
 73
     1
 93
       40
 10
171.05474163
 20
12.1631884
 10
170.9239203
 20
12.17382673
 10
170.79977096
 20
12.20461507
 10
170.68396563
 20
12.2538634
 10
170.5781763
 20
12.31988173
 10
170.48407496
 20
12.40098007
 10
170.40333363
 20
12.4954684
 10
170.3376243
 20
12.60165673
 10
170.28861896
 20
12.71785507
 10
170.25798963
 20
12.8423734
 10
170.2474083
 20
12.97352173
 10
170.25798963
 20
13.1047339
 10
170.28861896
 20
13.22933907
 10
170.3376243
 20
13.34564023
 10
170.40333363
 20
13.4519404
 10
170.48407496
 20
13.54654257
 10
170.5781763
 20
13.62774973
 10
170.68396563
 20
13.6938649
 10
170.79977096
 20
13.74319107
 10
170.9239203
 20
13.77403123
 10
171.05474163
 20
13.7846884
 10
171.1853963
 20
13.77403123
 10
171.30943896
 20
13.74319107
 10
171.42518763
 20
13.6938649
 10
171.5309603
 20
13.62774973
 10
171.62507496
 20
13.54654257
 10
171.70584963
 20
13.4519404
 10
171.7716023
 20
13.34564023
 10
171.82065096
 20
13.22933907
 10
171.85131363
 20
13.1047339
 10
171.8619083
 20
12.97352173
 10
171.85131363
 20
12.8423734
 10
171.82065096
 20
12.71785507
 10
171.7716023
 20
12.60165673
 10
171.70584963
 20
12.4954684
 10
171.62507496
 20
12.40098007
 10
171.5309603
 20
12.31988173
 10
171.42518763
 20
12.2538634
 10
171.30943896
 20
12.20461507
 10
171.1853963
 20
12.17382673
 97
        1
330
137
 75
     0
 76
     2
 47
0.775229
 98
        1
 10
0.0
 20
0.0
  0
LWPOLYLINE
  5
139
102
{ACAD_REACTORS
330
13A
102
}
100
AcDbEntity
  8
Mst 1_1
 62
    12
100
AcDbPolyline
 90
        8
 70
     1
 43
0.0
 10
103.58974163
 20
11.5974384
 10
169.55757496
 20
11.5974384
 10
169.55757496
 20
11.5974384
 10
169.55757496
 20
-4.9838116
 10
169.55757496
 20
-4.9838116
 10
103.58974163
 20
-4.9838116
 10
103.58974163
 20
-4.9838116
 10
103.58974163
 20
11.5974384
  0
HATCH
  5
13A
100
AcDbEntity
  8
Mst 1_1
 62
    12
100
AcDbHatch
 10
0.0
 20
0.0
 30
0.0
210
0.0
220
0.0
230
1.0
  2
SOLID
 70
     1
 71
     1
 91
        1
 92
        7
 72
     0
 73
     1
 93
        4
 10
103.58974163
 20
11.5974384
 10
169.55757496
 20
11.5974384
 10
169.55757496
 20
-4.9838116
 10
103.58974163
 20
-4.9838116
 97
        1
330
139
 75
     0
 76
     2
 47
0.775229
 98
        1
 10
0.0
 20
0.0
  0
LINE
  5
13B
100
AcDbEntity
  8
Mst 1_1
100
AcDbLine
 10
103.58974163
 20
-4.9838116
 30
0.0
 11
103.58974163
 21
-4.9838116
 31
0.0
  0
LINE
  5
13C
100
AcDbEntity
  8
Mst 1_1
100
AcDbLine
 10
103.58974163
 20
-4.9838116
 30
0.0
 11
103.58974163
 21
-4.9838116
 31
0.0
  0
LINE
  5
13D
100
AcDbEntity
  8
Mst 1_1
100
AcDbLine
 10
103.58974163
 20
-4.9838116
 30
0.0
 11
103.58974163
 21
-4.9838116
 31
0.0
  0
LINE
  5
13E
100
AcDbEntity
  8
Mst 1_1
100
AcDbLine
 10
103.58974163
 20
-4.9838116
 30
0.0
 11
103.58974163
 21
-4.9838116
 31
0.0
  0
LINE
  5
13F
100
AcDbEntity
  8
Mst 1_1
100
AcDbLine
 10
103.58974163
 20
-4.9838116
 30
0.0
 11
103.58974163
 21
-4.9838116
 31
0.0
  0
LINE
  5
140
100
AcDbEntity
  8
Mst 1_1
100
AcDbLine
 10
103.58974163
 20
-4.9838116
 30
0.0
 11
103.58974163
 21
-4.9838116
 31
0.0
  0
LINE
  5
141
100
AcDbEntity
  8
Mst 1_1
100
AcDbLine
 10
103.58974163
 20
-4.9838116
 30
0.0
 11
103.58974163
 21
-4.9838116
 31
0.0
  0
LINE
  5
142
100
AcDbEntity
  8
Mst 1_1
100
AcDbLine
 10
103.58974163
 20
-4.9838116
 30
0.0
 11
103.58974163
 21
-4.9838116
 31
0.0
  0
LINE
  5
143
100
AcDbEntity
  8
Mst 1_1
100
AcDbLine
 10
103.58974163
 20
-4.9838116
 30
0.0
 11
103.58974163
 21
-4.9838116
 31
0.0
  0
LINE
  5
144
100
AcDbEntity
  8
Mst 1_1
100
AcDbLine
 10
103.58974163
 20
-4.9838116
 30
0.0
 11
103.58974163
 21
-4.9838116
 31
0.0
  0
LINE
  5
145
100
AcDbEntity
  8
Mst 1_1
100
AcDbLine
 10
103.58974163
 20
-4.9838116
 30
0.0
 11
103.58974163
 21
-4.9838116
 31
0.0
  0
LWPOLYLINE
  5
146
102
{ACAD_REACTORS
330
147
102
}
100
AcDbEntity
  8
Mst 1_1
 62
   137
370
     9
100
AcDbPolyline
 90
        8
 70
     1
 43
0.0
 10
136.39624163
 20
10.44777173
 10
168.41107496
 20
10.44777173
 10
168.41107496
 20
10.44777173
 10
168.41107496
 20
-3.83597993
 10
168.41107496
 20
-3.83597993
 10
136.39624163
 20
-3.83597993
 10
136.39624163
 20
-3.83597993
 10
136.39624163
 20
10.44777173
  0
HATCH
  5
147
100
AcDbEntity
  8
Mst 1_1
 62
     7
100
AcDbHatch
 10
0.0
 20
0.0
 30
0.0
210
0.0
220
0.0
230
1.0
  2
SOLID
 70
     1
 71
     1
 91
        1
 92
        7
 72
     0
 73
     1
 93
        4
 10
136.39624163
 20
10.44777173
 10
168.41107496
 20
10.44777173
 10
168.41107496
 20
-3.83597993
 10
136.39624163
 20
-3.83597993
 97
        1
330
146
 75
     0
 76
     2
 47
0.775229
 98
        1
 10
0.0
 20
0.0
  0
LWPOLYLINE
  5
148
102
{ACAD_REACTORS
330
149
102
}
100
AcDbEntity
  8
Mst 1_1
 62
    12
100
AcDbPolyline
 90
       22
 70
     1
 43
0.0
 10
138.31407496
 20
-1.5427116
 10
138.31407496
 20
7.54380507
 10
138.31407496
 20
7.54380507
 10
146.4934083
 20
7.54380507
 10
146.4934083
 20
7.54380507
 10
146.4934083
 20
5.07945507
 10
146.4934083
 20
5.07945507
 10
142.7174083
 20
5.07945507
 10
142.7174083
 20
5.07945507
 10
142.7174083
 20
4.0248384
 10
142.7174083
 20
4.0248384
 10
146.13507496
 20
4.0248384
 10
146.13507496
 20
4.0248384
 10
146.13507496
 20
1.6970384
 10
146.13507496
 20
1.6970384
 10
142.7174083
 20
1.6970384
 10
142.7174083
 20
1.6970384
 10
142.7174083
 20
-1.5427116
 10
142.7174083
 20
-1.5427116
 10
138.31407496
 20
-1.5427116
 10
138.31407496
 20
-1.5427116
 10
138.31407496
 20
-1.5427116
  0
HATCH
  5
149
100
AcDbEntity
  8
Mst 1_1
 62
    12
100
AcDbHatch
 10
0.0
 20
0.0
 30
0.0
210
0.0
220
0.0
230
1.0
  2
SOLID
 70
     1
 71
     1
 91
        1
 92
        7
 72
     0
 73
     1
 93
       10
 10
138.31407496
 20
-1.5427116
 10
138.31407496
 20
7.54380507
 10
146.4934083
 20
7.54380507
 10
146.4934083
 20
5.07945507
 10
142.7174083
 20
5.07945507
 10
142.7174083
 20
4.0248384
 10
146.13507496
 20
4.0248384
 10
146.13507496
 20
1.6970384
 10
142.7174083
 20
1.6970384
 10
142.7174083
 20
-1.5427116
 97
        1
330
148
 75
     0
 76
     2
 47
0.775229
 98
        1
 10
0.0
 20
0.0
  0
LWPOLYLINE
  5
14A
102
{ACAD_REACTORS
330
14B
102
}
100
AcDbEntity
  8
Mst 1_1
 62
   137
370
     9
100
AcDbPolyline
 90
      178
 70
     1
 43
0.0
 10
134.53874163
 20
2.9824384
 10
134.53516963
 20
2.78427168
 10
134.52446563
 20
2.58880467
 10
134.50664763
 20
2.39605705
 10
134.48173363
 20
2.20604853
 10
134.44974163
 20
2.01879882
 10
134.41068963
 20
1.8343276
 10
134.36459563
 20
1.65265458
 10
134.31147763
 20
1.47379947
 10
134.25135363
 20
1.29778195
 10
134.18424163
 20
1.12462173
 10
134.18424163
 20
1.12462173
 10
134.11050863
 20
0.95414787
 10
134.03011763
 20
0.7874008
 10
133.94308063
 20
0.62437233
 10
133.84940963
 20
0.46505427
 10
133.74911663
 20
0.3094384
 10
133.64221363
 20
0.15751653
 10
133.52871263
 20
0.00928047
 10
133.40862563
 20
-0.135278
 10
133.28196463
 20
-0.27616707
 10
133.14874163
 20
-0.41339493
 10
133.14874163
 20
-0.41339493
 10
133.01000296
 20
-0.54317572
 10
132.8670923
 20
-0.6667432
 10
132.72001763
 20
-0.78409008
 10
132.56878696
 20
-0.89520907
 10
132.4134083
 20
-1.00009285
 10
132.25388963
 20
-1.09873413
 10
132.09023896
 20
-1.19112562
 10
131.9224643
 20
-1.27726
 10
131.75057363
 20
-1.35712998
 10
131.57457496
 20
-1.43072827
 10
131.57457496
 20
-1.43072827
 10
131.39552696
 20
-1.4977264
 10
131.21401096
 20
-1.55778333
 10
131.03006896
 20
-1.61087287
 10
130.84374296
 20
-1.6569688
 10
130.65507496
 20
-1.69604493
 10
130.46410696
 20
-1.72807507
 10
130.27088096
 20
-1.753033
 10
130.07543896
 20
-1.77089253
 10
129.87782296
 20
-1.78162747
 10
129.67807496
 20
-1.7852116
 10
129.67807496
 20
-1.7852116
 10
129.47615463
 20
-1.78162747
 10
129.2767123
 20
-1.77089253
 10
129.07977596
 20
-1.753033
 10
128.88537363
 20
-1.72807507
 10
128.6935333
 20
-1.69604493
 10
128.50428296
 20
-1.6569688
 10
128.31765063
 20
-1.61087287
 10
128.1336643
 20
-1.55778333
 10
127.95235196
 20
-1.4977264
 10
127.77374163
 20
-1.43072827
 10
127.77374163
 20
-1.43072827
 10
127.59781513
 20
-1.35701263
 10
127.42592963
 20
-1.2767892
 10
127.25807613
 20
-1.19006317
 10
127.09424563
 20
-1.09683973
 10
126.93442913
 20
-0.9971241
 10
126.77861763
 20
-0.89092147
 10
126.62680213
 20
-0.77823703
 10
126.47897363
 20
-0.659076
 10
126.33512313
 20
-0.53344357
 10
126.19524163
 20
-0.40134493
 10
126.19524163
 20
-0.40134493
 10
126.0636828
 20
-0.26757005
 10
125.93853096
 20
-0.12982587
 10
125.81982313
 20
0.01187192
 10
125.7075963
 20
0.1575076
 10
125.60188746
 20
0.30706548
 10
125.50273363
 20
0.46052987
 10
125.4101718
 20
0.61788505
 10
125.32423896
 20
0.77911533
 10
125.24497213
 20
0.94420502
 10
125.1724083
 20
1.1131384
 10
125.1724083
 20
1.1131384
 10
125.10659046
 20
1.28626105
 10
125.04764563
 20
1.4624656
 10
124.9955868
 20
1.64174695
 10
124.95042696
 20
1.8241
 10
124.91217913
 20
2.00951965
 10
124.8808563
 20
2.1980008
 10
124.85647146
 20
2.38953835
 10
124.83903763
 20
2.5841272
 10
124.8285678
 20
2.78176225
 10
124.82507496
 20
2.9824384
 10
124.82507496
 20
2.9824384
 10
124.8285678
 20
3.18311043
 10
124.83903763
 20
3.38083267
 10
124.85647146
 20
3.5756143
 10
124.8808563
 20
3.76746453
 10
124.91217913
 20
3.95639257
 10
124.95042696
 20
4.1424076
 10
124.9955868
 20
4.32551883
 10
125.04764563
 20
4.50573547
 10
125.10659046
 20
4.6830667
 10
125.1724083
 20
4.85752173
 10
125.1724083
 20
4.85752173
 10
125.24497213
 20
5.02758818
 10
125.32423896
 20
5.19376133
 10
125.4101718
 20
5.35600188
 10
125.50273363
 20
5.51427053
 10
125.60188746
 20
5.66852798
 10
125.7075963
 20
5.81873493
 10
125.81982313
 20
5.96485208
 10
125.93853096
 20
6.10684013
 10
126.0636828
 20
6.24465978
 10
126.19524163
 20
6.37827173
 10
126.19524163
 20
6.37827173
 10
126.33404546
 20
6.50866357
 10
126.4768723
 20
6.6327864
 10
126.62374513
 20
6.75062123
 10
126.77468696
 20
6.86214907
 10
126.9297208
 20
6.9673509
 10
127.08886963
 20
7.06620773
 10
127.25215646
 20
7.15870057
 10
127.4196043
 20
7.2448104
 10
127.59123613
 20
7.32451823
 10
127.76707496
 20
7.39780507
 10
127.76707496
 20
7.39780507
 10
127.94598896
 20
7.46483665
 10
128.12762696
 20
7.52473373
 10
128.31198296
 20
7.57751482
 10
128.49905096
 20
7.6231984
 10
128.68882496
 20
7.66180298
 10
128.88129896
 20
7.69334707
 10
129.07646696
 20
7.71784915
 10
129.27432296
 20
7.73532773
 10
129.47486096
 20
7.74580132
 10
129.67807496
 20
7.7492884
 10
129.67807496
 20
7.7492884
 10
129.88144663
 20
7.74580132
 10
130.0821483
 20
7.73532773
 10
130.28015996
 20
7.71784915
 10
130.47546163
 20
7.69334707
 10
130.6680333
 20
7.66180298
 10
130.85785496
 20
7.6231984
 10
131.04490663
 20
7.57751482
 10
131.2291683
 20
7.52473373
 10
131.41061996
 20
7.46483665
 10
131.58924163
 20
7.39780507
 10
131.58924163
 20
7.39780507
 10
131.7652443
 20
7.32451823
 10
131.93716296
 20
7.2448104
 10
132.10501363
 20
7.15870057
 10
132.2688123
 20
7.06620773
 10
132.42857496
 20
6.9673509
 10
132.58431763
 20
6.86214907
 10
132.7360563
 20
6.75062123
 10
132.88380696
 20
6.6327864
 10
133.02758563
 20
6.50866357
 10
133.1674083
 20
6.37827173
 10
133.1674083
 20
6.37827173
 10
133.29775313
 20
6.24349722
 10
133.42186696
 20
6.1046696
 10
133.5397188
 20
5.96181278
 10
133.65127763
 20
5.81495067
 10
133.75651246
 20
5.66410715
 10
133.8553923
 20
5.50930613
 10
133.94788613
 20
5.35057152
 10
134.03396296
 20
5.1879272
 10
134.1135918
 20
5.02139708
 10
134.18674163
 20
4.85100507
 10
134.18674163
 20
4.85100507
 10
134.25378363
 20
4.67671315
 10
134.31371763
 20
4.49963573
 10
134.36655563
 20
4.31977032
 10
134.41230963
 20
4.1371144
 10
134.45099163
 20
3.95166548
 10
134.48261363
 20
3.76342107
 10
134.50718763
 20
3.57237865
 10
134.52472563
 20
3.37853573
 10
134.53523963
 20
3.18188982
 10
134.53874163
 20
2.9824384
 10
134.53874163
 20
2.9824384
 10
134.53874163
 20
2.9824384
  0
HATCH
  5
14B
100
AcDbEntity
  8
Mst 1_1
 62
     7
100
AcDbHatch
 10
0.0
 20
0.0
 30
0.0
210
0.0
220
0.0
230
1.0
  2
SOLID
 70
     1
 71
     1
 91
        1
 92
        7
 72
     0
 73
     1
 93
      160
 10
134.53874163
 20
2.9824384
 10
134.53516963
 20
2.78427168
 10
134.52446563
 20
2.58880467
 10
134.50664763
 20
2.39605705
 10
134.48173363
 20
2.20604853
 10
134.44974163
 20
2.01879882
 10
134.41068963
 20
1.8343276
 10
134.36459563
 20
1.65265458
 10
134.31147763
 20
1.47379947
 10
134.25135363
 20
1.29778195
 10
134.18424163
 20
1.12462173
 10
134.11050863
 20
0.95414787
 10
134.03011763
 20
0.7874008
 10
133.94308063
 20
0.62437233
 10
133.84940963
 20
0.46505427
 10
133.74911663
 20
0.3094384
 10
133.64221363
 20
0.15751653
 10
133.52871263
 20
0.00928047
 10
133.40862563
 20
-0.135278
 10
133.28196463
 20
-0.27616707
 10
133.14874163
 20
-0.41339493
 10
133.01000296
 20
-0.54317572
 10
132.8670923
 20
-0.6667432
 10
132.72001763
 20
-0.78409008
 10
132.56878696
 20
-0.89520907
 10
132.4134083
 20
-1.00009285
 10
132.25388963
 20
-1.09873413
 10
132.09023896
 20
-1.19112562
 10
131.9224643
 20
-1.27726
 10
131.75057363
 20
-1.35712998
 10
131.57457496
 20
-1.43072827
 10
131.39552696
 20
-1.4977264
 10
131.21401096
 20
-1.55778333
 10
131.03006896
 20
-1.61087287
 10
130.84374296
 20
-1.6569688
 10
130.65507496
 20
-1.69604493
 10
130.46410696
 20
-1.72807507
 10
130.27088096
 20
-1.753033
 10
130.07543896
 20
-1.77089253
 10
129.87782296
 20
-1.78162747
 10
129.67807496
 20
-1.7852116
 10
129.47615463
 20
-1.78162747
 10
129.2767123
 20
-1.77089253
 10
129.07977596
 20
-1.753033
 10
128.88537363
 20
-1.72807507
 10
128.6935333
 20
-1.69604493
 10
128.50428296
 20
-1.6569688
 10
128.31765063
 20
-1.61087287
 10
128.1336643
 20
-1.55778333
 10
127.95235196
 20
-1.4977264
 10
127.77374163
 20
-1.43072827
 10
127.59781513
 20
-1.35701263
 10
127.42592963
 20
-1.2767892
 10
127.25807613
 20
-1.19006317
 10
127.09424563
 20
-1.09683973
 10
126.93442913
 20
-0.9971241
 10
126.77861763
 20
-0.89092147
 10
126.62680213
 20
-0.77823703
 10
126.47897363
 20
-0.659076
 10
126.33512313
 20
-0.53344357
 10
126.19524163
 20
-0.40134493
 10
126.0636828
 20
-0.26757005
 10
125.93853096
 20
-0.12982587
 10
125.81982313
 20
0.01187192
 10
125.7075963
 20
0.1575076
 10
125.60188746
 20
0.30706548
 10
125.50273363
 20
0.46052987
 10
125.4101718
 20
0.61788505
 10
125.32423896
 20
0.77911533
 10
125.24497213
 20
0.94420502
 10
125.1724083
 20
1.1131384
 10
125.10659046
 20
1.28626105
 10
125.04764563
 20
1.4624656
 10
124.9955868
 20
1.64174695
 10
124.95042696
 20
1.8241
 10
124.91217913
 20
2.00951965
 10
124.8808563
 20
2.1980008
 10
124.85647146
 20
2.38953835
 10
124.83903763
 20
2.5841272
 10
124.8285678
 20
2.78176225
 10
124.82507496
 20
2.9824384
 10
124.8285678
 20
3.18311043
 10
124.83903763
 20
3.38083267
 10
124.85647146
 20
3.5756143
 10
124.8808563
 20
3.76746453
 10
124.91217913
 20
3.95639257
 10
124.95042696
 20
4.1424076
 10
124.9955868
 20
4.32551883
 10
125.04764563
 20
4.50573547
 10
125.10659046
 20
4.6830667
 10
125.1724083
 20
4.85752173
 10
125.24497213
 20
5.02758818
 10
125.32423896
 20
5.19376133
 10
125.4101718
 20
5.35600188
 10
125.50273363
 20
5.51427053
 10
125.60188746
 20
5.66852798
 10
125.7075963
 20
5.81873493
 10
125.81982313
 20
5.96485208
 10
125.93853096
 20
6.10684013
 10
126.0636828
 20
6.24465978
 10
126.19524163
 20
6.37827173
 10
126.33404546
 20
6.50866357
 10
126.4768723
 20
6.6327864
 10
126.62374513
 20
6.75062123
 10
126.77468696
 20
6.86214907
 10
126.9297208
 20
6.9673509
 10
127.08886963
 20
7.06620773
 10
127.25215646
 20
7.15870057
 10
127.4196043
 20
7.2448104
 10
127.59123613
 20
7.32451823
 10
127.76707496
 20
7.39780507
 10
127.94598896
 20
7.46483665
 10
128.12762696
 20
7.52473373
 10
128.31198296
 20
7.57751482
 10
128.49905096
 20
7.6231984
 10
128.68882496
 20
7.66180298
 10
128.88129896
 20
7.69334707
 10
129.07646696
 20
7.71784915
 10
129.27432296
 20
7.73532773
 10
129.47486096
 20
7.74580132
 10
129.67807496
 20
7.7492884
 10
129.88144663
 20
7.74580132
 10
130.0821483
 20
7.73532773
 10
130.28015996
 20
7.71784915
 10
130.47546163
 20
7.69334707
 10
130.6680333
 20
7.66180298
 10
130.85785496
 20
7.6231984
 10
131.04490663
 20
7.57751482
 10
131.2291683
 20
7.52473373
 10
131.41061996
 20
7.46483665
 10
131.58924163
 20
7.39780507
 10
131.7652443
 20
7.32451823
 10
131.93716296
 20
7.2448104
 10
132.10501363
 20
7.15870057
 10
132.2688123
 20
7.06620773
 10
132.42857496
 20
6.9673509
 10
132.58431763
 20
6.86214907
 10
132.7360563
 20
6.75062123
 10
132.88380696
 20
6.6327864
 10
133.02758563
 20
6.50866357
 10
133.1674083
 20
6.37827173
 10
133.29775313
 20
6.24349722
 10
133.42186696
 20
6.1046696
 10
133.5397188
 20
5.96181278
 10
133.65127763
 20
5.81495067
 10
133.75651246
 20
5.66410715
 10
133.8553923
 20
5.50930613
 10
133.94788613
 20
5.35057152
 10
134.03396296
 20
5.1879272
 10
134.1135918
 20
5.02139708
 10
134.18674163
 20
4.85100507
 10
134.25378363
 20
4.67671315
 10
134.31371763
 20
4.49963573
 10
134.36655563
 20
4.31977032
 10
134.41230963
 20
4.1371144
 10
134.45099163
 20
3.95166548
 10
134.48261363
 20
3.76342107
 10
134.50718763
 20
3.57237865
 10
134.52472563
 20
3.37853573
 10
134.53523963
 20
3.18188982
 97
        1
330
14A
 75
     0
 76
     2
 47
0.775229
 98
        1
 10
0.0
 20
0.0
  0
LWPOLYLINE
  5
14C
102
{ACAD_REACTORS
330
14D
102
}
100
AcDbEntity
  8
Mst 1_1
 62
    12
100
AcDbPolyline
 90
       90
 70
     1
 43
0.0
 10
129.67807496
 20
1.26825507
 10
129.81329213
 20
1.27299038
 10
129.9430523
 20
1.2871736
 10
130.06736846
 20
1.31077062
 10
130.18625363
 20
1.34374733
 10
130.2997208
 20
1.38606965
 10
130.40778296
 20
1.43770347
 10
130.51045313
 20
1.49861468
 10
130.6077443
 20
1.5687692
 10
130.69966946
 20
1.64813292
 10
130.78624163
 20
1.73667173
 10
130.78624163
 20
1.73667173
 10
130.86593413
 20
1.83379675
 10
130.93730163
 20
1.93691787
 10
131.00032913
 20
2.04607418
 10
131.05500163
 20
2.1613048
 10
131.10130413
 20
2.28264882
 10
131.13922163
 20
2.41014533
 10
131.16873913
 20
2.54383345
 10
131.18984163
 20
2.68375227
 10
131.20251413
 20
2.82994088
 10
131.20674163
 20
2.9824384
 10
131.20674163
 20
2.9824384
 10
131.20251413
 20
3.13568393
 10
131.18984163
 20
3.28269267
 10
131.16873913
 20
3.4234978
 10
131.13922163
 20
3.55813253
 10
131.10130413
 20
3.68663007
 10
131.05500163
 20
3.8090236
 10
131.00032913
 20
3.92534633
 10
130.93730163
 20
4.03563147
 10
130.86593413
 20
4.1399122
 10
130.78624163
 20
4.23822173
 10
130.78624163
 20
4.23822173
 10
130.69966946
 20
4.32824712
 10
130.6077443
 20
4.4088628
 10
130.51045313
 20
4.48005308
 10
130.40778296
 20
4.54180227
 10
130.2997208
 20
4.59409465
 10
130.18625363
 20
4.63691453
 10
130.06736846
 20
4.67024622
 10
129.9430523
 20
4.694074
 10
129.81329213
 20
4.70838218
 10
129.67807496
 20
4.71315507
 10
129.67807496
 20
4.71315507
 10
129.54292196
 20
4.70837812
 10
129.41307096
 20
4.69404147
 10
129.28853396
 20
4.67013642
 10
129.16932296
 20
4.63665427
 10
129.05544996
 20
4.59358632
 10
128.94692696
 20
4.54092387
 10
128.84376596
 20
4.47865822
 10
128.74597896
 20
4.40678067
 10
128.65357796
 20
4.32528252
 10
128.56657496
 20
4.23415507
 10
128.56657496
 20
4.23415507
 10
128.4862283
 20
4.1357911
 10
128.41438163
 20
4.03146933
 10
128.35102496
 20
3.92118997
 10
128.2961483
 20
3.8049532
 10
128.24974163
 20
3.68275923
 10
128.21179496
 20
3.55460827
 10
128.1822983
 20
3.4205005
 10
128.16124163
 20
3.28043613
 10
128.14861496
 20
3.13441537
 10
128.1444083
 20
2.9824384
 10
128.1444083
 20
2.9824384
 10
128.14861496
 20
2.82994088
 10
128.16124163
 20
2.68375227
 10
128.1822983
 20
2.54383345
 10
128.21179496
 20
2.41014533
 10
128.24974163
 20
2.28264882
 10
128.2961483
 20
2.1613048
 10
128.35102496
 20
2.04607418
 10
128.41438163
 20
1.93691787
 10
128.4862283
 20
1.83379675
 10
128.56657496
 20
1.73667173
 10
128.56657496
 20
1.73667173
 10
128.65357796
 20
1.64813292
 10
128.74597896
 20
1.5687692
 10
128.84376596
 20
1.49861468
 10
128.94692696
 20
1.43770347
 10
129.05544996
 20
1.38606965
 10
129.16932296
 20
1.34374733
 10
129.28853396
 20
1.31077062
 10
129.41307096
 20
1.2871736
 10
129.54292196
 20
1.27299038
 10
129.67807496
 20
1.26825507
 10
129.67807496
 20
1.26825507
 10
129.67807496
 20
1.26825507
  0
HATCH
  5
14D
100
AcDbEntity
  8
Mst 1_1
 62
    12
100
AcDbHatch
 10
0.0
 20
0.0
 30
0.0
210
0.0
220
0.0
230
1.0
  2
SOLID
 70
     1
 71
     1
 91
        1
 92
        7
 72
     0
 73
     1
 93
       80
 10
129.67807496
 20
1.26825507
 10
129.81329213
 20
1.27299038
 10
129.9430523
 20
1.2871736
 10
130.06736846
 20
1.31077062
 10
130.18625363
 20
1.34374733
 10
130.2997208
 20
1.38606965
 10
130.40778296
 20
1.43770347
 10
130.51045313
 20
1.49861468
 10
130.6077443
 20
1.5687692
 10
130.69966946
 20
1.64813292
 10
130.78624163
 20
1.73667173
 10
130.86593413
 20
1.83379675
 10
130.93730163
 20
1.93691787
 10
131.00032913
 20
2.04607418
 10
131.05500163
 20
2.1613048
 10
131.10130413
 20
2.28264882
 10
131.13922163
 20
2.41014533
 10
131.16873913
 20
2.54383345
 10
131.18984163
 20
2.68375227
 10
131.20251413
 20
2.82994088
 10
131.20674163
 20
2.9824384
 10
131.20251413
 20
3.13568393
 10
131.18984163
 20
3.28269267
 10
131.16873913
 20
3.4234978
 10
131.13922163
 20
3.55813253
 10
131.10130413
 20
3.68663007
 10
131.05500163
 20
3.8090236
 10
131.00032913
 20
3.92534633
 10
130.93730163
 20
4.03563147
 10
130.86593413
 20
4.1399122
 10
130.78624163
 20
4.23822173
 10
130.69966946
 20
4.32824712
 10
130.6077443
 20
4.4088628
 10
130.51045313
 20
4.48005308
 10
130.40778296
 20
4.54180227
 10
130.2997208
 20
4.59409465
 10
130.18625363
 20
4.63691453
 10
130.06736846
 20
4.67024622
 10
129.9430523
 20
4.694074
 10
129.81329213
 20
4.70838218
 10
129.67807496
 20
4.71315507
 10
129.54292196
 20
4.70837812
 10
129.41307096
 20
4.69404147
 10
129.28853396
 20
4.67013642
 10
129.16932296
 20
4.63665427
 10
129.05544996
 20
4.59358632
 10
128.94692696
 20
4.54092387
 10
128.84376596
 20
4.47865822
 10
128.74597896
 20
4.40678067
 10
128.65357796
 20
4.32528252
 10
128.56657496
 20
4.23415507
 10
128.4862283
 20
4.1357911
 10
128.41438163
 20
4.03146933
 10
128.35102496
 20
3.92118997
 10
128.2961483
 20
3.8049532
 10
128.24974163
 20
3.68275923
 10
128.21179496
 20
3.55460827
 10
128.1822983
 20
3.4205005
 10
128.16124163
 20
3.28043613
 10
128.14861496
 20
3.13441537
 10
128.1444083
 20
2.9824384
 10
128.14861496
 20
2.82994088
 10
128.16124163
 20
2.68375227
 10
128.1822983
 20
2.54383345
 10
128.21179496
 20
2.41014533
 10
128.24974163
 20
2.28264882
 10
128.2961483
 20
2.1613048
 10
128.35102496
 20
2.04607418
 10
128.41438163
 20
1.93691787
 10
128.4862283
 20
1.83379675
 10
128.56657496
 20
1.73667173
 10
128.65357796
 20
1.64813292
 10
128.74597896
 20
1.5687692
 10
128.84376596
 20
1.49861468
 10
128.94692696
 20
1.43770347
 10
129.05544996
 20
1.38606965
 10
129.16932296
 20
1.34374733
 10
129.28853396
 20
1.31077062
 10
129.41307096
 20
1.2871736
 10
129.54292196
 20
1.27299038
 97
        1
330
14C
 75
     0
 76
     2
 47
0.775229
 98
        1
 10
0.0
 20
0.0
  0
LWPOLYLINE
  5
14E
102
{ACAD_REACTORS
330
14F
102
}
100
AcDbEntity
  8
Mst 1_1
 62
   137
370
     9
100
AcDbPolyline
 90
       60
 70
     1
 43
0.0
 10
116.03904163
 20
-1.5427116
 10
116.03904163
 20
7.54380507
 10
116.03904163
 20
7.54380507
 10
120.1493083
 20
7.54380507
 10
120.1493083
 20
7.54380507
 10
120.49804406
 20
7.53590443
 10
120.82998643
 20
7.512212
 10
121.145128
 20
7.47274197
 10
121.44346136
 20
7.41750853
 10
121.72497913
 20
7.3465259
 10
121.9896739
 20
7.25980827
 10
122.23753826
 20
7.15736983
 10
122.46856483
 20
7.0392248
 10
122.6827462
 20
6.90538737
 10
122.88007496
 20
6.75587173
 10
122.88007496
 20
6.75587173
 10
123.0592808
 20
6.59128268
 10
123.21960163
 20
6.41271733
 10
123.36104246
 20
6.22020838
 10
123.4836083
 20
6.01378853
 10
123.58730413
 20
5.79349048
 10
123.67213496
 20
5.55934693
 10
123.7381058
 20
5.31139058
 10
123.78522163
 20
5.04965413
 10
123.81348746
 20
4.77417028
 10
123.8229083
 20
4.48497173
 10
123.8229083
 20
4.48497173
 10
123.81812663
 20
4.29448717
 10
123.80379496
 20
4.1108412
 10
123.7799333
 20
3.93404543
 10
123.74656163
 20
3.76411147
 10
123.70369996
 20
3.6010509
 10
123.6513683
 20
3.44487533
 10
123.58958663
 20
3.29559637
 10
123.51837496
 20
3.1532256
 10
123.4377533
 20
3.01777463
 10
123.34774163
 20
2.88925507
 10
123.34774163
 20
2.88925507
 10
123.24930063
 20
2.76866282
 10
123.14435363
 20
2.65862707
 10
123.03286463
 20
2.55913432
 10
122.91479763
 20
2.47017107
 10
122.79011663
 20
2.39172382
 10
122.65878563
 20
2.32377907
 10
122.52076863
 20
2.26632332
 10
122.37602963
 20
2.21934307
 10
122.22453263
 20
2.18282482
 10
122.06624163
 20
2.15675507
 10
122.06624163
 20
2.15675507
 10
124.49257496
 20
-1.5427116
 10
124.49257496
 20
-1.5427116
 10
120.83207496
 20
-1.5427116
 10
120.83207496
 20
-1.5427116
 10
119.24209163
 20
1.45460507
 10
119.24209163
 20
1.45460507
 10
119.24209163
 20
-1.5427116
 10
119.24209163
 20
-1.5427116
 10
116.03904163
 20
-1.5427116
 10
116.03904163
 20
-1.5427116
 10
116.03904163
 20
-1.5427116
  0
HATCH
  5
14F
100
AcDbEntity
  8
Mst 1_1
 62
     7
100
AcDbHatch
 10
0.0
 20
0.0
 30
0.0
210
0.0
220
0.0
230
1.0
  2
SOLID
 70
     1
 71
     1
 91
        1
 92
        7
 72
     0
 73
     1
 93
       47
 10
116.03904163
 20
-1.5427116
 10
116.03904163
 20
7.54380507
 10
120.1493083
 20
7.54380507
 10
120.49804406
 20
7.53590443
 10
120.82998643
 20
7.512212
 10
121.145128
 20
7.47274197
 10
121.44346136
 20
7.41750853
 10
121.72497913
 20
7.3465259
 10
121.9896739
 20
7.25980827
 10
122.23753826
 20
7.15736983
 10
122.46856483
 20
7.0392248
 10
122.6827462
 20
6.90538737
 10
122.88007496
 20
6.75587173
 10
123.0592808
 20
6.59128268
 10
123.21960163
 20
6.41271733
 10
123.36104246
 20
6.22020838
 10
123.4836083
 20
6.01378853
 10
123.58730413
 20
5.79349048
 10
123.67213496
 20
5.55934693
 10
123.7381058
 20
5.31139058
 10
123.78522163
 20
5.04965413
 10
123.81348746
 20
4.77417028
 10
123.8229083
 20
4.48497173
 10
123.81812663
 20
4.29448717
 10
123.80379496
 20
4.1108412
 10
123.7799333
 20
3.93404543
 10
123.74656163
 20
3.76411147
 10
123.70369996
 20
3.6010509
 10
123.6513683
 20
3.44487533
 10
123.58958663
 20
3.29559637
 10
123.51837496
 20
3.1532256
 10
123.4377533
 20
3.01777463
 10
123.34774163
 20
2.88925507
 10
123.24930063
 20
2.76866282
 10
123.14435363
 20
2.65862707
 10
123.03286463
 20
2.55913432
 10
122.91479763
 20
2.47017107
 10
122.79011663
 20
2.39172382
 10
122.65878563
 20
2.32377907
 10
122.52076863
 20
2.26632332
 10
122.37602963
 20
2.21934307
 10
122.22453263
 20
2.18282482
 10
122.06624163
 20
2.15675507
 10
124.49257496
 20
-1.5427116
 10
120.83207496
 20
-1.5427116
 10
119.24209163
 20
1.45460507
 10
119.24209163
 20
-1.5427116
 97
        1
330
14E
 75
     0
 76
     2
 47
0.775229
 98
        1
 10
0.0
 20
0.0
  0
LWPOLYLINE
  5
150
102
{ACAD_REACTORS
330
151
102
}
100
AcDbEntity
  8
Mst 1_1
 62
    12
100
AcDbPolyline
 90
       52
 70
     1
 43
0.0
 10
119.24209163
 20
5.20517173
 10
119.24209163
 20
3.43012173
 10
119.24209163
 20
3.43012173
 10
119.7512083
 20
3.43012173
 10
119.7512083
 20
3.43012173
 10
119.84225475
 20
3.43239313
 10
119.9289339
 20
3.43920293
 10
120.01126045
 20
3.45054453
 10
120.0892491
 20
3.46641133
 10
120.16291455
 20
3.48679673
 10
120.2322715
 20
3.51169413
 10
120.29733465
 20
3.54109693
 10
120.3581187
 20
3.57499853
 10
120.41463835
 20
3.61339233
 10
120.4669083
 20
3.65627173
 10
120.4669083
 20
3.65627173
 10
120.51475246
 20
3.70335522
 10
120.55758163
 20
3.7543776
 10
120.5953908
 20
3.80934178
 10
120.62817496
 20
3.86825067
 10
120.65592913
 20
3.93110715
 10
120.6786483
 20
3.99791413
 10
120.69632746
 20
4.06867452
 10
120.70896163
 20
4.1433912
 10
120.7165458
 20
4.22206708
 10
120.71907496
 20
4.30470507
 10
120.71907496
 20
4.30470507
 10
120.7165458
 20
4.38954387
 10
120.70896163
 20
4.47037347
 10
120.69632746
 20
4.54718367
 10
120.6786483
 20
4.61996427
 10
120.65592913
 20
4.68870507
 10
120.62817496
 20
4.75339587
 10
120.5953908
 20
4.81402647
 10
120.55758163
 20
4.87058667
 10
120.51475246
 20
4.92306627
 10
120.4669083
 20
4.97145507
 10
120.4669083
 20
4.97145507
 10
120.41463835
 20
5.01559123
 10
120.3581187
 20
5.0551664
 10
120.29733465
 20
5.09016057
 10
120.2322715
 20
5.12055373
 10
120.16291455
 20
5.1463259
 10
120.0892491
 20
5.16745707
 10
120.01126045
 20
5.18392723
 10
119.9289339
 20
5.1957164
 10
119.84225475
 20
5.20280457
 10
119.7512083
 20
5.20517173
 10
119.7512083
 20
5.20517173
 10
119.24209163
 20
5.20517173
 10
119.24209163
 20
5.20517173
 10
119.24209163
 20
5.20517173
  0
HATCH
  5
151
100
AcDbEntity
  8
Mst 1_1
 62
    12
100
AcDbHatch
 10
0.0
 20
0.0
 30
0.0
210
0.0
220
0.0
230
1.0
  2
SOLID
 70
     1
 71
     1
 91
        1
 92
        7
 72
     0
 73
     1
 93
       43
 10
119.24209163
 20
5.20517173
 10
119.24209163
 20
3.43012173
 10
119.7512083
 20
3.43012173
 10
119.84225475
 20
3.43239313
 10
119.9289339
 20
3.43920293
 10
120.01126045
 20
3.45054453
 10
120.0892491
 20
3.46641133
 10
120.16291455
 20
3.48679673
 10
120.2322715
 20
3.51169413
 10
120.29733465
 20
3.54109693
 10
120.3581187
 20
3.57499853
 10
120.41463835
 20
3.61339233
 10
120.4669083
 20
3.65627173
 10
120.51475246
 20
3.70335522
 10
120.55758163
 20
3.7543776
 10
120.5953908
 20
3.80934178
 10
120.62817496
 20
3.86825067
 10
120.65592913
 20
3.93110715
 10
120.6786483
 20
3.99791413
 10
120.69632746
 20
4.06867452
 10
120.70896163
 20
4.1433912
 10
120.7165458
 20
4.22206708
 10
120.71907496
 20
4.30470507
 10
120.7165458
 20
4.38954387
 10
120.70896163
 20
4.47037347
 10
120.69632746
 20
4.54718367
 10
120.6786483
 20
4.61996427
 10
120.65592913
 20
4.68870507
 10
120.62817496
 20
4.75339587
 10
120.5953908
 20
4.81402647
 10
120.55758163
 20
4.87058667
 10
120.51475246
 20
4.92306627
 10
120.4669083
 20
4.97145507
 10
120.41463835
 20
5.01559123
 10
120.3581187
 20
5.0551664
 10
120.29733465
 20
5.09016057
 10
120.2322715
 20
5.12055373
 10
120.16291455
 20
5.1463259
 10
120.0892491
 20
5.16745707
 10
120.01126045
 20
5.18392723
 10
119.9289339
 20
5.1957164
 10
119.84225475
 20
5.20280457
 10
119.7512083
 20
5.20517173
 97
        1
330
150
 75
     0
 76
     2
 47
0.775229
 98
        1
 10
0.0
 20
0.0
  0
LWPOLYLINE
  5
152
102
{ACAD_REACTORS
330
153
102
}
100
AcDbEntity
  8
Mst 1_1
 62
   137
370
     9
100
AcDbPolyline
 90
       56
 70
     1
 43
0.0
 10
107.03944163
 20
-1.5427116
 10
107.03944163
 20
7.54380507
 10
107.03944163
 20
7.54380507
 10
110.9441583
 20
7.54380507
 10
110.9441583
 20
7.54380507
 10
111.34493445
 20
7.5358564
 10
111.7235855
 20
7.51201373
 10
112.08011535
 20
7.47228207
 10
112.4145279
 20
7.4166664
 10
112.72682705
 20
7.34517173
 10
113.0170167
 20
7.25780307
 10
113.28510075
 20
7.1545654
 10
113.5310831
 20
7.03546373
 10
113.75496765
 20
6.90050307
 10
113.9567583
 20
6.7496884
 10
113.9567583
 20
6.7496884
 10
114.1378135
 20
6.58132707
 10
114.2998179
 20
6.39443973
 10
114.4427697
 20
6.1890064
 10
114.5666671
 20
5.96500707
 10
114.6715083
 20
5.72242173
 10
114.7572915
 20
5.4612304
 10
114.8240149
 20
5.18141307
 10
114.8716767
 20
4.88294973
 10
114.9002751
 20
4.5658204
 10
114.9098083
 20
4.23000507
 10
114.9098083
 20
4.23000507
 10
114.9012384
 20
3.91701305
 10
114.8755351
 20
3.62135093
 10
114.832708
 20
3.34302462
 10
114.7727667
 20
3.08204
 10
114.6957208
 20
2.83840298
 10
114.6015799
 20
2.61211947
 10
114.4903536
 20
2.40319535
 10
114.3620515
 20
2.21163653
 10
114.2166832
 20
2.03744892
 10
114.0542583
 20
1.8806384
 10
114.0542583
 20
1.8806384
 10
113.87250563
 20
1.74008095
 10
113.67070296
 20
1.6142668
 10
113.4488433
 20
1.50320825
 10
113.20691963
 20
1.4069176
 10
112.94492496
 20
1.32540715
 10
112.6628523
 20
1.2586892
 10
112.36069463
 20
1.20677605
 10
112.03844496
 20
1.16968
 10
111.6960963
 20
1.14741335
 10
111.33364163
 20
1.1399884
 10
111.33364163
 20
1.1399884
 10
110.31069163
 20
1.1399884
 10
110.31069163
 20
1.1399884
 10
110.31069163
 20
-1.5427116
 10
110.31069163
 20
-1.5427116
 10
107.03944163
 20
-1.5427116
 10
107.03944163
 20
-1.5427116
 10
107.03944163
 20
-1.5427116
  0
HATCH
  5
153
100
AcDbEntity
  8
Mst 1_1
 62
     7
100
AcDbHatch
 10
0.0
 20
0.0
 30
0.0
210
0.0
220
0.0
230
1.0
  2
SOLID
 70
     1
 71
     1
 91
        1
 92
        7
 72
     0
 73
     1
 93
       45
 10
107.03944163
 20
-1.5427116
 10
107.03944163
 20
7.54380507
 10
110.9441583
 20
7.54380507
 10
111.34493445
 20
7.5358564
 10
111.7235855
 20
7.51201373
 10
112.08011535
 20
7.47228207
 10
112.4145279
 20
7.4166664
 10
112.72682705
 20
7.34517173
 10
113.0170167
 20
7.25780307
 10
113.28510075
 20
7.1545654
 10
113.5310831
 20
7.03546373
 10
113.75496765
 20
6.90050307
 10
113.9567583
 20
6.7496884
 10
114.1378135
 20
6.58132707
 10
114.2998179
 20
6.39443973
 10
114.4427697
 20
6.1890064
 10
114.5666671
 20
5.96500707
 10
114.6715083
 20
5.72242173
 10
114.7572915
 20
5.4612304
 10
114.8240149
 20
5.18141307
 10
114.8716767
 20
4.88294973
 10
114.9002751
 20
4.5658204
 10
114.9098083
 20
4.23000507
 10
114.9012384
 20
3.91701305
 10
114.8755351
 20
3.62135093
 10
114.832708
 20
3.34302462
 10
114.7727667
 20
3.08204
 10
114.6957208
 20
2.83840298
 10
114.6015799
 20
2.61211947
 10
114.4903536
 20
2.40319535
 10
114.3620515
 20
2.21163653
 10
114.2166832
 20
2.03744892
 10
114.0542583
 20
1.8806384
 10
113.87250563
 20
1.74008095
 10
113.67070296
 20
1.6142668
 10
113.4488433
 20
1.50320825
 10
113.20691963
 20
1.4069176
 10
112.94492496
 20
1.32540715
 10
112.6628523
 20
1.2586892
 10
112.36069463
 20
1.20677605
 10
112.03844496
 20
1.16968
 10
111.6960963
 20
1.14741335
 10
111.33364163
 20
1.1399884
 10
110.31069163
 20
1.1399884
 10
110.31069163
 20
-1.5427116
 97
        1
330
152
 75
     0
 76
     2
 47
0.775229
 98
        1
 10
0.0
 20
0.0
  0
LWPOLYLINE
  5
154
102
{ACAD_REACTORS
330
155
102
}
100
AcDbEntity
  8
Mst 1_1
 62
    12
100
AcDbPolyline
 90
       52
 70
     1
 43
0.0
 10
110.3234583
 20
5.01825507
 10
110.3234583
 20
3.5036884
 10
110.3234583
 20
3.5036884
 10
110.8311083
 20
3.5036884
 10
110.8311083
 20
3.5036884
 10
110.92194641
 20
3.5056567
 10
111.00855123
 20
3.5115548
 10
111.09089345
 20
3.5213725
 10
111.16894376
 20
3.5350996
 10
111.24267288
 20
3.5527259
 10
111.3120515
 20
3.5742412
 10
111.37705031
 20
3.5996353
 10
111.43764003
 20
3.628898
 10
111.49379135
 20
3.6620191
 10
111.54547496
 20
3.6989884
 10
111.54547496
 20
3.6989884
 10
111.59254371
 20
3.73980577
 10
111.63467696
 20
3.78389333
 10
111.67187021
 20
3.8312593
 10
111.70411896
 20
3.88191187
 10
111.73141871
 20
3.93585923
 10
111.75376496
 20
3.9931096
 10
111.77115321
 20
4.05367117
 10
111.78357896
 20
4.11755213
 10
111.79103771
 20
4.1847607
 10
111.79352496
 20
4.25530507
 10
111.79352496
 20
4.25530507
 10
111.7909912
 20
4.32556275
 10
111.78338283
 20
4.39267853
 10
111.77068926
 20
4.45665652
 10
111.7528999
 20
4.5175008
 10
111.73000413
 20
4.57521548
 10
111.70199136
 20
4.62980467
 10
111.668851
 20
4.68127245
 10
111.63057243
 20
4.72962293
 10
111.58714506
 20
4.77486022
 10
111.5385583
 20
4.8169884
 10
111.5385583
 20
4.8169884
 10
111.4858124
 20
4.85501982
 10
111.4290891
 20
4.88911373
 10
111.36838
 20
4.91925465
 10
111.3036767
 20
4.94542707
 10
111.2349708
 20
4.96761548
 10
111.1622539
 20
4.9858044
 10
111.0855176
 20
4.99997832
 10
111.0047535
 20
5.01012173
 10
110.9199532
 20
5.01621915
 10
110.8311083
 20
5.01825507
 10
110.8311083
 20
5.01825507
 10
110.3234583
 20
5.01825507
 10
110.3234583
 20
5.01825507
 10
110.3234583
 20
5.01825507
  0
HATCH
  5
155
100
AcDbEntity
  8
Mst 1_1
 62
    12
100
AcDbHatch
 10
0.0
 20
0.0
 30
0.0
210
0.0
220
0.0
230
1.0
  2
SOLID
 70
     1
 71
     1
 91
        1
 92
        7
 72
     0
 73
     1
 93
       43
 10
110.3234583
 20
5.01825507
 10
110.3234583
 20
3.5036884
 10
110.8311083
 20
3.5036884
 10
110.92194641
 20
3.5056567
 10
111.00855123
 20
3.5115548
 10
111.09089345
 20
3.5213725
 10
111.16894376
 20
3.5350996
 10
111.24267288
 20
3.5527259
 10
111.3120515
 20
3.5742412
 10
111.37705031
 20
3.5996353
 10
111.43764003
 20
3.628898
 10
111.49379135
 20
3.6620191
 10
111.54547496
 20
3.6989884
 10
111.59254371
 20
3.73980577
 10
111.63467696
 20
3.78389333
 10
111.67187021
 20
3.8312593
 10
111.70411896
 20
3.88191187
 10
111.73141871
 20
3.93585923
 10
111.75376496
 20
3.9931096
 10
111.77115321
 20
4.05367117
 10
111.78357896
 20
4.11755213
 10
111.79103771
 20
4.1847607
 10
111.79352496
 20
4.25530507
 10
111.7909912
 20
4.32556275
 10
111.78338283
 20
4.39267853
 10
111.77068926
 20
4.45665652
 10
111.7528999
 20
4.5175008
 10
111.73000413
 20
4.57521548
 10
111.70199136
 20
4.62980467
 10
111.668851
 20
4.68127245
 10
111.63057243
 20
4.72962293
 10
111.58714506
 20
4.77486022
 10
111.5385583
 20
4.8169884
 10
111.4858124
 20
4.85501982
 10
111.4290891
 20
4.88911373
 10
111.36838
 20
4.91925465
 10
111.3036767
 20
4.94542707
 10
111.2349708
 20
4.96761548
 10
111.1622539
 20
4.9858044
 10
111.0855176
 20
4.99997832
 10
111.0047535
 20
5.01012173
 10
110.9199532
 20
5.01621915
 10
110.8311083
 20
5.01825507
 97
        1
330
154
 75
     0
 76
     2
 47
0.775229
 98
        1
 10
0.0
 20
0.0
  0
LWPOLYLINE
  5
156
102
{ACAD_REACTORS
330
157
102
}
100
AcDbEntity
  8
Mst 1_1
 62
    12
100
AcDbPolyline
 90
       10
 70
     1
 43
0.0
 10
148.0859083
 20
-1.5427116
 10
148.0859083
 20
7.54380507
 10
148.0859083
 20
7.54380507
 10
152.55374163
 20
7.54380507
 10
152.55374163
 20
7.54380507
 10
152.55374163
 20
-1.5427116
 10
152.55374163
 20
-1.5427116
 10
148.0859083
 20
-1.5427116
 10
148.0859083
 20
-1.5427116
 10
148.0859083
 20
-1.5427116
  0
HATCH
  5
157
100
AcDbEntity
  8
Mst 1_1
 62
    12
100
AcDbHatch
 10
0.0
 20
0.0
 30
0.0
210
0.0
220
0.0
230
1.0
  2
SOLID
 70
     1
 71
     1
 91
        1
 92
        7
 72
     0
 73
     1
 93
        4
 10
148.0859083
 20
-1.5427116
 10
148.0859083
 20
7.54380507
 10
152.55374163
 20
7.54380507
 10
152.55374163
 20
-1.5427116
 97
        1
330
156
 75
     0
 76
     2
 47
0.775229
 98
        1
 10
0.0
 20
0.0
  0
LWPOLYLINE
  5
158
102
{ACAD_REACTORS
330
159
102
}
100
AcDbEntity
  8
Mst 1_1
 62
    12
100
AcDbPolyline
 90
      114
 70
     1
 43
0.0
 10
160.30307496
 20
0.51840507
 10
160.26872096
 20
0.57322342
 10
160.23616296
 20
0.62577387
 10
160.20540696
 20
0.67607952
 10
160.17645896
 20
0.72416347
 10
160.14932496
 20
0.77004882
 10
160.12401096
 20
0.81375867
 10
160.10052296
 20
0.85531612
 10
160.07886696
 20
0.89474427
 10
160.05904896
 20
0.93206622
 10
160.04107496
 20
0.96730507
 10
160.04107496
 20
0.96730507
 10
160.0237723
 20
1.00125623
 10
160.00745363
 20
1.0344664
 10
159.99210296
 20
1.06694557
 10
159.9777043
 20
1.09870373
 10
159.96424163
 20
1.1297509
 10
159.95169896
 20
1.16009707
 10
159.9400603
 20
1.18975223
 10
159.92930963
 20
1.2187264
 10
159.91943096
 20
1.24702957
 10
159.9104083
 20
1.27467173
 10
159.9104083
 20
1.27467173
 10
159.90274396
 20
1.24846775
 10
159.89431363
 20
1.22170387
 10
159.8850613
 20
1.19437718
 10
159.87493096
 20
1.1664848
 10
159.86386663
 20
1.13802382
 10
159.8518123
 20
1.10899133
 10
159.83871196
 20
1.07938445
 10
159.82450963
 20
1.04920027
 10
159.8091493
 20
1.01843588
 10
159.79257496
 20
0.9870884
 10
159.79257496
 20
0.9870884
 10
159.77523863
 20
0.95368242
 10
159.7552443
 20
0.91724453
 10
159.73261396
 20
0.87778985
 10
159.70736963
 20
0.83533347
 10
159.6795333
 20
0.78989048
 10
159.64912696
 20
0.741476
 10
159.61617263
 20
0.69010512
 10
159.5806923
 20
0.63579293
 10
159.54270796
 20
0.57855455
 10
159.50224163
 20
0.51840507
 10
159.50224163
 20
0.51840507
 10
158.11257496
 20
-1.5427116
 10
158.11257496
 20
-1.5427116
 10
153.0849083
 20
-1.5427116
 10
153.0849083
 20
-1.5427116
 10
157.42774163
 20
3.29730507
 10
157.42774163
 20
3.29730507
 10
153.59574163
 20
7.54380507
 10
153.59574163
 20
7.54380507
 10
158.61524163
 20
7.54380507
 10
158.61524163
 20
7.54380507
 10
159.51857496
 20
6.06072173
 10
159.51857496
 20
6.06072173
 10
159.52140096
 20
6.05520865
 10
159.52476296
 20
6.04911107
 10
159.52863696
 20
6.04243148
 10
159.53299896
 20
6.0351724
 10
159.53782496
 20
6.02733632
 10
159.54309096
 20
6.01892573
 10
159.54877296
 20
6.00994315
 10
159.55484696
 20
6.00039107
 10
159.56128896
 20
5.99027198
 10
159.56807496
 20
5.9795884
 10
159.56807496
 20
5.9795884
 10
159.6168103
 20
5.89693548
 10
159.66231763
 20
5.81768707
 10
159.70459896
 20
5.74185865
 10
159.7436563
 20
5.66946573
 10
159.77949163
 20
5.60052382
 10
159.81210696
 20
5.5350484
 10
159.8415043
 20
5.47305498
 10
159.86768563
 20
5.41455907
 10
159.89065296
 20
5.35957615
 10
159.9104083
 20
5.30812173
 10
159.9104083
 20
5.30812173
 10
159.92252196
 20
5.34076503
 10
159.93517763
 20
5.37351413
 10
159.9483973
 20
5.40638283
 10
159.96220296
 20
5.43938493
 10
159.97661663
 20
5.47253423
 10
159.9916603
 20
5.50584453
 10
160.00735596
 20
5.53932963
 10
160.02372563
 20
5.57300333
 10
160.0407913
 20
5.60687943
 10
160.05857496
 20
5.64097173
 10
160.05857496
 20
5.64097173
 10
160.0758613
 20
5.67605408
 10
160.09448563
 20
5.71269453
 10
160.11439596
 20
5.75088318
 10
160.1355403
 20
5.79061013
 10
160.15786663
 20
5.83186548
 10
160.18132296
 20
5.87463933
 10
160.2058573
 20
5.91892178
 10
160.23141763
 20
5.96470293
 10
160.25795196
 20
6.01197288
 10
160.2854083
 20
6.06072173
 10
160.2854083
 20
6.06072173
 10
161.2129083
 20
7.54380507
 10
161.2129083
 20
7.54380507
 10
166.20957496
 20
7.54380507
 10
166.20957496
 20
7.54380507
 10
162.39024163
 20
3.29730507
 10
162.39024163
 20
3.29730507
 10
166.7379083
 20
-1.5427116
 10
166.7379083
 20
-1.5427116
 10
161.70574163
 20
-1.5427116
 10
161.70574163
 20
-1.5427116
 10
160.30307496
 20
0.51840507
 10
160.30307496
 20
0.51840507
 10
160.30307496
 20
0.51840507
  0
HATCH
  5
159
100
AcDbEntity
  8
Mst 1_1
 62
    12
100
AcDbHatch
 10
0.0
 20
0.0
 30
0.0
210
0.0
220
0.0
230
1.0
  2
SOLID
 70
     1
 71
     1
 91
        1
 92
        7
 72
     0
 73
     1
 93
       92
 10
160.30307496
 20
0.51840507
 10
160.26872096
 20
0.57322342
 10
160.23616296
 20
0.62577387
 10
160.20540696
 20
0.67607952
 10
160.17645896
 20
0.72416347
 10
160.14932496
 20
0.77004882
 10
160.12401096
 20
0.81375867
 10
160.10052296
 20
0.85531612
 10
160.07886696
 20
0.89474427
 10
160.05904896
 20
0.93206622
 10
160.04107496
 20
0.96730507
 10
160.0237723
 20
1.00125623
 10
160.00745363
 20
1.0344664
 10
159.99210296
 20
1.06694557
 10
159.9777043
 20
1.09870373
 10
159.96424163
 20
1.1297509
 10
159.95169896
 20
1.16009707
 10
159.9400603
 20
1.18975223
 10
159.92930963
 20
1.2187264
 10
159.91943096
 20
1.24702957
 10
159.9104083
 20
1.27467173
 10
159.90274396
 20
1.24846775
 10
159.89431363
 20
1.22170387
 10
159.8850613
 20
1.19437718
 10
159.87493096
 20
1.1664848
 10
159.86386663
 20
1.13802382
 10
159.8518123
 20
1.10899133
 10
159.83871196
 20
1.07938445
 10
159.82450963
 20
1.04920027
 10
159.8091493
 20
1.01843588
 10
159.79257496
 20
0.9870884
 10
159.77523863
 20
0.95368242
 10
159.7552443
 20
0.91724453
 10
159.73261396
 20
0.87778985
 10
159.70736963
 20
0.83533347
 10
159.6795333
 20
0.78989048
 10
159.64912696
 20
0.741476
 10
159.61617263
 20
0.69010512
 10
159.5806923
 20
0.63579293
 10
159.54270796
 20
0.57855455
 10
159.50224163
 20
0.51840507
 10
158.11257496
 20
-1.5427116
 10
153.0849083
 20
-1.5427116
 10
157.42774163
 20
3.29730507
 10
153.59574163
 20
7.54380507
 10
158.61524163
 20
7.54380507
 10
159.51857496
 20
6.06072173
 10
159.52140096
 20
6.05520865
 10
159.52476296
 20
6.04911107
 10
159.52863696
 20
6.04243148
 10
159.53299896
 20
6.0351724
 10
159.53782496
 20
6.02733632
 10
159.54309096
 20
6.01892573
 10
159.54877296
 20
6.00994315
 10
159.55484696
 20
6.00039107
 10
159.56128896
 20
5.99027198
 10
159.56807496
 20
5.9795884
 10
159.6168103
 20
5.89693548
 10
159.66231763
 20
5.81768707
 10
159.70459896
 20
5.74185865
 10
159.7436563
 20
5.66946573
 10
159.77949163
 20
5.60052382
 10
159.81210696
 20
5.5350484
 10
159.8415043
 20
5.47305498
 10
159.86768563
 20
5.41455907
 10
159.89065296
 20
5.35957615
 10
159.9104083
 20
5.30812173
 10
159.92252196
 20
5.34076503
 10
159.93517763
 20
5.37351413
 10
159.9483973
 20
5.40638283
 10
159.96220296
 20
5.43938493
 10
159.97661663
 20
5.47253423
 10
159.9916603
 20
5.50584453
 10
160.00735596
 20
5.53932963
 10
160.02372563
 20
5.57300333
 10
160.0407913
 20
5.60687943
 10
160.05857496
 20
5.64097173
 10
160.0758613
 20
5.67605408
 10
160.09448563
 20
5.71269453
 10
160.11439596
 20
5.75088318
 10
160.1355403
 20
5.79061013
 10
160.15786663
 20
5.83186548
 10
160.18132296
 20
5.87463933
 10
160.2058573
 20
5.91892178
 10
160.23141763
 20
5.96470293
 10
160.25795196
 20
6.01197288
 10
160.2854083
 20
6.06072173
 10
161.2129083
 20
7.54380507
 10
166.20957496
 20
7.54380507
 10
162.39024163
 20
3.29730507
 10
166.7379083
 20
-1.5427116
 10
161.70574163
 20
-1.5427116
 97
        1
330
158
 75
     0
 76
     2
 47
0.775229
 98
        1
 10
0.0
 20
0.0
  0
LWPOLYLINE
  5
15A
102
{ACAD_REACTORS
330
15B
102
}
100
AcDbEntity
  8
Mst 1_1
 62
     7
100
AcDbPolyline
 90
       46
 70
     1
 43
0.0
 10
171.05307496
 20
13.66985507
 10
171.16560546
 20
13.66074157
 10
171.27251896
 20
13.63436707
 10
171.37234846
 20
13.59218057
 10
171.46362696
 20
13.53563107
 10
171.54488746
 20
13.46616757
 10
171.61466296
 20
13.38523907
 10
171.67148646
 20
13.29429457
 10
171.71389096
 20
13.19478307
 10
171.74040946
 20
13.08815357
 10
171.74957496
 20
12.97585507
 10
171.74957496
 20
12.97585507
 10
171.74040946
 20
12.8637014
 10
171.71389096
 20
12.75720573
 10
171.67148646
 20
12.65781607
 10
171.61466296
 20
12.5669804
 10
171.54488746
 20
12.48614673
 10
171.46362696
 20
12.41676307
 10
171.37234846
 20
12.3602774
 10
171.27251896
 20
12.31813773
 10
171.16560546
 20
12.29179207
 10
171.05307496
 20
12.2826884
 10
171.05307496
 20
12.2826884
 10
170.93995413
 20
12.29179207
 10
170.8326483
 20
12.31813773
 10
170.73259246
 20
12.3602774
 10
170.64122163
 20
12.41676307
 10
170.5599708
 20
12.48614673
 10
170.49027496
 20
12.5669804
 10
170.43356913
 20
12.65781607
 10
170.3912883
 20
12.75720573
 10
170.36486746
 20
12.8637014
 10
170.35574163
 20
12.97585507
 10
170.35574163
 20
12.97585507
 10
170.36486746
 20
13.08815357
 10
170.3912883
 20
13.19478307
 10
170.43356913
 20
13.29429457
 10
170.49027496
 20
13.38523907
 10
170.5599708
 20
13.46616757
 10
170.64122163
 20
13.53563107
 10
170.73259246
 20
13.59218057
 10
170.8326483
 20
13.63436707
 10
170.93995413
 20
13.66074157
 10
171.05307496
 20
13.66985507
 10
171.05307496
 20
13.66985507
 10
171.05307496
 20
13.66985507
  0
HATCH
  5
15B
100
AcDbEntity
  8
Mst 1_1
 62
     7
100
AcDbHatch
 10
0.0
 20
0.0
 30
0.0
210
0.0
220
0.0
230
1.0
  2
SOLID
 70
     1
 71
     1
 91
        1
 92
        7
 72
     0
 73
     1
 93
       40
 10
171.05307496
 20
13.66985507
 10
171.16560546
 20
13.66074157
 10
171.27251896
 20
13.63436707
 10
171.37234846
 20
13.59218057
 10
171.46362696
 20
13.53563107
 10
171.54488746
 20
13.46616757
 10
171.61466296
 20
13.38523907
 10
171.67148646
 20
13.29429457
 10
171.71389096
 20
13.19478307
 10
171.74040946
 20
13.08815357
 10
171.74957496
 20
12.97585507
 10
171.74040946
 20
12.8637014
 10
171.71389096
 20
12.75720573
 10
171.67148646
 20
12.65781607
 10
171.61466296
 20
12.5669804
 10
171.54488746
 20
12.48614673
 10
171.46362696
 20
12.41676307
 10
171.37234846
 20
12.3602774
 10
171.27251896
 20
12.31813773
 10
171.16560546
 20
12.29179207
 10
171.05307496
 20
12.2826884
 10
170.93995413
 20
12.29179207
 10
170.8326483
 20
12.31813773
 10
170.73259246
 20
12.3602774
 10
170.64122163
 20
12.41676307
 10
170.5599708
 20
12.48614673
 10
170.49027496
 20
12.5669804
 10
170.43356913
 20
12.65781607
 10
170.3912883
 20
12.75720573
 10
170.36486746
 20
12.8637014
 10
170.35574163
 20
12.97585507
 10
170.36486746
 20
13.08815357
 10
170.3912883
 20
13.19478307
 10
170.43356913
 20
13.29429457
 10
170.49027496
 20
13.38523907
 10
170.5599708
 20
13.46616757
 10
170.64122163
 20
13.53563107
 10
170.73259246
 20
13.59218057
 10
170.8326483
 20
13.63436707
 10
170.93995413
 20
13.66074157
 97
        1
330
15A
 75
     0
 76
     2
 47
0.775229
 98
        1
 10
0.0
 20
0.0
  0
LWPOLYLINE
  5
15C
102
{ACAD_REACTORS
330
15D
102
}
100
AcDbEntity
  8
Mst 1_1
 62
    12
100
AcDbPolyline
 90
       29
 70
     1
 43
0.0
 10
170.7334083
 20
13.45785507
 10
170.7334083
 20
12.5511884
 10
170.7334083
 20
12.5511884
 10
170.86757496
 20
12.5511884
 10
170.86757496
 20
12.5511884
 10
170.86757496
 20
12.9581884
 10
170.86757496
 20
12.9581884
 10
171.0459083
 20
12.9581884
 10
171.0459083
 20
12.9581884
 10
171.30524163
 20
12.5571884
 10
171.30524163
 20
12.5571884
 10
171.4414083
 20
12.5571884
 10
171.4414083
 20
12.5571884
 10
171.18257496
 20
12.96552173
 10
171.18257496
 20
12.96552173
 10
171.27116196
 20
12.9839434
 10
171.34083096
 20
13.02409507
 10
171.39129396
 20
13.08040673
 10
171.42226296
 20
13.1473084
 10
171.43344996
 20
13.21923007
 10
171.42456696
 20
13.29060173
 10
171.39532596
 20
13.3558534
 10
171.34543896
 20
13.40941507
 10
171.27461796
 20
13.44571673
 10
171.18257496
 20
13.4591884
 10
171.18257496
 20
13.4591884
 10
170.7334083
 20
13.45785507
 10
170.7334083
 20
13.45785507
 10
170.7334083
 20
13.45785507
  0
HATCH
  5
15D
100
AcDbEntity
  8
Mst 1_1
 62
    12
100
AcDbHatch
 10
0.0
 20
0.0
 30
0.0
210
0.0
220
0.0
230
1.0
  2
SOLID
 70
     1
 71
     1
 91
        1
 92
        7
 72
     0
 73
     1
 93
       18
 10
170.7334083
 20
13.45785507
 10
170.7334083
 20
12.5511884
 10
170.86757496
 20
12.5511884
 10
170.86757496
 20
12.9581884
 10
171.0459083
 20
12.9581884
 10
171.30524163
 20
12.5571884
 10
171.4414083
 20
12.5571884
 10
171.18257496
 20
12.96552173
 10
171.27116196
 20
12.9839434
 10
171.34083096
 20
13.02409507
 10
171.39129396
 20
13.08040673
 10
171.42226296
 20
13.1473084
 10
171.43344996
 20
13.21923007
 10
171.42456696
 20
13.29060173
 10
171.39532596
 20
13.3558534
 10
171.34543896
 20
13.40941507
 10
171.27461796
 20
13.44571673
 10
171.18257496
 20
13.4591884
 97
        1
330
15C
 75
     0
 76
     2
 47
0.775229
 98
        1
 10
0.0
 20
0.0
  0
LWPOLYLINE
  5
15E
102
{ACAD_REACTORS
330
15F
102
}
100
AcDbEntity
  8
Mst 1_1
 62
     7
100
AcDbPolyline
 90
       19
 70
     1
 43
0.0
 10
170.86757496
 20
13.3546884
 10
170.86757496
 20
13.06402173
 10
170.86757496
 20
13.06402173
 10
171.1689083
 20
13.06485507
 10
171.1689083
 20
13.06485507
 10
171.2218868
 20
13.0767054
 10
171.2633563
 20
13.10107773
 10
171.2932178
 20
13.13470407
 10
171.3113723
 20
13.1743164
 10
171.3177208
 20
13.21664673
 10
171.3121643
 20
13.25842707
 10
171.2946038
 20
13.2963894
 10
171.2649403
 20
13.32726573
 10
171.2230748
 20
13.34778807
 10
171.1689083
 20
13.3546884
 10
171.1689083
 20
13.3546884
 10
170.86757496
 20
13.3546884
 10
170.86757496
 20
13.3546884
 10
170.86757496
 20
13.3546884
  0
HATCH
  5
15F
100
AcDbEntity
  8
Mst 1_1
 62
     7
100
AcDbHatch
 10
0.0
 20
0.0
 30
0.0
210
0.0
220
0.0
230
1.0
  2
SOLID
 70
     1
 71
     1
 91
        1
 92
        7
 72
     0
 73
     1
 93
       13
 10
170.86757496
 20
13.3546884
 10
170.86757496
 20
13.06402173
 10
171.1689083
 20
13.06485507
 10
171.2218868
 20
13.0767054
 10
171.2633563
 20
13.10107773
 10
171.2932178
 20
13.13470407
 10
171.3113723
 20
13.1743164
 10
171.3177208
 20
13.21664673
 10
171.3121643
 20
13.25842707
 10
171.2946038
 20
13.2963894
 10
171.2649403
 20
13.32726573
 10
171.2230748
 20
13.34778807
 10
171.1689083
 20
13.3546884
 97
        1
330
15E
 75
     0
 76
     2
 47
0.775229
 98
        1
 10
0.0
 20
0.0
  0
LINE
  5
160
100
AcDbEntity
  8
Mst 1_1
 62
   137
370
    15
100
AcDbLine
 10
-250.16933994
 20
-154.17848608
 30
0.0
 11
-250.16933994
 21
-162.17848608
 31
0.0
  0
LINE
  5
161
100
AcDbEntity
  8
Mst 1_1
 62
   137
370
    15
100
AcDbLine
 10
-250.16933994
 20
-154.89415275
 30
0.0
 11
-250.16933994
 21
-161.46281941
 31
0.0
  0
LINE
  5
162
100
AcDbEntity
  8
Mst 1_1
 62
   137
370
    15
100
AcDbLine
 10
-250.16933994
 20
-162.17848608
 30
0.0
 11
-263.43760281
 21
-162.17848608
 31
0.0
  0
LINE
  5
163
100
AcDbEntity
  8
Mst 1_1
 62
   137
370
    15
100
AcDbLine
 10
-250.16933994
 20
-161.79948608
 30
0.0
 11
-263.43760281
 21
-161.79948608
 31
0.0
  0
LINE
  5
164
100
AcDbEntity
  8
Mst 1_1
 62
   137
370
    15
100
AcDbLine
 10
-250.16933994
 20
-154.17848608
 30
0.0
 11
-263.43760281
 21
-154.17848608
 31
0.0
  0
LINE
  5
165
100
AcDbEntity
  8
Mst 1_1
 62
   137
370
    15
100
AcDbLine
 10
-250.16933994
 20
-154.55748608
 30
0.0
 11
-263.43760281
 21
-154.55748608
 31
0.0
  0
LINE
  5
166
100
AcDbEntity
  8
Mst 1_1
 62
   137
370
    15
100
AcDbLine
 10
-249.43760281
 20
-154.55748608
 30
0.0
 11
-249.43760281
 21
-161.79948608
 31
0.0
  0
LINE
  5
167
100
AcDbEntity
  8
Mst 1_1
 62
     1
  6
CADWORK_8
370
    15
100
AcDbLine
 10
-205.43760281
 20
-158.17848608
 30
0.0
 11
-380.72877928
 21
-158.17848608
 31
0.0
  0
LWPOLYLINE
  5
168
100
AcDbEntity
  8
Mst 1_1
 62
     7
  6
CONTINUOUS
370
    -3
100
AcDbPolyline
 90
        7
 70
     0
 43
0.0
 10
-263.43760281
 20
-172.27848608
 10
-263.43760281
 20
-162.27848608
 10
-212.80473891
 20
-162.27848608
 10
-210.43760281
 20
-158.17848608
 10
-212.80473891
 20
-154.07848608
 10
-263.43760281
 20
-154.07848608
 10
-263.43760281
 20
-144.07848608
  0
LINE
  5
169
100
AcDbEntity
  8
Mst 1_1
 62
     1
  6
CADWORK_8
370
    15
100
AcDbLine
 10
-263.43760281
 20
-154.17848608
 30
0.0
 11
-263.43760281
 21
-162.17848608
 31
0.0
  0
LWPOLYLINE
  5
16A
100
AcDbEntity
  8
Mst 1_1
 62
   137
  6
CONTINUOUS
370
    15
100
AcDbPolyline
 90
        3
 70
     0
 43
0.0
 10
-250.16933994
 20
-154.17848608
 10
-249.43760281
 20
-154.55748608
 10
-248.77093614
 20
-154.55748608
  0
LWPOLYLINE
  5
16B
100
AcDbEntity
  8
Mst 1_1
 62
   137
  6
CONTINUOUS
370
    15
100
AcDbPolyline
 90
        3
 70
     0
 43
0.0
 10
-250.16933994
 20
-162.17848608
 10
-249.43760281
 20
-161.79948608
 10
-248.77093614
 20
-161.79948608
  0
LINE
  5
16C
100
AcDbEntity
  8
Mst 1_1
 62
   137
370
    15
100
AcDbLine
 10
-248.77093614
 20
-154.17848608
 30
0.0
 11
-242.56333553
 21
-154.17848608
 31
0.0
  0
LINE
  5
16D
100
AcDbEntity
  8
Mst 1_1
 62
   137
370
    15
100
AcDbLine
 10
-248.77093614
 20
-162.17848608
 30
0.0
 11
-242.56333553
 21
-162.17848608
 31
0.0
  0
LINE
  5
16E
100
AcDbEntity
  8
Mst 1_1
 62
   137
370
    15
100
AcDbLine
 10
-224.40086039
 20
-154.84003415
 30
0.0
 11
-221.74669374
 21
-154.24515275
 31
0.0
  0
LINE
  5
16F
100
AcDbEntity
  8
Mst 1_1
 62
   137
370
    15
100
AcDbLine
 10
-224.40086039
 20
-161.516938
 30
0.0
 11
-221.74669374
 21
-162.11181941
 31
0.0
  0
LINE
  5
170
100
AcDbEntity
  8
Mst 1_1
 62
   137
370
    15
100
AcDbLine
 10
-219.44245207
 20
-154.24515275
 30
0.0
 11
-219.44245207
 21
-162.11181941
 31
0.0
  0
LINE
  5
171
100
AcDbEntity
  8
Mst 1_1
 62
   137
370
    15
100
AcDbLine
 10
-221.74669374
 20
-154.24515275
 30
0.0
 11
-221.74669374
 21
-162.11181941
 31
0.0
  0
LINE
  5
172
100
AcDbEntity
  8
Mst 1_1
 62
   137
370
    15
100
AcDbLine
 10
-248.77093614
 20
-154.17848608
 30
0.0
 11
-248.77093614
 21
-162.17848608
 31
0.0
  0
3DFACE
  5
173
100
AcDbEntity
  8
Mst 1_1
 62
   137
  6
CONTINUOUS
370
     9
100
AcDbFace
 70
     0
 10
-224.40086039
 20
-157.84515274
 30
1000.0
 11
-224.40086039
 21
-154.24515275
 31
1000.0
 12
-230.0667336
 22
-154.24515275
 32
1000.0
 13
-230.0667336
 23
-157.84515274
 33
1000.0
  0
3DFACE
  5
174
100
AcDbEntity
  8
Mst 1_1
 62
   137
  6
CONTINUOUS
370
     9
100
AcDbFace
 70
     0
 10
-224.40086039
 20
-158.51181941
 30
1000.0
 11
-224.40086039
 21
-162.11181941
 31
1000.0
 12
-230.0667336
 22
-162.11181941
 32
1000.0
 13
-230.0667336
 23
-158.51181941
 33
1000.0
  0
LINE
  5
175
100
AcDbEntity
  8
Mst 1_1
 62
   137
370
    15
100
AcDbLine
 10
-236.46303696
 20
-154.84003415
 30
0.0
 11
-233.80887035
 21
-154.24515275
 31
0.0
  0
LINE
  5
176
100
AcDbEntity
  8
Mst 1_1
 62
   137
370
    15
100
AcDbLine
 10
-236.46303696
 20
-161.516938
 30
0.0
 11
-233.80887035
 21
-162.11181941
 31
0.0
  0
LINE
  5
177
100
AcDbEntity
  8
Mst 1_1
 62
   137
370
    15
100
AcDbLine
 10
-231.50462855
 20
-154.24515275
 30
0.0
 11
-231.50462855
 21
-162.11181941
 31
0.0
  0
LINE
  5
178
100
AcDbEntity
  8
Mst 1_1
 62
   137
370
    15
100
AcDbLine
 10
-233.80887035
 20
-154.24515275
 30
0.0
 11
-233.80887035
 21
-162.11181941
 31
0.0
  0
3DFACE
  5
179
100
AcDbEntity
  8
Mst 1_1
 62
   137
  6
CONTINUOUS
370
     9
100
AcDbFace
 70
     0
 10
-236.46303696
 20
-157.84515274
 30
1000.0
 11
-236.46303696
 21
-154.24515275
 31
1000.0
 12
-242.12891005
 22
-154.24515275
 32
1000.0
 13
-242.12891005
 23
-157.84515274
 33
1000.0
  0
3DFACE
  5
17A
100
AcDbEntity
  8
Mst 1_1
 62
   137
  6
CONTINUOUS
370
     9
100
AcDbFace
 70
     0
 10
-236.46303696
 20
-158.51181941
 30
1000.0
 11
-236.46303696
 21
-162.11181941
 31
1000.0
 12
-242.12891005
 22
-162.11181941
 32
1000.0
 13
-242.12891005
 23
-158.51181941
 33
1000.0
  0
LINE
  5
17B
100
AcDbEntity
  8
Mst 1_1
 62
   137
  6
CONTINUOUS
370
    15
100
AcDbLine
 10
-230.0667336
 20
-155.51181941
 30
1000.0
 11
-230.50115903
 21
-155.51181941
 31
1000.0
  0
LINE
  5
17C
100
AcDbEntity
  8
Mst 1_1
 62
   137
  6
CONTINUOUS
370
    15
100
AcDbLine
 10
-230.0667336
 20
-160.84515274
 30
1000.0
 11
-230.50115903
 21
-160.84515274
 31
1000.0
  0
LINE
  5
17D
100
AcDbEntity
  8
Mst 1_1
 62
   137
  6
CONTINUOUS
370
    15
100
AcDbLine
 10
-242.12891005
 20
-155.51181941
 30
1000.0
 11
-242.56333553
 21
-155.51181941
 31
1000.0
  0
LINE
  5
17E
100
AcDbEntity
  8
Mst 1_1
 62
   137
  6
CONTINUOUS
370
    15
100
AcDbLine
 10
-242.12891005
 20
-160.84515274
 30
1000.0
 11
-242.56333553
 21
-160.84515274
 31
1000.0
  0
LINE
  5
17F
100
AcDbEntity
  8
Mst 1_1
 62
   137
  6
CONTINUOUS
370
    15
100
AcDbLine
 10
-242.56333553
 20
-154.17848608
 30
1000.0
 11
-242.56333553
 21
-162.17848608
 31
1000.0
  0
LWPOLYLINE
  5
180
100
AcDbEntity
  8
Mst 1_1
 62
   137
  6
CONTINUOUS
370
     9
100
AcDbPolyline
 90
       45
 70
     1
 43
0.0
 38
1000.0
 39
-1000.0
 10
-242.12891005
 20
-154.24515275
 10
-242.12891005
 20
-154.13388215
 10
-242.12805774
 20
-154.11738679
 10
-242.12550584
 20
-154.10098395
 10
-242.12126817
 20
-154.08476564
 10
-242.11536904
 20
-154.06882283
 10
-242.10784124
 20
-154.05324495
 10
-242.09872699
 20
-154.03811938
 10
-242.08807746
 20
-154.02353096
 10
-242.07595238
 20
-154.00956151
 10
-242.06242007
 20
-153.9962894
 10
-242.04755586
 20
-153.98378907
 10
-242.0314434
 20
-153.97213062
 10
-242.01417317
 20
-153.96137948
 10
-241.99584211
 20
-153.95159593
 10
-241.9765525
 20
-153.94283484
 10
-241.95641335
 20
-153.93514538
 10
-241.93553688
 20
-153.92857065
 10
-241.91404084
 20
-153.92314756
 10
-241.89204502
 20
-153.91890651
 10
-241.8696735
 20
-153.91587129
 10
-241.84705157
 20
-153.91405893
 10
-241.82430602
 20
-153.91347959
 10
-241.69434328
 20
-153.91438238
 10
-241.56441214
 20
-153.91664711
 10
-241.43453942
 20
-153.92027333
 10
-241.30475262
 20
-153.92526026
 10
-241.17507862
 20
-153.93160689
 10
-241.04554478
 20
-153.93931186
 10
-240.91617795
 20
-153.94837359
 10
-240.7870052
 20
-153.95879018
 10
-240.65805344
 20
-153.97055943
 10
-240.5293494
 20
-153.98367892
 10
-240.40092055
 20
-153.99814589
 10
-240.27279308
 20
-154.01395733
 10
-240.14499404
 20
-154.03110992
 10
-240.01755011
 20
-154.04960009
 10
-239.89048812
 20
-154.06942398
 10
-239.76383402
 20
-154.09057745
 10
-239.63761469
 20
-154.11305608
 10
-239.51185649
 20
-154.13685518
 10
-239.38658553
 20
-154.16196978
 10
-239.26182811
 20
-154.18839463
 10
-239.13761017
 20
-154.21612422
 10
-239.01395752
 20
-154.24515275
  0
LWPOLYLINE
  5
181
100
AcDbEntity
  8
Mst 1_1
 62
   137
  6
CONTINUOUS
370
     9
100
AcDbPolyline
 90
       45
 70
     1
 43
0.0
 38
1000.0
 39
-1000.0
 10
-242.12891005
 20
-162.11181941
 10
-242.12891005
 20
-162.22309
 10
-242.12805774
 20
-162.23958537
 10
-242.12550584
 20
-162.25598821
 10
-242.12126817
 20
-162.27220651
 10
-242.11536904
 20
-162.28814933
 10
-242.10784124
 20
-162.3037272
 10
-242.09872699
 20
-162.31885278
 10
-242.08807746
 20
-162.3334412
 10
-242.07595238
 20
-162.34741065
 10
-242.06242007
 20
-162.36068276
 10
-242.04755586
 20
-162.37318309
 10
-242.0314434
 20
-162.38484153
 10
-242.01417317
 20
-162.39559268
 10
-241.99584211
 20
-162.40537623
 10
-241.9765525
 20
-162.41413731
 10
-241.95641335
 20
-162.42182677
 10
-241.93553688
 20
-162.4284015
 10
-241.91404084
 20
-162.4338246
 10
-241.89204502
 20
-162.43806564
 10
-241.8696735
 20
-162.44110087
 10
-241.84705157
 20
-162.44291323
 10
-241.82430602
 20
-162.44349257
 10
-241.69434328
 20
-162.44258978
 10
-241.56441214
 20
-162.44032505
 10
-241.43453942
 20
-162.43669882
 10
-241.30475262
 20
-162.43171189
 10
-241.17507862
 20
-162.42536526
 10
-241.04554478
 20
-162.4176603
 10
-240.91617795
 20
-162.40859856
 10
-240.7870052
 20
-162.39818198
 10
-240.65805344
 20
-162.38641272
 10
-240.5293494
 20
-162.37329323
 10
-240.40092055
 20
-162.35882627
 10
-240.27279308
 20
-162.34301482
 10
-240.14499404
 20
-162.32586223
 10
-240.01755011
 20
-162.30737207
 10
-239.89048812
 20
-162.28754817
 10
-239.76383402
 20
-162.2663947
 10
-239.63761469
 20
-162.24391607
 10
-239.51185649
 20
-162.22011697
 10
-239.38658553
 20
-162.19500237
 10
-239.26182811
 20
-162.16857752
 10
-239.13761017
 20
-162.14084794
 10
-239.01395752
 20
-162.11181941
  0
LWPOLYLINE
  5
182
100
AcDbEntity
  8
Mst 1_1
 62
   137
  6
CONTINUOUS
370
     9
100
AcDbPolyline
 90
       45
 70
     1
 43
0.0
 38
1000.0
 39
-1000.0
 10
-230.0667336
 20
-162.11181941
 10
-230.0667336
 20
-162.22309
 10
-230.06588127
 20
-162.23958537
 10
-230.06332924
 20
-162.25598821
 10
-230.05909169
 20
-162.27220651
 10
-230.05319242
 20
-162.28814933
 10
-230.04566464
 20
-162.3037272
 10
-230.03655037
 20
-162.31885278
 10
-230.02590098
 20
-162.3334412
 10
-230.0137759
 20
-162.34741065
 10
-230.00024342
 20
-162.36068276
 10
-229.98537923
 20
-162.37318309
 10
-229.96926692
 20
-162.38484153
 10
-229.95199669
 20
-162.39559268
 10
-229.93366549
 20
-162.40537623
 10
-229.91437605
 20
-162.41413731
 10
-229.89423673
 20
-162.42182677
 10
-229.87336041
 20
-162.4284015
 10
-229.85186422
 20
-162.4338246
 10
-229.82986857
 20
-162.43806564
 10
-229.80749717
 20
-162.44110087
 10
-229.78487512
 20
-162.44291323
 10
-229.76212952
 20
-162.44349257
 10
-229.63216681
 20
-162.44258978
 10
-229.5022355
 20
-162.44032505
 10
-229.3723628
 20
-162.43669882
 10
-229.242576
 20
-162.43171189
 10
-229.11290213
 20
-162.42536526
 10
-228.98336832
 20
-162.4176603
 10
-228.85400135
 20
-162.40859856
 10
-228.72482856
 20
-162.39818198
 10
-228.59587684
 20
-162.38641272
 10
-228.46717295
 20
-162.37329323
 10
-228.33874393
 20
-162.35882627
 10
-228.21061661
 20
-162.34301482
 10
-228.08281757
 20
-162.32586223
 10
-227.95537378
 20
-162.30737207
 10
-227.82831152
 20
-162.28754817
 10
-227.70165754
 20
-162.2663947
 10
-227.57543823
 20
-162.24391607
 10
-227.44968001
 20
-162.22011697
 10
-227.32440903
 20
-162.19500237
 10
-227.19965149
 20
-162.16857752
 10
-227.07543357
 20
-162.14084794
 10
-226.95178105
 20
-162.11181941
  0
LWPOLYLINE
  5
183
100
AcDbEntity
  8
Mst 1_1
 62
   137
  6
CONTINUOUS
370
     9
100
AcDbPolyline
 90
       45
 70
     1
 43
0.0
 38
1000.0
 39
-1000.0
 10
-230.0667336
 20
-154.24515275
 10
-230.0667336
 20
-154.13388215
 10
-230.06588127
 20
-154.11738679
 10
-230.06332924
 20
-154.10098395
 10
-230.05909169
 20
-154.08476564
 10
-230.05319242
 20
-154.06882283
 10
-230.04566464
 20
-154.05324495
 10
-230.03655037
 20
-154.03811938
 10
-230.02590098
 20
-154.02353096
 10
-230.0137759
 20
-154.00956151
 10
-230.00024342
 20
-153.9962894
 10
-229.98537923
 20
-153.98378907
 10
-229.96926692
 20
-153.97213062
 10
-229.95199669
 20
-153.96137948
 10
-229.93366549
 20
-153.95159593
 10
-229.91437605
 20
-153.94283484
 10
-229.89423673
 20
-153.93514538
 10
-229.87336041
 20
-153.92857065
 10
-229.85186422
 20
-153.92314756
 10
-229.82986857
 20
-153.91890651
 10
-229.80749717
 20
-153.91587129
 10
-229.78487512
 20
-153.91405893
 10
-229.76212952
 20
-153.91347959
 10
-229.63216681
 20
-153.91438238
 10
-229.5022355
 20
-153.91664711
 10
-229.3723628
 20
-153.92027333
 10
-229.242576
 20
-153.92526026
 10
-229.11290213
 20
-153.93160689
 10
-228.98336832
 20
-153.93931186
 10
-228.85400135
 20
-153.94837359
 10
-228.72482856
 20
-153.95879018
 10
-228.59587684
 20
-153.97055943
 10
-228.46717295
 20
-153.98367892
 10
-228.33874393
 20
-153.99814589
 10
-228.21061661
 20
-154.01395733
 10
-228.08281757
 20
-154.03110992
 10
-227.95537378
 20
-154.04960009
 10
-227.82831152
 20
-154.06942398
 10
-227.70165754
 20
-154.09057745
 10
-227.57543823
 20
-154.11305608
 10
-227.44968001
 20
-154.13685518
 10
-227.32440903
 20
-154.16196978
 10
-227.19965149
 20
-154.18839463
 10
-227.07543357
 20
-154.21612422
 10
-226.95178105
 20
-154.24515275
  0
LWPOLYLINE
  5
184
100
AcDbEntity
  8
Mst 1_1
 62
   137
  6
CONTINUOUS
370
    15
100
AcDbPolyline
 90
       46
 70
     0
 43
0.0
 10
-221.74669374
 20
-154.24515275
 10
-219.54063311
 20
-154.24515275
 10
-219.45820356
 20
-154.24888102
 10
-219.37623499
 20
-154.26004498
 10
-219.29518579
 20
-154.2785822
 10
-219.21550923
 20
-154.304389
 10
-219.1376509
 20
-154.33732108
 10
-219.06204621
 20
-154.37719425
 10
-218.98911796
 20
-154.42378554
 10
-218.91927402
 20
-154.47683438
 10
-218.85290497
 20
-154.5360441
 10
-218.79038198
 20
-154.60108358
 10
-218.73205469
 20
-154.67158909
 10
-218.6782493
 20
-154.74716634
 10
-218.62926671
 20
-154.82739267
 10
-218.58538085
 20
-154.91181941
 10
-218.54683715
 20
-154.99997443
 10
-218.51385116
 20
-155.09136471
 10
-218.48660735
 20
-155.18547918
 10
-218.46525808
 20
-155.2817915
 10
-218.44992275
 20
-155.37976306
 10
-218.44068711
 20
-155.47884595
 10
-218.43760281
 20
-155.57848608
 10
-218.43760281
 20
-160.77848608
 10
-218.44068711
 20
-160.8781262
 10
-218.44992275
 20
-160.9772091
 10
-218.46525808
 20
-161.07518065
 10
-218.48660735
 20
-161.17149298
 10
-218.51385116
 20
-161.26560744
 10
-218.54683715
 20
-161.35699773
 10
-218.58538085
 20
-161.44515274
 10
-218.62926671
 20
-161.52957949
 10
-218.6782493
 20
-161.60980581
 10
-218.73205469
 20
-161.68538306
 10
-218.79038198
 20
-161.75588857
 10
-218.85290497
 20
-161.82092805
 10
-218.91927402
 20
-161.88013777
 10
-218.98911796
 20
-161.93318661
 10
-219.06204621
 20
-161.9797779
 10
-219.1376509
 20
-162.01965107
 10
-219.21550923
 20
-162.05258315
 10
-219.29518579
 20
-162.07838996
 10
-219.37623499
 20
-162.09692718
 10
-219.45820356
 20
-162.10809114
 10
-219.54063311
 20
-162.11181941
 10
-221.74669374
 20
-162.11181941
  0
LWPOLYLINE
  5
185
100
AcDbEntity
  8
Mst 1_1
 62
   137
  6
CONTINUOUS
370
    15
100
AcDbPolyline
 90
       46
 70
     0
 43
0.0
 10
-233.80887035
 20
-154.24515275
 10
-231.60280965
 20
-154.24515275
 10
-231.52038005
 20
-154.24888102
 10
-231.43841147
 20
-154.26004498
 10
-231.35736233
 20
-154.2785822
 10
-231.2776858
 20
-154.304389
 10
-231.19982745
 20
-154.33732108
 10
-231.12422267
 20
-154.37719425
 10
-231.05129453
 20
-154.42378554
 10
-230.98145062
 20
-154.47683438
 10
-230.9150815
 20
-154.5360441
 10
-230.85255843
 20
-154.60108358
 10
-230.79423124
 20
-154.67158909
 10
-230.74042588
 20
-154.74716634
 10
-230.69144331
 20
-154.82739267
 10
-230.64755734
 20
-154.91181941
 10
-230.60901371
 20
-154.99997443
 10
-230.5760277
 20
-155.09136471
 10
-230.54878392
 20
-155.18547918
 10
-230.52743461
 20
-155.2817915
 10
-230.51209932
 20
-155.37976306
 10
-230.50286364
 20
-155.47884595
 10
-230.49977929
 20
-155.57848608
 10
-230.49977929
 20
-160.77848608
 10
-230.50286364
 20
-160.8781262
 10
-230.51209932
 20
-160.9772091
 10
-230.52743461
 20
-161.07518065
 10
-230.54878392
 20
-161.17149298
 10
-230.5760277
 20
-161.26560744
 10
-230.60901371
 20
-161.35699773
 10
-230.64755734
 20
-161.44515274
 10
-230.69144331
 20
-161.52957949
 10
-230.74042588
 20
-161.60980581
 10
-230.79423124
 20
-161.68538306
 10
-230.85255843
 20
-161.75588857
 10
-230.9150815
 20
-161.82092805
 10
-230.98145062
 20
-161.88013777
 10
-231.05129453
 20
-161.93318661
 10
-231.12422267
 20
-161.9797779
 10
-231.19982745
 20
-162.01965107
 10
-231.2776858
 20
-162.05258315
 10
-231.35736233
 20
-162.07838996
 10
-231.43841147
 20
-162.09692718
 10
-231.52038005
 20
-162.10809114
 10
-231.60280965
 20
-162.11181941
 10
-233.80887035
 20
-162.11181941
  0
LINE
  5
186
100
AcDbEntity
  8
Mst 1_1
 62
   137
370
    15
100
AcDbLine
 10
-265.43760281
 20
-153.17848608
 30
100.0
 11
-263.43760281
 21
-154.17848608
 31
100.0
  0
LINE
  5
187
100
AcDbEntity
  8
Mst 1_1
 62
   137
370
    15
100
AcDbLine
 10
-265.43760281
 20
-163.17848608
 30
100.0
 11
-265.43760281
 21
-153.17848608
 31
100.0
  0
LINE
  5
188
100
AcDbEntity
  8
Mst 1_1
 62
   137
370
    15
100
AcDbLine
 10
-265.43760281
 20
-163.17848608
 30
100.0
 11
-263.43760281
 21
-162.17848608
 31
100.0
  0
LINE
  5
189
100
AcDbEntity
  8
Mst 1_1
 62
   137
370
    15
100
AcDbLine
 10
-265.43760281
 20
-153.17848608
 30
100.0
 11
-331.43760281
 21
-153.17848608
 31
100.0
  0
LINE
  5
18A
100
AcDbEntity
  8
Mst 1_1
 62
   137
370
    15
100
AcDbLine
 10
-265.43760281
 20
-163.17848608
 30
100.0
 11
-331.43760281
 21
-163.17848608
 31
100.0
  0
LINE
  5
18B
100
AcDbEntity
  8
Mst 1_1
 62
   137
370
    15
100
AcDbLine
 10
-331.43760281
 20
-153.17848608
 30
100.0
 11
-331.43760281
 21
-163.17848608
 31
100.0
  0
LWPOLYLINE
  5
18C
100
AcDbEntity
  8
Mst 1_1
 62
   137
370
    15
100
AcDbPolyline
 90
        5
 70
     0
 43
0.0
 38
100.0
 10
-324.43760281
 20
-155.17848608
 10
-371.93760281
 20
-155.17848608
 10
-371.93760281
 20
-161.17848608
 10
-324.43760281
 20
-161.17848608
 10
-324.43760281
 20
-155.17848608
  0
LWPOLYLINE
  5
18D
100
AcDbEntity
  8
Mst 1_1
 62
   137
370
    15
100
AcDbPolyline
 90
        4
 70
     0
 43
0.0
 38
100.0
 10
-324.43760281
 20
-155.17848608
 10
-323.43760281
 20
-156.17848608
 10
-323.43760281
 20
-160.17848608
 10
-324.43760281
 20
-161.17848608
  0
LINE
  5
18E
100
AcDbEntity
  8
Mst 1_1
 62
   137
370
    15
100
AcDbLine
 10
-323.43760281
 20
-156.17848608
 30
100.0
 11
-371.93760281
 21
-156.17848608
 31
100.0
  0
LINE
  5
18F
100
AcDbEntity
  8
Mst 1_1
 62
   137
370
    15
100
AcDbLine
 10
-323.43760281
 20
-160.17848608
 30
100.0
 11
-371.93760281
 21
-160.17848608
 31
100.0
  0
LWPOLYLINE
  5
190
100
AcDbEntity
  8
Mst 1_1
 62
   137
370
    15
100
AcDbPolyline
 90
        6
 70
     0
 43
0.0
 38
100.0
 10
-373.43760281
 20
-155.17848608
 10
-373.43760281
 20
-149.17848608
 10
-371.93760281
 20
-149.17848608
 10
-371.93760281
 20
-167.17848608
 10
-373.43760281
 20
-167.17848608
 10
-373.43760281
 20
-155.17848608
  0
LWPOLYLINE
  5
191
100
AcDbEntity
  8
Mst 1_1
 62
   137
370
    15
100
AcDbPolyline
 90
        5
 70
     0
 43
0.0
 38
100.0
 10
-373.43760281
 20
-151.37848608
 10
-374.43760281
 20
-151.37848608
 10
-374.43760281
 20
-164.97848608
 10
-373.43760281
 20
-164.97848608
 10
-373.43760281
 20
-151.37848608
  0
LWPOLYLINE
  5
192
100
AcDbEntity
  8
Mst 1_1
 62
   137
370
    15
100
AcDbPolyline
 90
        5
 70
     0
 43
0.0
 38
100.0
 10
-374.43760281
 20
-153.32848608
 10
-375.73760281
 20
-155.02848608
 10
-375.73760281
 20
-161.32848608
 10
-374.43760281
 20
-163.02848608
 10
-374.43760281
 20
-153.32848608
  0
LINE
  5
193
100
AcDbEntity
  8
Mst 1_1
 62
   137
370
    15
100
AcDbLine
 10
-213.08110465
 20
-184.17848608
 30
0.0
 11
-213.08110465
 21
-192.17848608
 31
0.0
  0
LINE
  5
194
100
AcDbEntity
  8
Mst 1_1
 62
   137
370
    15
100
AcDbLine
 10
-213.08110465
 20
-184.89415275
 30
0.0
 11
-213.08110465
 21
-191.46281941
 31
0.0
  0
LINE
  5
195
100
AcDbEntity
  8
Mst 1_1
 62
   137
370
    15
100
AcDbLine
 10
-213.08110465
 20
-192.17848608
 30
0.0
 11
-226.34936752
 21
-192.17848608
 31
0.0
  0
LINE
  5
196
100
AcDbEntity
  8
Mst 1_1
 62
   137
370
    15
100
AcDbLine
 10
-213.08110465
 20
-191.79948608
 30
0.0
 11
-226.34936752
 21
-191.79948608
 31
0.0
  0
LINE
  5
197
100
AcDbEntity
  8
Mst 1_1
 62
   137
370
    15
100
AcDbLine
 10
-213.08110465
 20
-184.17848608
 30
0.0
 11
-226.34936752
 21
-184.17848608
 31
0.0
  0
LINE
  5
198
100
AcDbEntity
  8
Mst 1_1
 62
   137
370
    15
100
AcDbLine
 10
-213.08110465
 20
-184.55748608
 30
0.0
 11
-226.34936752
 21
-184.55748608
 31
0.0
  0
LINE
  5
199
100
AcDbEntity
  8
Mst 1_1
 62
   137
370
    15
100
AcDbLine
 10
-212.34936752
 20
-184.55748608
 30
0.0
 11
-212.34936752
 21
-191.79948608
 31
0.0
  0
LINE
  5
19A
100
AcDbEntity
  8
Mst 1_1
 62
     1
  6
CADWORK_8
370
    15
100
AcDbLine
 10
-168.34936752
 20
-188.17848608
 30
0.0
 11
-380.64936752
 21
-188.17848608
 31
0.0
  0
LWPOLYLINE
  5
19B
100
AcDbEntity
  8
Mst 1_1
 62
     7
  6
CONTINUOUS
370
    -3
100
AcDbPolyline
 90
        7
 70
     0
 43
0.0
 10
-226.34936752
 20
-202.27848608
 10
-226.34936752
 20
-192.27848608
 10
-175.71650362
 20
-192.27848608
 10
-173.34936752
 20
-188.17848608
 10
-175.71650362
 20
-184.07848608
 10
-226.34936752
 20
-184.07848608
 10
-226.34936752
 20
-174.07848608
  0
LINE
  5
19C
100
AcDbEntity
  8
Mst 1_1
 62
     1
  6
CADWORK_8
370
    15
100
AcDbLine
 10
-226.34936752
 20
-184.17848608
 30
0.0
 11
-226.34936752
 21
-192.17848608
 31
0.0
  0
LWPOLYLINE
  5
19D
100
AcDbEntity
  8
Mst 1_1
 62
   137
  6
CONTINUOUS
370
    15
100
AcDbPolyline
 90
        3
 70
     0
 43
0.0
 10
-213.08110465
 20
-184.17848608
 10
-212.34936752
 20
-184.55748608
 10
-211.68270085
 20
-184.55748608
  0
LWPOLYLINE
  5
19E
100
AcDbEntity
  8
Mst 1_1
 62
   137
  6
CONTINUOUS
370
    15
100
AcDbPolyline
 90
        3
 70
     0
 43
0.0
 10
-213.08110465
 20
-192.17848608
 10
-212.34936752
 20
-191.79948608
 10
-211.68270085
 20
-191.79948608
  0
LINE
  5
19F
100
AcDbEntity
  8
Mst 1_1
 62
   137
370
    15
100
AcDbLine
 10
-211.68270085
 20
-184.17848608
 30
0.0
 11
-205.47510023
 21
-184.17848608
 31
0.0
  0
LINE
  5
1A0
100
AcDbEntity
  8
Mst 1_1
 62
   137
370
    15
100
AcDbLine
 10
-211.68270085
 20
-192.17848608
 30
0.0
 11
-205.47510023
 21
-192.17848608
 31
0.0
  0
LINE
  5
1A1
100
AcDbEntity
  8
Mst 1_1
 62
   137
370
    15
100
AcDbLine
 10
-187.3126251
 20
-184.84003415
 30
0.0
 11
-184.65845844
 21
-184.24515275
 31
0.0
  0
LINE
  5
1A2
100
AcDbEntity
  8
Mst 1_1
 62
   137
370
    15
100
AcDbLine
 10
-187.3126251
 20
-191.516938
 30
0.0
 11
-184.65845844
 21
-192.11181941
 31
0.0
  0
LINE
  5
1A3
100
AcDbEntity
  8
Mst 1_1
 62
   137
370
    15
100
AcDbLine
 10
-182.35421678
 20
-184.24515275
 30
0.0
 11
-182.35421678
 21
-192.11181941
 31
0.0
  0
LINE
  5
1A4
100
AcDbEntity
  8
Mst 1_1
 62
   137
370
    15
100
AcDbLine
 10
-184.65845844
 20
-184.24515275
 30
0.0
 11
-184.65845844
 21
-192.11181941
 31
0.0
  0
LINE
  5
1A5
100
AcDbEntity
  8
Mst 1_1
 62
   137
370
    15
100
AcDbLine
 10
-211.68270085
 20
-184.17848608
 30
0.0
 11
-211.68270085
 21
-192.17848608
 31
0.0
  0
3DFACE
  5
1A6
100
AcDbEntity
  8
Mst 1_1
 62
   137
  6
CONTINUOUS
370
     9
100
AcDbFace
 70
     0
 10
-187.3126251
 20
-187.84515274
 30
1000.0
 11
-187.3126251
 21
-184.24515275
 31
1000.0
 12
-192.9784983
 22
-184.24515275
 32
1000.0
 13
-192.9784983
 23
-187.84515274
 33
1000.0
  0
3DFACE
  5
1A7
100
AcDbEntity
  8
Mst 1_1
 62
   137
  6
CONTINUOUS
370
     9
100
AcDbFace
 70
     0
 10
-187.3126251
 20
-188.51181941
 30
1000.0
 11
-187.3126251
 21
-192.11181941
 31
1000.0
 12
-192.9784983
 22
-192.11181941
 32
1000.0
 13
-192.9784983
 23
-188.51181941
 33
1000.0
  0
LINE
  5
1A8
100
AcDbEntity
  8
Mst 1_1
 62
   137
370
    15
100
AcDbLine
 10
-199.37480167
 20
-184.84003415
 30
0.0
 11
-196.72063506
 21
-184.24515275
 31
0.0
  0
LINE
  5
1A9
100
AcDbEntity
  8
Mst 1_1
 62
   137
370
    15
100
AcDbLine
 10
-199.37480167
 20
-191.516938
 30
0.0
 11
-196.72063506
 21
-192.11181941
 31
0.0
  0
LINE
  5
1AA
100
AcDbEntity
  8
Mst 1_1
 62
   137
370
    15
100
AcDbLine
 10
-194.41639326
 20
-184.24515275
 30
0.0
 11
-194.41639326
 21
-192.11181941
 31
0.0
  0
LINE
  5
1AB
100
AcDbEntity
  8
Mst 1_1
 62
   137
370
    15
100
AcDbLine
 10
-196.72063506
 20
-184.24515275
 30
0.0
 11
-196.72063506
 21
-192.11181941
 31
0.0
  0
3DFACE
  5
1AC
100
AcDbEntity
  8
Mst 1_1
 62
   137
  6
CONTINUOUS
370
     9
100
AcDbFace
 70
     0
 10
-199.37480167
 20
-187.84515274
 30
1000.0
 11
-199.37480167
 21
-184.24515275
 31
1000.0
 12
-205.04067476
 22
-184.24515275
 32
1000.0
 13
-205.04067476
 23
-187.84515274
 33
1000.0
  0
3DFACE
  5
1AD
100
AcDbEntity
  8
Mst 1_1
 62
   137
  6
CONTINUOUS
370
     9
100
AcDbFace
 70
     0
 10
-199.37480167
 20
-188.51181941
 30
1000.0
 11
-199.37480167
 21
-192.11181941
 31
1000.0
 12
-205.04067476
 22
-192.11181941
 32
1000.0
 13
-205.04067476
 23
-188.51181941
 33
1000.0
  0
LINE
  5
1AE
100
AcDbEntity
  8
Mst 1_1
 62
   137
  6
CONTINUOUS
370
    15
100
AcDbLine
 10
-192.9784983
 20
-185.51181941
 30
1000.0
 11
-193.41292374
 21
-185.51181941
 31
1000.0
  0
LINE
  5
1AF
100
AcDbEntity
  8
Mst 1_1
 62
   137
  6
CONTINUOUS
370
    15
100
AcDbLine
 10
-192.9784983
 20
-190.84515274
 30
1000.0
 11
-193.41292374
 21
-190.84515274
 31
1000.0
  0
LINE
  5
1B0
100
AcDbEntity
  8
Mst 1_1
 62
   137
  6
CONTINUOUS
370
    15
100
AcDbLine
 10
-205.04067476
 20
-185.51181941
 30
1000.0
 11
-205.47510023
 21
-185.51181941
 31
1000.0
  0
LINE
  5
1B1
100
AcDbEntity
  8
Mst 1_1
 62
   137
  6
CONTINUOUS
370
    15
100
AcDbLine
 10
-205.04067476
 20
-190.84515274
 30
1000.0
 11
-205.47510023
 21
-190.84515274
 31
1000.0
  0
LINE
  5
1B2
100
AcDbEntity
  8
Mst 1_1
 62
   137
  6
CONTINUOUS
370
    15
100
AcDbLine
 10
-205.47510023
 20
-184.17848608
 30
1000.0
 11
-205.47510023
 21
-192.17848608
 31
1000.0
  0
LWPOLYLINE
  5
1B3
100
AcDbEntity
  8
Mst 1_1
 62
   137
  6
CONTINUOUS
370
     9
100
AcDbPolyline
 90
       45
 70
     1
 43
0.0
 38
1000.0
 39
-1000.0
 10
-205.04067476
 20
-184.24515275
 10
-205.04067476
 20
-184.13388215
 10
-205.03982245
 20
-184.11738679
 10
-205.03727055
 20
-184.10098395
 10
-205.03303288
 20
-184.08476564
 10
-205.02713375
 20
-184.06882283
 10
-205.01960595
 20
-184.05324495
 10
-205.0104917
 20
-184.03811938
 10
-204.99984216
 20
-184.02353096
 10
-204.98771708
 20
-184.00956151
 10
-204.97418477
 20
-183.9962894
 10
-204.95932056
 20
-183.98378907
 10
-204.9432081
 20
-183.97213062
 10
-204.92593787
 20
-183.96137948
 10
-204.90760681
 20
-183.95159593
 10
-204.88831721
 20
-183.94283484
 10
-204.86817806
 20
-183.93514538
 10
-204.84730159
 20
-183.92857065
 10
-204.82580555
 20
-183.92314756
 10
-204.80380973
 20
-183.91890651
 10
-204.7814382
 20
-183.91587129
 10
-204.75881628
 20
-183.91405893
 10
-204.73607073
 20
-183.91347959
 10
-204.60610799
 20
-183.91438238
 10
-204.47617684
 20
-183.91664711
 10
-204.34630413
 20
-183.92027333
 10
-204.21651733
 20
-183.92526026
 10
-204.08684333
 20
-183.93160689
 10
-203.95730948
 20
-183.93931186
 10
-203.82794266
 20
-183.94837359
 10
-203.69876991
 20
-183.95879018
 10
-203.56981814
 20
-183.97055943
 10
-203.44111411
 20
-183.98367892
 10
-203.31268526
 20
-183.99814589
 10
-203.18455779
 20
-184.01395733
 10
-203.05675875
 20
-184.03110992
 10
-202.92931482
 20
-184.04960009
 10
-202.80225283
 20
-184.06942398
 10
-202.67559873
 20
-184.09057745
 10
-202.54937939
 20
-184.11305608
 10
-202.42362119
 20
-184.13685518
 10
-202.29835024
 20
-184.16196978
 10
-202.17359282
 20
-184.18839463
 10
-202.04937488
 20
-184.21612422
 10
-201.92572223
 20
-184.24515275
  0
LWPOLYLINE
  5
1B4
100
AcDbEntity
  8
Mst 1_1
 62
   137
  6
CONTINUOUS
370
     9
100
AcDbPolyline
 90
       45
 70
     1
 43
0.0
 38
1000.0
 39
-1000.0
 10
-205.04067476
 20
-192.11181941
 10
-205.04067476
 20
-192.22309
 10
-205.03982245
 20
-192.23958537
 10
-205.03727055
 20
-192.25598821
 10
-205.03303288
 20
-192.27220651
 10
-205.02713375
 20
-192.28814933
 10
-205.01960595
 20
-192.3037272
 10
-205.0104917
 20
-192.31885278
 10
-204.99984216
 20
-192.3334412
 10
-204.98771708
 20
-192.34741065
 10
-204.97418477
 20
-192.36068276
 10
-204.95932056
 20
-192.37318309
 10
-204.9432081
 20
-192.38484153
 10
-204.92593787
 20
-192.39559268
 10
-204.90760681
 20
-192.40537623
 10
-204.88831721
 20
-192.41413731
 10
-204.86817806
 20
-192.42182677
 10
-204.84730159
 20
-192.4284015
 10
-204.82580555
 20
-192.4338246
 10
-204.80380973
 20
-192.43806564
 10
-204.7814382
 20
-192.44110087
 10
-204.75881628
 20
-192.44291323
 10
-204.73607073
 20
-192.44349257
 10
-204.60610799
 20
-192.44258978
 10
-204.47617684
 20
-192.44032505
 10
-204.34630413
 20
-192.43669882
 10
-204.21651733
 20
-192.43171189
 10
-204.08684333
 20
-192.42536526
 10
-203.95730948
 20
-192.4176603
 10
-203.82794266
 20
-192.40859856
 10
-203.69876991
 20
-192.39818198
 10
-203.56981814
 20
-192.38641272
 10
-203.44111411
 20
-192.37329323
 10
-203.31268526
 20
-192.35882627
 10
-203.18455779
 20
-192.34301482
 10
-203.05675875
 20
-192.32586223
 10
-202.92931482
 20
-192.30737207
 10
-202.80225283
 20
-192.28754817
 10
-202.67559873
 20
-192.2663947
 10
-202.54937939
 20
-192.24391607
 10
-202.42362119
 20
-192.22011697
 10
-202.29835024
 20
-192.19500237
 10
-202.17359282
 20
-192.16857752
 10
-202.04937488
 20
-192.14084794
 10
-201.92572223
 20
-192.11181941
  0
LWPOLYLINE
  5
1B5
100
AcDbEntity
  8
Mst 1_1
 62
   137
  6
CONTINUOUS
370
     9
100
AcDbPolyline
 90
       45
 70
     1
 43
0.0
 38
1000.0
 39
-1000.0
 10
-192.9784983
 20
-192.11181941
 10
-192.9784983
 20
-192.22309
 10
-192.97764597
 20
-192.23958537
 10
-192.97509395
 20
-192.25598821
 10
-192.9708564
 20
-192.27220651
 10
-192.96495713
 20
-192.28814933
 10
-192.95742935
 20
-192.3037272
 10
-192.94831507
 20
-192.31885278
 10
-192.93766569
 20
-192.3334412
 10
-192.92554061
 20
-192.34741065
 10
-192.91200813
 20
-192.36068276
 10
-192.89714394
 20
-192.37318309
 10
-192.88103163
 20
-192.38484153
 10
-192.8637614
 20
-192.39559268
 10
-192.84543019
 20
-192.40537623
 10
-192.82614076
 20
-192.41413731
 10
-192.80600143
 20
-192.42182677
 10
-192.78512511
 20
-192.4284015
 10
-192.76362892
 20
-192.4338246
 10
-192.74163327
 20
-192.43806564
 10
-192.71926187
 20
-192.44110087
 10
-192.69663983
 20
-192.44291323
 10
-192.67389423
 20
-192.44349257
 10
-192.54393151
 20
-192.44258978
 10
-192.4140002
 20
-192.44032505
 10
-192.2841275
 20
-192.43669882
 10
-192.15434071
 20
-192.43171189
 10
-192.02466683
 20
-192.42536526
 10
-191.89513303
 20
-192.4176603
 10
-191.76576605
 20
-192.40859856
 10
-191.63659327
 20
-192.39818198
 10
-191.50764154
 20
-192.38641272
 10
-191.37893766
 20
-192.37329323
 10
-191.25050863
 20
-192.35882627
 10
-191.12238131
 20
-192.34301482
 10
-190.99458227
 20
-192.32586223
 10
-190.86713849
 20
-192.30737207
 10
-190.74007623
 20
-192.28754817
 10
-190.61342225
 20
-192.2663947
 10
-190.48720294
 20
-192.24391607
 10
-190.36144472
 20
-192.22011697
 10
-190.23617374
 20
-192.19500237
 10
-190.11141619
 20
-192.16857752
 10
-189.98719828
 20
-192.14084794
 10
-189.86354576
 20
-192.11181941
  0
LWPOLYLINE
  5
1B6
100
AcDbEntity
  8
Mst 1_1
 62
   137
  6
CONTINUOUS
370
     9
100
AcDbPolyline
 90
       45
 70
     1
 43
0.0
 38
1000.0
 39
-1000.0
 10
-192.9784983
 20
-184.24515275
 10
-192.9784983
 20
-184.13388215
 10
-192.97764597
 20
-184.11738679
 10
-192.97509395
 20
-184.10098395
 10
-192.9708564
 20
-184.08476564
 10
-192.96495713
 20
-184.06882283
 10
-192.95742935
 20
-184.05324495
 10
-192.94831507
 20
-184.03811938
 10
-192.93766569
 20
-184.02353096
 10
-192.92554061
 20
-184.00956151
 10
-192.91200813
 20
-183.9962894
 10
-192.89714394
 20
-183.98378907
 10
-192.88103163
 20
-183.97213062
 10
-192.8637614
 20
-183.96137948
 10
-192.84543019
 20
-183.95159593
 10
-192.82614076
 20
-183.94283484
 10
-192.80600143
 20
-183.93514538
 10
-192.78512511
 20
-183.92857065
 10
-192.76362892
 20
-183.92314756
 10
-192.74163327
 20
-183.91890651
 10
-192.71926187
 20
-183.91587129
 10
-192.69663983
 20
-183.91405893
 10
-192.67389423
 20
-183.91347959
 10
-192.54393151
 20
-183.91438238
 10
-192.4140002
 20
-183.91664711
 10
-192.2841275
 20
-183.92027333
 10
-192.15434071
 20
-183.92526026
 10
-192.02466683
 20
-183.93160689
 10
-191.89513303
 20
-183.93931186
 10
-191.76576605
 20
-183.94837359
 10
-191.63659327
 20
-183.95879018
 10
-191.50764154
 20
-183.97055943
 10
-191.37893766
 20
-183.98367892
 10
-191.25050863
 20
-183.99814589
 10
-191.12238131
 20
-184.01395733
 10
-190.99458227
 20
-184.03110992
 10
-190.86713849
 20
-184.04960009
 10
-190.74007623
 20
-184.06942398
 10
-190.61342225
 20
-184.09057745
 10
-190.48720294
 20
-184.11305608
 10
-190.36144472
 20
-184.13685518
 10
-190.23617374
 20
-184.16196978
 10
-190.11141619
 20
-184.18839463
 10
-189.98719828
 20
-184.21612422
 10
-189.86354576
 20
-184.24515275
  0
LWPOLYLINE
  5
1B7
100
AcDbEntity
  8
Mst 1_1
 62
   137
  6
CONTINUOUS
370
    15
100
AcDbPolyline
 90
       46
 70
     0
 43
0.0
 10
-184.65845844
 20
-184.24515275
 10
-182.45239782
 20
-184.24515275
 10
-182.36996826
 20
-184.24888102
 10
-182.28799969
 20
-184.26004498
 10
-182.2069505
 20
-184.2785822
 10
-182.12727393
 20
-184.304389
 10
-182.0494156
 20
-184.33732108
 10
-181.97381091
 20
-184.37719425
 10
-181.90088267
 20
-184.42378554
 10
-181.83103873
 20
-184.47683438
 10
-181.76466967
 20
-184.5360441
 10
-181.70214668
 20
-184.60108358
 10
-181.64381939
 20
-184.67158909
 10
-181.59001401
 20
-184.74716634
 10
-181.54103142
 20
-184.82739267
 10
-181.49714556
 20
-184.91181941
 10
-181.45860186
 20
-184.99997443
 10
-181.42561587
 20
-185.09136471
 10
-181.39837206
 20
-185.18547918
 10
-181.37702279
 20
-185.2817915
 10
-181.36168745
 20
-185.37976306
 10
-181.35245181
 20
-185.47884595
 10
-181.34936752
 20
-185.57848608
 10
-181.34936752
 20
-190.77848608
 10
-181.35245181
 20
-190.8781262
 10
-181.36168745
 20
-190.9772091
 10
-181.37702279
 20
-191.07518065
 10
-181.39837206
 20
-191.17149298
 10
-181.42561587
 20
-191.26560744
 10
-181.45860186
 20
-191.35699773
 10
-181.49714556
 20
-191.44515274
 10
-181.54103142
 20
-191.52957949
 10
-181.59001401
 20
-191.60980581
 10
-181.64381939
 20
-191.68538306
 10
-181.70214668
 20
-191.75588857
 10
-181.76466967
 20
-191.82092805
 10
-181.83103873
 20
-191.88013777
 10
-181.90088267
 20
-191.93318661
 10
-181.97381091
 20
-191.9797779
 10
-182.0494156
 20
-192.01965107
 10
-182.12727393
 20
-192.05258315
 10
-182.2069505
 20
-192.07838996
 10
-182.28799969
 20
-192.09692718
 10
-182.36996826
 20
-192.10809114
 10
-182.45239782
 20
-192.11181941
 10
-184.65845844
 20
-192.11181941
  0
LWPOLYLINE
  5
1B8
100
AcDbEntity
  8
Mst 1_1
 62
   137
  6
CONTINUOUS
370
    15
100
AcDbPolyline
 90
       46
 70
     0
 43
0.0
 10
-196.72063506
 20
-184.24515275
 10
-194.51457435
 20
-184.24515275
 10
-194.43214475
 20
-184.24888102
 10
-194.35017618
 20
-184.26004498
 10
-194.26912703
 20
-184.2785822
 10
-194.1894505
 20
-184.304389
 10
-194.11159215
 20
-184.33732108
 10
-194.03598737
 20
-184.37719425
 10
-193.96305924
 20
-184.42378554
 10
-193.89321533
 20
-184.47683438
 10
-193.82684621
 20
-184.5360441
 10
-193.76432314
 20
-184.60108358
 10
-193.70599595
 20
-184.67158909
 10
-193.65219058
 20
-184.74716634
 10
-193.60320801
 20
-184.82739267
 10
-193.55932204
 20
-184.91181941
 10
-193.52077841
 20
-184.99997443
 10
-193.4877924
 20
-185.09136471
 10
-193.46054863
 20
-185.18547918
 10
-193.43919931
 20
-185.2817915
 10
-193.42386403
 20
-185.37976306
 10
-193.41462835
 20
-185.47884595
 10
-193.41154399
 20
-185.57848608
 10
-193.41154399
 20
-190.77848608
 10
-193.41462835
 20
-190.8781262
 10
-193.42386403
 20
-190.9772091
 10
-193.43919931
 20
-191.07518065
 10
-193.46054863
 20
-191.17149298
 10
-193.4877924
 20
-191.26560744
 10
-193.52077841
 20
-191.35699773
 10
-193.55932204
 20
-191.44515274
 10
-193.60320801
 20
-191.52957949
 10
-193.65219058
 20
-191.60980581
 10
-193.70599595
 20
-191.68538306
 10
-193.76432314
 20
-191.75588857
 10
-193.82684621
 20
-191.82092805
 10
-193.89321533
 20
-191.88013777
 10
-193.96305924
 20
-191.93318661
 10
-194.03598737
 20
-191.9797779
 10
-194.11159215
 20
-192.01965107
 10
-194.1894505
 20
-192.05258315
 10
-194.26912703
 20
-192.07838996
 10
-194.35017618
 20
-192.09692718
 10
-194.43214475
 20
-192.10809114
 10
-194.51457435
 20
-192.11181941
 10
-196.72063506
 20
-192.11181941
  0
LINE
  5
1B9
100
AcDbEntity
  8
Mst 1_1
 62
   137
370
    15
100
AcDbLine
 10
-228.34936752
 20
-183.17848608
 30
100.0
 11
-226.34936752
 21
-184.17848608
 31
100.0
  0
LINE
  5
1BA
100
AcDbEntity
  8
Mst 1_1
 62
   137
370
    15
100
AcDbLine
 10
-228.34936752
 20
-193.17848608
 30
100.0
 11
-228.34936752
 21
-183.17848608
 31
100.0
  0
LINE
  5
1BB
100
AcDbEntity
  8
Mst 1_1
 62
   137
370
    15
100
AcDbLine
 10
-228.34936752
 20
-193.17848608
 30
100.0
 11
-226.34936752
 21
-192.17848608
 31
100.0
  0
LINE
  5
1BC
100
AcDbEntity
  8
Mst 1_1
 62
   137
370
    15
100
AcDbLine
 10
-228.34936752
 20
-183.17848608
 30
100.0
 11
-321.34936752
 21
-183.17848608
 31
100.0
  0
LINE
  5
1BD
100
AcDbEntity
  8
Mst 1_1
 62
   137
370
    15
100
AcDbLine
 10
-228.34936752
 20
-193.17848608
 30
100.0
 11
-321.34936752
 21
-193.17848608
 31
100.0
  0
LINE
  5
1BE
100
AcDbEntity
  8
Mst 1_1
 62
   137
370
    15
100
AcDbLine
 10
-321.34936752
 20
-183.17848608
 30
100.0
 11
-321.34936752
 21
-193.17848608
 31
100.0
  0
LWPOLYLINE
  5
1BF
100
AcDbEntity
  8
Mst 1_1
 62
   137
370
    15
100
AcDbPolyline
 90
        5
 70
     0
 43
0.0
 38
100.0
 10
-314.34936752
 20
-185.17848608
 10
-371.84936752
 20
-185.17848608
 10
-371.84936752
 20
-191.17848608
 10
-314.34936752
 20
-191.17848608
 10
-314.34936752
 20
-185.17848608
  0
LWPOLYLINE
  5
1C0
100
AcDbEntity
  8
Mst 1_1
 62
   137
370
    15
100
AcDbPolyline
 90
        4
 70
     0
 43
0.0
 38
100.0
 10
-314.34936752
 20
-185.17848608
 10
-313.34936752
 20
-186.17848608
 10
-313.34936752
 20
-190.17848608
 10
-314.34936752
 20
-191.17848608
  0
LINE
  5
1C1
100
AcDbEntity
  8
Mst 1_1
 62
   137
370
    15
100
AcDbLine
 10
-313.34936752
 20
-186.17848608
 30
100.0
 11
-371.84936752
 21
-186.17848608
 31
100.0
  0
LINE
  5
1C2
100
AcDbEntity
  8
Mst 1_1
 62
   137
370
    15
100
AcDbLine
 10
-313.34936752
 20
-190.17848608
 30
100.0
 11
-371.84936752
 21
-190.17848608
 31
100.0
  0
LWPOLYLINE
  5
1C3
100
AcDbEntity
  8
Mst 1_1
 62
   137
370
    15
100
AcDbPolyline
 90
        6
 70
     0
 43
0.0
 38
100.0
 10
-373.34936752
 20
-185.17848608
 10
-373.34936752
 20
-179.17848608
 10
-371.84936752
 20
-179.17848608
 10
-371.84936752
 20
-197.17848608
 10
-373.34936752
 20
-197.17848608
 10
-373.34936752
 20
-185.17848608
  0
LWPOLYLINE
  5
1C4
100
AcDbEntity
  8
Mst 1_1
 62
   137
370
    15
100
AcDbPolyline
 90
        5
 70
     0
 43
0.0
 38
100.0
 10
-373.34936752
 20
-181.37848608
 10
-374.34936752
 20
-181.37848608
 10
-374.34936752
 20
-194.97848608
 10
-373.34936752
 20
-194.97848608
 10
-373.34936752
 20
-181.37848608
  0
LWPOLYLINE
  5
1C5
100
AcDbEntity
  8
Mst 1_1
 62
   137
370
    15
100
AcDbPolyline
 90
        5
 70
     0
 43
0.0
 38
100.0
 10
-374.34936752
 20
-183.32848608
 10
-375.64936752
 20
-185.02848608
 10
-375.64936752
 20
-191.32848608
 10
-374.34936752
 20
-193.02848608
 10
-374.34936752
 20
-183.32848608
  0
CIRCLE
  5
1C6
100
AcDbEntity
  8
Mst 1_1
 62
   137
  6
CONTINUOUS
370
     9
100
AcDbCircle
 10
-436.9250338
 20
-158.17848608
 30
0.0
 40
1.88177431
  0
CIRCLE
  5
1C7
100
AcDbEntity
  8
Mst 1_1
 62
   137
  6
CONTINUOUS
370
     9
100
AcDbCircle
 10
-436.9250338
 20
-158.17848608
 30
0.0
 40
1.88177431
  0
CIRCLE
  5
1C8
100
AcDbEntity
  8
Mst 1_1
 62
   137
  6
CONTINUOUS
370
     9
100
AcDbCircle
 10
-436.9250338
 20
-158.17848608
 30
0.0
 40
1.88177431
  0
CIRCLE
  5
1C9
100
AcDbEntity
  8
Mst 1_1
 62
   137
  6
CONTINUOUS
370
     9
100
AcDbCircle
 10
-436.9250338
 20
-158.17848608
 30
0.0
 40
2.97217223
  0
CIRCLE
  5
1CA
100
AcDbEntity
  8
Mst 1_1
 62
   137
  6
CONTINUOUS
370
     9
100
AcDbCircle
 10
-436.9250338
 20
-158.17848608
 30
0.0
 40
4.56609304
  0
CIRCLE
  5
1CB
100
AcDbEntity
  8
Mst 1_1
 62
   137
  6
CONTINUOUS
370
     9
100
AcDbCircle
 10
-436.9250338
 20
-158.17848608
 30
0.0
 40
1.9962351
  0
CIRCLE
  5
1CC
100
AcDbEntity
  8
Mst 1_1
 62
   137
  6
CONTINUOUS
370
     9
100
AcDbCircle
 10
-436.9250338
 20
-158.17848608
 30
0.0
 40
8.74999999
  0
ARC
  5
1CD
100
AcDbEntity
  8
Mst 1_1
 62
   137
  6
CONTINUOUS
370
    15
100
AcDbCircle
 10
-439.35955338
 20
-158.17848608
 30
0.0
 40
0.53765266
100
AcDbArc
 50
104.00039951
 51
255.99961051
  0
ARC
  5
1CE
100
AcDbEntity
  8
Mst 1_1
 62
   137
  6
CONTINUOUS
370
    15
100
AcDbCircle
 10
-439.76894583
 20
-159.8204195
 30
0.0
 40
1.15454932
100
AcDbArc
 50
344.00042282
 51
75.99958535
  0
ARC
  5
1CF
100
AcDbEntity
  8
Mst 1_1
 62
   137
  6
CONTINUOUS
370
    15
100
AcDbCircle
 10
-438.14229355
 20
-160.28684189
 30
0.0
 40
0.53765264
100
AcDbArc
 50
164.00040911
 51
315.99959504
  0
ARC
  5
1D0
100
AcDbEntity
  8
Mst 1_1
 62
   137
  6
CONTINUOUS
370
    15
100
AcDbCircle
 10
-436.9250338
 20
-161.4623527
 30
0.0
 40
1.15454918
100
AcDbArc
 50
44.00040429
 51
135.99959571
  0
ARC
  5
1D1
100
AcDbEntity
  8
Mst 1_1
 62
   137
  6
CONTINUOUS
370
    15
100
AcDbCircle
 10
-435.707774
 20
-160.28684197
 30
0.0
 40
0.53765261
100
AcDbArc
 50
224.00041508
 51
15.9996008
  0
ARC
  5
1D2
100
AcDbEntity
  8
Mst 1_1
 62
   137
  6
CONTINUOUS
370
    15
100
AcDbCircle
 10
-434.49051422
 20
-158.17848608
 30
0.0
 40
0.53765266
100
AcDbArc
 50
284.00040953
 51
75.99960049
  0
ARC
  5
1D3
100
AcDbEntity
  8
Mst 1_1
 62
   137
  6
CONTINUOUS
370
    15
100
AcDbCircle
 10
-434.08112177
 20
-156.53655266
 30
0.0
 40
1.15454932
100
AcDbArc
 50
164.00041281
 51
255.99959537
  0
ARC
  5
1D4
100
AcDbEntity
  8
Mst 1_1
 62
   137
  6
CONTINUOUS
370
    15
100
AcDbCircle
 10
-435.70777405
 20
-156.07013027
 30
0.0
 40
0.53765264
100
AcDbArc
 50
344.00041913
 51
135.99958502
  0
ARC
  5
1D5
100
AcDbEntity
  8
Mst 1_1
 62
   137
  6
CONTINUOUS
370
    15
100
AcDbCircle
 10
-436.9250338
 20
-154.89461945
 30
0.0
 40
1.15454918
100
AcDbArc
 50
224.00041431
 51
315.99960573
  0
ARC
  5
1D6
100
AcDbEntity
  8
Mst 1_1
 62
   137
  6
CONTINUOUS
370
    15
100
AcDbCircle
 10
-438.1422936
 20
-156.07013019
 30
0.0
 40
0.53765261
100
AcDbArc
 50
44.00040506
 51
195.99961082
  0
ARC
  5
1D7
100
AcDbEntity
  8
Mst 1_1
 62
   137
  6
CONTINUOUS
370
    15
100
AcDbCircle
 10
-439.76894583
 20
-156.53655266
 30
0.0
 40
1.15454932
100
AcDbArc
 50
284.00042461
 51
15.99958726
  0
CIRCLE
  5
1D8
100
AcDbEntity
  8
Mst 1_1
 62
   137
  6
CONTINUOUS
370
     9
100
AcDbCircle
 10
-436.9250338
 20
-158.17848608
 30
0.0
 40
6.8
  0
ARC
  5
1D9
100
AcDbEntity
  8
Mst 1_1
 62
   137
  6
CONTINUOUS
370
    15
100
AcDbCircle
 10
-434.08112177
 20
-159.8204195
 30
0.0
 40
1.15454932
100
AcDbArc
 50
104.00041459
 51
195.99959727
  0
CIRCLE
  5
1DA
100
AcDbEntity
  8
Mst 1_1
 62
   137
  6
CONTINUOUS
370
     9
100
AcDbCircle
 10
-436.9250338
 20
-188.17848608
 30
0.0
 40
1.88177431
  0
CIRCLE
  5
1DB
100
AcDbEntity
  8
Mst 1_1
 62
   137
  6
CONTINUOUS
370
     9
100
AcDbCircle
 10
-436.9250338
 20
-188.17848608
 30
0.0
 40
1.88177431
  0
CIRCLE
  5
1DC
100
AcDbEntity
  8
Mst 1_1
 62
   137
  6
CONTINUOUS
370
     9
100
AcDbCircle
 10
-436.9250338
 20
-188.17848608
 30
0.0
 40
1.88177431
  0
CIRCLE
  5
1DD
100
AcDbEntity
  8
Mst 1_1
 62
   137
  6
CONTINUOUS
370
     9
100
AcDbCircle
 10
-436.9250338
 20
-188.17848608
 30
0.0
 40
2.97217223
  0
CIRCLE
  5
1DE
100
AcDbEntity
  8
Mst 1_1
 62
   137
  6
CONTINUOUS
370
     9
100
AcDbCircle
 10
-436.9250338
 20
-188.17848608
 30
0.0
 40
4.56609304
  0
CIRCLE
  5
1DF
100
AcDbEntity
  8
Mst 1_1
 62
   137
  6
CONTINUOUS
370
     9
100
AcDbCircle
 10
-436.9250338
 20
-188.17848608
 30
0.0
 40
1.9962351
  0
CIRCLE
  5
1E0
100
AcDbEntity
  8
Mst 1_1
 62
   137
  6
CONTINUOUS
370
     9
100
AcDbCircle
 10
-436.9250338
 20
-188.17848608
 30
0.0
 40
8.74999999
  0
ARC
  5
1E1
100
AcDbEntity
  8
Mst 1_1
 62
   137
  6
CONTINUOUS
370
    15
100
AcDbCircle
 10
-439.35955338
 20
-188.17848608
 30
0.0
 40
0.53765266
100
AcDbArc
 50
104.00039951
 51
255.99961051
  0
ARC
  5
1E2
100
AcDbEntity
  8
Mst 1_1
 62
   137
  6
CONTINUOUS
370
    15
100
AcDbCircle
 10
-439.76894583
 20
-189.8204195
 30
0.0
 40
1.15454932
100
AcDbArc
 50
344.00042282
 51
75.99958535
  0
ARC
  5
1E3
100
AcDbEntity
  8
Mst 1_1
 62
   137
  6
CONTINUOUS
370
    15
100
AcDbCircle
 10
-438.14229355
 20
-190.28684189
 30
0.0
 40
0.53765264
100
AcDbArc
 50
164.00040911
 51
315.99959504
  0
ARC
  5
1E4
100
AcDbEntity
  8
Mst 1_1
 62
   137
  6
CONTINUOUS
370
    15
100
AcDbCircle
 10
-436.9250338
 20
-191.4623527
 30
0.0
 40
1.15454918
100
AcDbArc
 50
44.00040429
 51
135.99959571
  0
ARC
  5
1E5
100
AcDbEntity
  8
Mst 1_1
 62
   137
  6
CONTINUOUS
370
    15
100
AcDbCircle
 10
-435.707774
 20
-190.28684197
 30
0.0
 40
0.53765261
100
AcDbArc
 50
224.00041508
 51
15.9996008
  0
ARC
  5
1E6
100
AcDbEntity
  8
Mst 1_1
 62
   137
  6
CONTINUOUS
370
    15
100
AcDbCircle
 10
-434.49051422
 20
-188.17848608
 30
0.0
 40
0.53765266
100
AcDbArc
 50
284.00040953
 51
75.99960049
  0
ARC
  5
1E7
100
AcDbEntity
  8
Mst 1_1
 62
   137
  6
CONTINUOUS
370
    15
100
AcDbCircle
 10
-434.08112177
 20
-186.53655266
 30
0.0
 40
1.15454932
100
AcDbArc
 50
164.00041281
 51
255.99959537
  0
ARC
  5
1E8
100
AcDbEntity
  8
Mst 1_1
 62
   137
  6
CONTINUOUS
370
    15
100
AcDbCircle
 10
-435.70777405
 20
-186.07013027
 30
0.0
 40
0.53765264
100
AcDbArc
 50
344.00041913
 51
135.99958502
  0
ARC
  5
1E9
100
AcDbEntity
  8
Mst 1_1
 62
   137
  6
CONTINUOUS
370
    15
100
AcDbCircle
 10
-436.9250338
 20
-184.89461945
 30
0.0
 40
1.15454918
100
AcDbArc
 50
224.00041431
 51
315.99960573
  0
ARC
  5
1EA
100
AcDbEntity
  8
Mst 1_1
 62
   137
  6
CONTINUOUS
370
    15
100
AcDbCircle
 10
-438.1422936
 20
-186.07013019
 30
0.0
 40
0.53765261
100
AcDbArc
 50
44.00040506
 51
195.99961082
  0
ARC
  5
1EB
100
AcDbEntity
  8
Mst 1_1
 62
   137
  6
CONTINUOUS
370
    15
100
AcDbCircle
 10
-439.76894583
 20
-186.53655266
 30
0.0
 40
1.15454932
100
AcDbArc
 50
284.00042461
 51
15.99958726
  0
CIRCLE
  5
1EC
100
AcDbEntity
  8
Mst 1_1
 62
   137
  6
CONTINUOUS
370
     9
100
AcDbCircle
 10
-436.9250338
 20
-188.17848608
 30
0.0
 40
6.8
  0
ARC
  5
1ED
100
AcDbEntity
  8
Mst 1_1
 62
   137
  6
CONTINUOUS
370
    15
100
AcDbCircle
 10
-434.08112177
 20
-189.8204195
 30
0.0
 40
1.15454932
100
AcDbArc
 50
104.00041459
 51
195.99959727
  0
LINE
  5
1EE
100
AcDbEntity
  8
Mst 1_1
 62
     7
  6
DASHED
370
    -3
100
AcDbLine
 10
-181.42561587
 20
-168.17848608
 30
0.0
 11
-181.42561587
 21
-203.17848608
 31
0.0
  0
LINE
  5
1EF
100
AcDbEntity
  8
Mst 1_1
 62
   137
370
    15
100
AcDbLine
 10
-173.08110465
 20
-214.17848608
 30
0.0
 11
-173.08110465
 21
-222.17848608
 31
0.0
  0
LINE
  5
1F0
100
AcDbEntity
  8
Mst 1_1
 62
   137
370
    15
100
AcDbLine
 10
-173.08110465
 20
-214.89415275
 30
0.0
 11
-173.08110465
 21
-221.46281941
 31
0.0
  0
LINE
  5
1F1
100
AcDbEntity
  8
Mst 1_1
 62
   137
370
    15
100
AcDbLine
 10
-173.08110465
 20
-222.17848608
 30
0.0
 11
-186.34936752
 21
-222.17848608
 31
0.0
  0
LINE
  5
1F2
100
AcDbEntity
  8
Mst 1_1
 62
   137
370
    15
100
AcDbLine
 10
-173.08110465
 20
-221.79948608
 30
0.0
 11
-186.34936752
 21
-221.79948608
 31
0.0
  0
LINE
  5
1F3
100
AcDbEntity
  8
Mst 1_1
 62
   137
370
    15
100
AcDbLine
 10
-173.08110465
 20
-214.17848608
 30
0.0
 11
-186.34936752
 21
-214.17848608
 31
0.0
  0
LINE
  5
1F4
100
AcDbEntity
  8
Mst 1_1
 62
   137
370
    15
100
AcDbLine
 10
-173.08110465
 20
-214.55748608
 30
0.0
 11
-186.34936752
 21
-214.55748608
 31
0.0
  0
LINE
  5
1F5
100
AcDbEntity
  8
Mst 1_1
 62
   137
370
    15
100
AcDbLine
 10
-172.34936752
 20
-214.55748608
 30
0.0
 11
-172.34936752
 21
-221.79948608
 31
0.0
  0
LINE
  5
1F6
100
AcDbEntity
  8
Mst 1_1
 62
     1
  6
CADWORK_8
370
    15
100
AcDbLine
 10
-128.34936752
 20
-218.17848608
 30
0.0
 11
-380.64936752
 21
-218.17848608
 31
0.0
  0
LWPOLYLINE
  5
1F7
100
AcDbEntity
  8
Mst 1_1
 62
     7
  6
CONTINUOUS
370
    -3
100
AcDbPolyline
 90
        7
 70
     0
 43
0.0
 10
-186.34936752
 20
-232.27848608
 10
-186.34936752
 20
-222.27848608
 10
-135.71650362
 20
-222.27848608
 10
-133.34936752
 20
-218.17848608
 10
-135.71650362
 20
-214.07848608
 10
-186.34936752
 20
-214.07848608
 10
-186.34936752
 20
-204.07848608
  0
LINE
  5
1F8
100
AcDbEntity
  8
Mst 1_1
 62
     1
  6
CADWORK_8
370
    15
100
AcDbLine
 10
-186.34936752
 20
-214.17848608
 30
0.0
 11
-186.34936752
 21
-222.17848608
 31
0.0
  0
LWPOLYLINE
  5
1F9
100
AcDbEntity
  8
Mst 1_1
 62
   137
  6
CONTINUOUS
370
    15
100
AcDbPolyline
 90
        3
 70
     0
 43
0.0
 10
-173.08110465
 20
-214.17848608
 10
-172.34936752
 20
-214.55748608
 10
-171.68270085
 20
-214.55748608
  0
LWPOLYLINE
  5
1FA
100
AcDbEntity
  8
Mst 1_1
 62
   137
  6
CONTINUOUS
370
    15
100
AcDbPolyline
 90
        3
 70
     0
 43
0.0
 10
-173.08110465
 20
-222.17848608
 10
-172.34936752
 20
-221.79948608
 10
-171.68270085
 20
-221.79948608
  0
LINE
  5
1FB
100
AcDbEntity
  8
Mst 1_1
 62
   137
370
    15
100
AcDbLine
 10
-171.68270085
 20
-214.17848608
 30
0.0
 11
-165.47510023
 21
-214.17848608
 31
0.0
  0
LINE
  5
1FC
100
AcDbEntity
  8
Mst 1_1
 62
   137
370
    15
100
AcDbLine
 10
-171.68270085
 20
-222.17848608
 30
0.0
 11
-165.47510023
 21
-222.17848608
 31
0.0
  0
LINE
  5
1FD
100
AcDbEntity
  8
Mst 1_1
 62
   137
370
    15
100
AcDbLine
 10
-147.3126251
 20
-214.84003415
 30
0.0
 11
-144.65845844
 21
-214.24515275
 31
0.0
  0
LINE
  5
1FE
100
AcDbEntity
  8
Mst 1_1
 62
   137
370
    15
100
AcDbLine
 10
-147.3126251
 20
-221.516938
 30
0.0
 11
-144.65845844
 21
-222.11181941
 31
0.0
  0
LINE
  5
1FF
100
AcDbEntity
  8
Mst 1_1
 62
   137
370
    15
100
AcDbLine
 10
-142.35421678
 20
-214.24515275
 30
0.0
 11
-142.35421678
 21
-222.11181941
 31
0.0
  0
LINE
  5
200
100
AcDbEntity
  8
Mst 1_1
 62
   137
370
    15
100
AcDbLine
 10
-144.65845844
 20
-214.24515275
 30
0.0
 11
-144.65845844
 21
-222.11181941
 31
0.0
  0
LINE
  5
201
100
AcDbEntity
  8
Mst 1_1
 62
   137
370
    15
100
AcDbLine
 10
-171.68270085
 20
-214.17848608
 30
0.0
 11
-171.68270085
 21
-222.17848608
 31
0.0
  0
3DFACE
  5
202
100
AcDbEntity
  8
Mst 1_1
 62
   137
  6
CONTINUOUS
370
     9
100
AcDbFace
 70
     0
 10
-147.3126251
 20
-217.84515274
 30
1000.0
 11
-147.3126251
 21
-214.24515275
 31
1000.0
 12
-152.9784983
 22
-214.24515275
 32
1000.0
 13
-152.9784983
 23
-217.84515274
 33
1000.0
  0
3DFACE
  5
203
100
AcDbEntity
  8
Mst 1_1
 62
   137
  6
CONTINUOUS
370
     9
100
AcDbFace
 70
     0
 10
-147.3126251
 20
-218.51181941
 30
1000.0
 11
-147.3126251
 21
-222.11181941
 31
1000.0
 12
-152.9784983
 22
-222.11181941
 32
1000.0
 13
-152.9784983
 23
-218.51181941
 33
1000.0
  0
LINE
  5
204
100
AcDbEntity
  8
Mst 1_1
 62
   137
370
    15
100
AcDbLine
 10
-159.37480167
 20
-214.84003415
 30
0.0
 11
-156.72063506
 21
-214.24515275
 31
0.0
  0
LINE
  5
205
100
AcDbEntity
  8
Mst 1_1
 62
   137
370
    15
100
AcDbLine
 10
-159.37480167
 20
-221.516938
 30
0.0
 11
-156.72063506
 21
-222.11181941
 31
0.0
  0
LINE
  5
206
100
AcDbEntity
  8
Mst 1_1
 62
   137
370
    15
100
AcDbLine
 10
-154.41639326
 20
-214.24515275
 30
0.0
 11
-154.41639326
 21
-222.11181941
 31
0.0
  0
LINE
  5
207
100
AcDbEntity
  8
Mst 1_1
 62
   137
370
    15
100
AcDbLine
 10
-156.72063506
 20
-214.24515275
 30
0.0
 11
-156.72063506
 21
-222.11181941
 31
0.0
  0
3DFACE
  5
208
100
AcDbEntity
  8
Mst 1_1
 62
   137
  6
CONTINUOUS
370
     9
100
AcDbFace
 70
     0
 10
-159.37480167
 20
-217.84515274
 30
1000.0
 11
-159.37480167
 21
-214.24515275
 31
1000.0
 12
-165.04067476
 22
-214.24515275
 32
1000.0
 13
-165.04067476
 23
-217.84515274
 33
1000.0
  0
3DFACE
  5
209
100
AcDbEntity
  8
Mst 1_1
 62
   137
  6
CONTINUOUS
370
     9
100
AcDbFace
 70
     0
 10
-159.37480167
 20
-218.51181941
 30
1000.0
 11
-159.37480167
 21
-222.11181941
 31
1000.0
 12
-165.04067476
 22
-222.11181941
 32
1000.0
 13
-165.04067476
 23
-218.51181941
 33
1000.0
  0
LINE
  5
20A
100
AcDbEntity
  8
Mst 1_1
 62
   137
  6
CONTINUOUS
370
    15
100
AcDbLine
 10
-152.9784983
 20
-215.51181941
 30
1000.0
 11
-153.41292374
 21
-215.51181941
 31
1000.0
  0
LINE
  5
20B
100
AcDbEntity
  8
Mst 1_1
 62
   137
  6
CONTINUOUS
370
    15
100
AcDbLine
 10
-152.9784983
 20
-220.84515274
 30
1000.0
 11
-153.41292374
 21
-220.84515274
 31
1000.0
  0
LINE
  5
20C
100
AcDbEntity
  8
Mst 1_1
 62
   137
  6
CONTINUOUS
370
    15
100
AcDbLine
 10
-165.04067476
 20
-215.51181941
 30
1000.0
 11
-165.47510023
 21
-215.51181941
 31
1000.0
  0
LINE
  5
20D
100
AcDbEntity
  8
Mst 1_1
 62
   137
  6
CONTINUOUS
370
    15
100
AcDbLine
 10
-165.04067476
 20
-220.84515274
 30
1000.0
 11
-165.47510023
 21
-220.84515274
 31
1000.0
  0
LINE
  5
20E
100
AcDbEntity
  8
Mst 1_1
 62
   137
  6
CONTINUOUS
370
    15
100
AcDbLine
 10
-165.47510023
 20
-214.17848608
 30
1000.0
 11
-165.47510023
 21
-222.17848608
 31
1000.0
  0
LWPOLYLINE
  5
20F
100
AcDbEntity
  8
Mst 1_1
 62
   137
  6
CONTINUOUS
370
     9
100
AcDbPolyline
 90
       45
 70
     1
 43
0.0
 38
1000.0
 39
-1000.0
 10
-165.04067476
 20
-214.24515275
 10
-165.04067476
 20
-214.13388215
 10
-165.03982245
 20
-214.11738679
 10
-165.03727055
 20
-214.10098395
 10
-165.03303288
 20
-214.08476564
 10
-165.02713375
 20
-214.06882283
 10
-165.01960595
 20
-214.05324495
 10
-165.0104917
 20
-214.03811938
 10
-164.99984216
 20
-214.02353096
 10
-164.98771708
 20
-214.00956151
 10
-164.97418477
 20
-213.9962894
 10
-164.95932056
 20
-213.98378907
 10
-164.9432081
 20
-213.97213062
 10
-164.92593787
 20
-213.96137948
 10
-164.90760681
 20
-213.95159593
 10
-164.88831721
 20
-213.94283484
 10
-164.86817806
 20
-213.93514538
 10
-164.84730159
 20
-213.92857065
 10
-164.82580555
 20
-213.92314756
 10
-164.80380973
 20
-213.91890651
 10
-164.7814382
 20
-213.91587129
 10
-164.75881628
 20
-213.91405893
 10
-164.73607073
 20
-213.91347959
 10
-164.60610799
 20
-213.91438238
 10
-164.47617684
 20
-213.91664711
 10
-164.34630413
 20
-213.92027333
 10
-164.21651733
 20
-213.92526026
 10
-164.08684333
 20
-213.93160689
 10
-163.95730948
 20
-213.93931186
 10
-163.82794266
 20
-213.94837359
 10
-163.69876991
 20
-213.95879018
 10
-163.56981814
 20
-213.97055943
 10
-163.44111411
 20
-213.98367892
 10
-163.31268526
 20
-213.99814589
 10
-163.18455779
 20
-214.01395733
 10
-163.05675875
 20
-214.03110992
 10
-162.92931482
 20
-214.04960009
 10
-162.80225283
 20
-214.06942398
 10
-162.67559873
 20
-214.09057745
 10
-162.54937939
 20
-214.11305608
 10
-162.42362119
 20
-214.13685518
 10
-162.29835024
 20
-214.16196978
 10
-162.17359282
 20
-214.18839463
 10
-162.04937488
 20
-214.21612422
 10
-161.92572223
 20
-214.24515275
  0
LWPOLYLINE
  5
210
100
AcDbEntity
  8
Mst 1_1
 62
   137
  6
CONTINUOUS
370
     9
100
AcDbPolyline
 90
       45
 70
     1
 43
0.0
 38
1000.0
 39
-1000.0
 10
-165.04067476
 20
-222.11181941
 10
-165.04067476
 20
-222.22309
 10
-165.03982245
 20
-222.23958537
 10
-165.03727055
 20
-222.25598821
 10
-165.03303288
 20
-222.27220651
 10
-165.02713375
 20
-222.28814933
 10
-165.01960595
 20
-222.3037272
 10
-165.0104917
 20
-222.31885278
 10
-164.99984216
 20
-222.3334412
 10
-164.98771708
 20
-222.34741065
 10
-164.97418477
 20
-222.36068276
 10
-164.95932056
 20
-222.37318309
 10
-164.9432081
 20
-222.38484153
 10
-164.92593787
 20
-222.39559268
 10
-164.90760681
 20
-222.40537623
 10
-164.88831721
 20
-222.41413731
 10
-164.86817806
 20
-222.42182677
 10
-164.84730159
 20
-222.4284015
 10
-164.82580555
 20
-222.4338246
 10
-164.80380973
 20
-222.43806564
 10
-164.7814382
 20
-222.44110087
 10
-164.75881628
 20
-222.44291323
 10
-164.73607073
 20
-222.44349257
 10
-164.60610799
 20
-222.44258978
 10
-164.47617684
 20
-222.44032505
 10
-164.34630413
 20
-222.43669882
 10
-164.21651733
 20
-222.43171189
 10
-164.08684333
 20
-222.42536526
 10
-163.95730948
 20
-222.4176603
 10
-163.82794266
 20
-222.40859856
 10
-163.69876991
 20
-222.39818198
 10
-163.56981814
 20
-222.38641272
 10
-163.44111411
 20
-222.37329323
 10
-163.31268526
 20
-222.35882627
 10
-163.18455779
 20
-222.34301482
 10
-163.05675875
 20
-222.32586223
 10
-162.92931482
 20
-222.30737207
 10
-162.80225283
 20
-222.28754817
 10
-162.67559873
 20
-222.2663947
 10
-162.54937939
 20
-222.24391607
 10
-162.42362119
 20
-222.22011697
 10
-162.29835024
 20
-222.19500237
 10
-162.17359282
 20
-222.16857752
 10
-162.04937488
 20
-222.14084794
 10
-161.92572223
 20
-222.11181941
  0
LWPOLYLINE
  5
211
100
AcDbEntity
  8
Mst 1_1
 62
   137
  6
CONTINUOUS
370
     9
100
AcDbPolyline
 90
       45
 70
     1
 43
0.0
 38
1000.0
 39
-1000.0
 10
-152.9784983
 20
-222.11181941
 10
-152.9784983
 20
-222.22309
 10
-152.97764597
 20
-222.23958537
 10
-152.97509395
 20
-222.25598821
 10
-152.9708564
 20
-222.27220651
 10
-152.96495713
 20
-222.28814933
 10
-152.95742935
 20
-222.3037272
 10
-152.94831507
 20
-222.31885278
 10
-152.93766569
 20
-222.3334412
 10
-152.92554061
 20
-222.34741065
 10
-152.91200813
 20
-222.36068276
 10
-152.89714394
 20
-222.37318309
 10
-152.88103163
 20
-222.38484153
 10
-152.8637614
 20
-222.39559268
 10
-152.84543019
 20
-222.40537623
 10
-152.82614076
 20
-222.41413731
 10
-152.80600143
 20
-222.42182677
 10
-152.78512511
 20
-222.4284015
 10
-152.76362892
 20
-222.4338246
 10
-152.74163327
 20
-222.43806564
 10
-152.71926187
 20
-222.44110087
 10
-152.69663983
 20
-222.44291323
 10
-152.67389423
 20
-222.44349257
 10
-152.54393151
 20
-222.44258978
 10
-152.4140002
 20
-222.44032505
 10
-152.2841275
 20
-222.43669882
 10
-152.15434071
 20
-222.43171189
 10
-152.02466683
 20
-222.42536526
 10
-151.89513303
 20
-222.4176603
 10
-151.76576605
 20
-222.40859856
 10
-151.63659327
 20
-222.39818198
 10
-151.50764154
 20
-222.38641272
 10
-151.37893766
 20
-222.37329323
 10
-151.25050863
 20
-222.35882627
 10
-151.12238131
 20
-222.34301482
 10
-150.99458227
 20
-222.32586223
 10
-150.86713849
 20
-222.30737207
 10
-150.74007623
 20
-222.28754817
 10
-150.61342225
 20
-222.2663947
 10
-150.48720294
 20
-222.24391607
 10
-150.36144472
 20
-222.22011697
 10
-150.23617374
 20
-222.19500237
 10
-150.11141619
 20
-222.16857752
 10
-149.98719828
 20
-222.14084794
 10
-149.86354576
 20
-222.11181941
  0
LWPOLYLINE
  5
212
100
AcDbEntity
  8
Mst 1_1
 62
   137
  6
CONTINUOUS
370
     9
100
AcDbPolyline
 90
       45
 70
     1
 43
0.0
 38
1000.0
 39
-1000.0
 10
-152.9784983
 20
-214.24515275
 10
-152.9784983
 20
-214.13388215
 10
-152.97764597
 20
-214.11738679
 10
-152.97509395
 20
-214.10098395
 10
-152.9708564
 20
-214.08476564
 10
-152.96495713
 20
-214.06882283
 10
-152.95742935
 20
-214.05324495
 10
-152.94831507
 20
-214.03811938
 10
-152.93766569
 20
-214.02353096
 10
-152.92554061
 20
-214.00956151
 10
-152.91200813
 20
-213.9962894
 10
-152.89714394
 20
-213.98378907
 10
-152.88103163
 20
-213.97213062
 10
-152.8637614
 20
-213.96137948
 10
-152.84543019
 20
-213.95159593
 10
-152.82614076
 20
-213.94283484
 10
-152.80600143
 20
-213.93514538
 10
-152.78512511
 20
-213.92857065
 10
-152.76362892
 20
-213.92314756
 10
-152.74163327
 20
-213.91890651
 10
-152.71926187
 20
-213.91587129
 10
-152.69663983
 20
-213.91405893
 10
-152.67389423
 20
-213.91347959
 10
-152.54393151
 20
-213.91438238
 10
-152.4140002
 20
-213.91664711
 10
-152.2841275
 20
-213.92027333
 10
-152.15434071
 20
-213.92526026
 10
-152.02466683
 20
-213.93160689
 10
-151.89513303
 20
-213.93931186
 10
-151.76576605
 20
-213.94837359
 10
-151.63659327
 20
-213.95879018
 10
-151.50764154
 20
-213.97055943
 10
-151.37893766
 20
-213.98367892
 10
-151.25050863
 20
-213.99814589
 10
-151.12238131
 20
-214.01395733
 10
-150.99458227
 20
-214.03110992
 10
-150.86713849
 20
-214.04960009
 10
-150.74007623
 20
-214.06942398
 10
-150.61342225
 20
-214.09057745
 10
-150.48720294
 20
-214.11305608
 10
-150.36144472
 20
-214.13685518
 10
-150.23617374
 20
-214.16196978
 10
-150.11141619
 20
-214.18839463
 10
-149.98719828
 20
-214.21612422
 10
-149.86354576
 20
-214.24515275
  0
LWPOLYLINE
  5
213
100
AcDbEntity
  8
Mst 1_1
 62
   137
  6
CONTINUOUS
370
    15
100
AcDbPolyline
 90
       46
 70
     0
 43
0.0
 10
-144.65845844
 20
-214.24515275
 10
-142.45239782
 20
-214.24515275
 10
-142.36996826
 20
-214.24888102
 10
-142.28799969
 20
-214.26004498
 10
-142.2069505
 20
-214.2785822
 10
-142.12727393
 20
-214.304389
 10
-142.0494156
 20
-214.33732108
 10
-141.97381091
 20
-214.37719425
 10
-141.90088267
 20
-214.42378554
 10
-141.83103873
 20
-214.47683438
 10
-141.76466967
 20
-214.5360441
 10
-141.70214668
 20
-214.60108358
 10
-141.64381939
 20
-214.67158909
 10
-141.59001401
 20
-214.74716634
 10
-141.54103142
 20
-214.82739267
 10
-141.49714556
 20
-214.91181941
 10
-141.45860186
 20
-214.99997443
 10
-141.42561587
 20
-215.09136471
 10
-141.39837206
 20
-215.18547918
 10
-141.37702279
 20
-215.2817915
 10
-141.36168745
 20
-215.37976306
 10
-141.35245181
 20
-215.47884595
 10
-141.34936752
 20
-215.57848608
 10
-141.34936752
 20
-220.77848608
 10
-141.35245181
 20
-220.8781262
 10
-141.36168745
 20
-220.9772091
 10
-141.37702279
 20
-221.07518065
 10
-141.39837206
 20
-221.17149298
 10
-141.42561587
 20
-221.26560744
 10
-141.45860186
 20
-221.35699773
 10
-141.49714556
 20
-221.44515274
 10
-141.54103142
 20
-221.52957949
 10
-141.59001401
 20
-221.60980581
 10
-141.64381939
 20
-221.68538306
 10
-141.70214668
 20
-221.75588857
 10
-141.76466967
 20
-221.82092805
 10
-141.83103873
 20
-221.88013777
 10
-141.90088267
 20
-221.93318661
 10
-141.97381091
 20
-221.9797779
 10
-142.0494156
 20
-222.01965107
 10
-142.12727393
 20
-222.05258315
 10
-142.2069505
 20
-222.07838996
 10
-142.28799969
 20
-222.09692718
 10
-142.36996826
 20
-222.10809114
 10
-142.45239782
 20
-222.11181941
 10
-144.65845844
 20
-222.11181941
  0
LWPOLYLINE
  5
214
100
AcDbEntity
  8
Mst 1_1
 62
   137
  6
CONTINUOUS
370
    15
100
AcDbPolyline
 90
       46
 70
     0
 43
0.0
 10
-156.72063506
 20
-214.24515275
 10
-154.51457435
 20
-214.24515275
 10
-154.43214475
 20
-214.24888102
 10
-154.35017618
 20
-214.26004498
 10
-154.26912703
 20
-214.2785822
 10
-154.1894505
 20
-214.304389
 10
-154.11159215
 20
-214.33732108
 10
-154.03598737
 20
-214.37719425
 10
-153.96305924
 20
-214.42378554
 10
-153.89321533
 20
-214.47683438
 10
-153.82684621
 20
-214.5360441
 10
-153.76432314
 20
-214.60108358
 10
-153.70599595
 20
-214.67158909
 10
-153.65219058
 20
-214.74716634
 10
-153.60320801
 20
-214.82739267
 10
-153.55932204
 20
-214.91181941
 10
-153.52077841
 20
-214.99997443
 10
-153.4877924
 20
-215.09136471
 10
-153.46054863
 20
-215.18547918
 10
-153.43919931
 20
-215.2817915
 10
-153.42386403
 20
-215.37976306
 10
-153.41462835
 20
-215.47884595
 10
-153.41154399
 20
-215.57848608
 10
-153.41154399
 20
-220.77848608
 10
-153.41462835
 20
-220.8781262
 10
-153.42386403
 20
-220.9772091
 10
-153.43919931
 20
-221.07518065
 10
-153.46054863
 20
-221.17149298
 10
-153.4877924
 20
-221.26560744
 10
-153.52077841
 20
-221.35699773
 10
-153.55932204
 20
-221.44515274
 10
-153.60320801
 20
-221.52957949
 10
-153.65219058
 20
-221.60980581
 10
-153.70599595
 20
-221.68538306
 10
-153.76432314
 20
-221.75588857
 10
-153.82684621
 20
-221.82092805
 10
-153.89321533
 20
-221.88013777
 10
-153.96305924
 20
-221.93318661
 10
-154.03598737
 20
-221.9797779
 10
-154.11159215
 20
-222.01965107
 10
-154.1894505
 20
-222.05258315
 10
-154.26912703
 20
-222.07838996
 10
-154.35017618
 20
-222.09692718
 10
-154.43214475
 20
-222.10809114
 10
-154.51457435
 20
-222.11181941
 10
-156.72063506
 20
-222.11181941
  0
LINE
  5
215
100
AcDbEntity
  8
Mst 1_1
 62
   137
370
    15
100
AcDbLine
 10
-188.34936752
 20
-213.17848608
 30
100.0
 11
-186.34936752
 21
-214.17848608
 31
100.0
  0
LINE
  5
216
100
AcDbEntity
  8
Mst 1_1
 62
   137
370
    15
100
AcDbLine
 10
-188.34936752
 20
-223.17848608
 30
100.0
 11
-188.34936752
 21
-213.17848608
 31
100.0
  0
LINE
  5
217
100
AcDbEntity
  8
Mst 1_1
 62
   137
370
    15
100
AcDbLine
 10
-188.34936752
 20
-223.17848608
 30
100.0
 11
-186.34936752
 21
-222.17848608
 31
100.0
  0
LINE
  5
218
100
AcDbEntity
  8
Mst 1_1
 62
   137
370
    15
100
AcDbLine
 10
-188.34936752
 20
-213.17848608
 30
100.0
 11
-321.34936752
 21
-213.17848608
 31
100.0
  0
LINE
  5
219
100
AcDbEntity
  8
Mst 1_1
 62
   137
370
    15
100
AcDbLine
 10
-188.34936752
 20
-223.17848608
 30
100.0
 11
-321.34936752
 21
-223.17848608
 31
100.0
  0
LINE
  5
21A
100
AcDbEntity
  8
Mst 1_1
 62
   137
370
    15
100
AcDbLine
 10
-321.34936752
 20
-213.17848608
 30
100.0
 11
-321.34936752
 21
-223.17848608
 31
100.0
  0
LWPOLYLINE
  5
21B
100
AcDbEntity
  8
Mst 1_1
 62
   137
370
    15
100
AcDbPolyline
 90
        5
 70
     0
 43
0.0
 38
100.0
 10
-314.34936752
 20
-215.17848608
 10
-371.84936752
 20
-215.17848608
 10
-371.84936752
 20
-221.17848608
 10
-314.34936752
 20
-221.17848608
 10
-314.34936752
 20
-215.17848608
  0
LWPOLYLINE
  5
21C
100
AcDbEntity
  8
Mst 1_1
 62
   137
370
    15
100
AcDbPolyline
 90
        4
 70
     0
 43
0.0
 38
100.0
 10
-314.34936752
 20
-215.17848608
 10
-313.34936752
 20
-216.17848608
 10
-313.34936752
 20
-220.17848608
 10
-314.34936752
 20
-221.17848608
  0
LINE
  5
21D
100
AcDbEntity
  8
Mst 1_1
 62
   137
370
    15
100
AcDbLine
 10
-313.34936752
 20
-216.17848608
 30
100.0
 11
-371.84936752
 21
-216.17848608
 31
100.0
  0
LINE
  5
21E
100
AcDbEntity
  8
Mst 1_1
 62
   137
370
    15
100
AcDbLine
 10
-313.34936752
 20
-220.17848608
 30
100.0
 11
-371.84936752
 21
-220.17848608
 31
100.0
  0
LWPOLYLINE
  5
21F
100
AcDbEntity
  8
Mst 1_1
 62
   137
370
    15
100
AcDbPolyline
 90
        6
 70
     0
 43
0.0
 38
100.0
 10
-373.34936752
 20
-215.17848608
 10
-373.34936752
 20
-209.17848608
 10
-371.84936752
 20
-209.17848608
 10
-371.84936752
 20
-227.17848608
 10
-373.34936752
 20
-227.17848608
 10
-373.34936752
 20
-215.17848608
  0
LWPOLYLINE
  5
220
100
AcDbEntity
  8
Mst 1_1
 62
   137
370
    15
100
AcDbPolyline
 90
        5
 70
     0
 43
0.0
 38
100.0
 10
-373.34936752
 20
-211.37848608
 10
-374.34936752
 20
-211.37848608
 10
-374.34936752
 20
-224.97848608
 10
-373.34936752
 20
-224.97848608
 10
-373.34936752
 20
-211.37848608
  0
LWPOLYLINE
  5
221
100
AcDbEntity
  8
Mst 1_1
 62
   137
370
    15
100
AcDbPolyline
 90
        5
 70
     0
 43
0.0
 38
100.0
 10
-374.34936752
 20
-213.32848608
 10
-375.64936752
 20
-215.02848608
 10
-375.64936752
 20
-221.32848608
 10
-374.34936752
 20
-223.02848608
 10
-374.34936752
 20
-213.32848608
  0
CIRCLE
  5
222
100
AcDbEntity
  8
Mst 1_1
 62
   137
  6
CONTINUOUS
370
     9
100
AcDbCircle
 10
-436.9250338
 20
-218.17848608
 30
0.0
 40
1.88177431
  0
CIRCLE
  5
223
100
AcDbEntity
  8
Mst 1_1
 62
   137
  6
CONTINUOUS
370
     9
100
AcDbCircle
 10
-436.9250338
 20
-218.17848608
 30
0.0
 40
1.88177431
  0
CIRCLE
  5
224
100
AcDbEntity
  8
Mst 1_1
 62
   137
  6
CONTINUOUS
370
     9
100
AcDbCircle
 10
-436.9250338
 20
-218.17848608
 30
0.0
 40
1.88177431
  0
CIRCLE
  5
225
100
AcDbEntity
  8
Mst 1_1
 62
   137
  6
CONTINUOUS
370
     9
100
AcDbCircle
 10
-436.9250338
 20
-218.17848608
 30
0.0
 40
2.97217223
  0
CIRCLE
  5
226
100
AcDbEntity
  8
Mst 1_1
 62
   137
  6
CONTINUOUS
370
     9
100
AcDbCircle
 10
-436.9250338
 20
-218.17848608
 30
0.0
 40
4.56609304
  0
CIRCLE
  5
227
100
AcDbEntity
  8
Mst 1_1
 62
   137
  6
CONTINUOUS
370
     9
100
AcDbCircle
 10
-436.9250338
 20
-218.17848608
 30
0.0
 40
1.9962351
  0
CIRCLE
  5
228
100
AcDbEntity
  8
Mst 1_1
 62
   137
  6
CONTINUOUS
370
     9
100
AcDbCircle
 10
-436.9250338
 20
-218.17848608
 30
0.0
 40
8.74999999
  0
ARC
  5
229
100
AcDbEntity
  8
Mst 1_1
 62
   137
  6
CONTINUOUS
370
    15
100
AcDbCircle
 10
-439.35955338
 20
-218.17848608
 30
0.0
 40
0.53765266
100
AcDbArc
 50
104.00039951
 51
255.99961051
  0
ARC
  5
22A
100
AcDbEntity
  8
Mst 1_1
 62
   137
  6
CONTINUOUS
370
    15
100
AcDbCircle
 10
-439.76894583
 20
-219.8204195
 30
0.0
 40
1.15454932
100
AcDbArc
 50
344.00042282
 51
75.99958535
  0
ARC
  5
22B
100
AcDbEntity
  8
Mst 1_1
 62
   137
  6
CONTINUOUS
370
    15
100
AcDbCircle
 10
-438.14229355
 20
-220.28684189
 30
0.0
 40
0.53765264
100
AcDbArc
 50
164.00040911
 51
315.99959504
  0
ARC
  5
22C
100
AcDbEntity
  8
Mst 1_1
 62
   137
  6
CONTINUOUS
370
    15
100
AcDbCircle
 10
-436.9250338
 20
-221.4623527
 30
0.0
 40
1.15454918
100
AcDbArc
 50
44.00040429
 51
135.99959571
  0
ARC
  5
22D
100
AcDbEntity
  8
Mst 1_1
 62
   137
  6
CONTINUOUS
370
    15
100
AcDbCircle
 10
-435.707774
 20
-220.28684197
 30
0.0
 40
0.53765261
100
AcDbArc
 50
224.00041508
 51
15.9996008
  0
ARC
  5
22E
100
AcDbEntity
  8
Mst 1_1
 62
   137
  6
CONTINUOUS
370
    15
100
AcDbCircle
 10
-434.49051422
 20
-218.17848608
 30
0.0
 40
0.53765266
100
AcDbArc
 50
284.00040953
 51
75.99960049
  0
ARC
  5
22F
100
AcDbEntity
  8
Mst 1_1
 62
   137
  6
CONTINUOUS
370
    15
100
AcDbCircle
 10
-434.08112177
 20
-216.53655266
 30
0.0
 40
1.15454932
100
AcDbArc
 50
164.00041281
 51
255.99959537
  0
ARC
  5
230
100
AcDbEntity
  8
Mst 1_1
 62
   137
  6
CONTINUOUS
370
    15
100
AcDbCircle
 10
-435.70777405
 20
-216.07013027
 30
0.0
 40
0.53765264
100
AcDbArc
 50
344.00041913
 51
135.99958502
  0
ARC
  5
231
100
AcDbEntity
  8
Mst 1_1
 62
   137
  6
CONTINUOUS
370
    15
100
AcDbCircle
 10
-436.9250338
 20
-214.89461945
 30
0.0
 40
1.15454918
100
AcDbArc
 50
224.00041431
 51
315.99960573
  0
ARC
  5
232
100
AcDbEntity
  8
Mst 1_1
 62
   137
  6
CONTINUOUS
370
    15
100
AcDbCircle
 10
-438.1422936
 20
-216.07013019
 30
0.0
 40
0.53765261
100
AcDbArc
 50
44.00040506
 51
195.99961082
  0
ARC
  5
233
100
AcDbEntity
  8
Mst 1_1
 62
   137
  6
CONTINUOUS
370
    15
100
AcDbCircle
 10
-439.76894583
 20
-216.53655266
 30
0.0
 40
1.15454932
100
AcDbArc
 50
284.00042461
 51
15.99958726
  0
CIRCLE
  5
234
100
AcDbEntity
  8
Mst 1_1
 62
   137
  6
CONTINUOUS
370
     9
100
AcDbCircle
 10
-436.9250338
 20
-218.17848608
 30
0.0
 40
6.8
  0
ARC
  5
235
100
AcDbEntity
  8
Mst 1_1
 62
   137
  6
CONTINUOUS
370
    15
100
AcDbCircle
 10
-434.08112177
 20
-219.8204195
 30
0.0
 40
1.15454932
100
AcDbArc
 50
104.00041459
 51
195.99959727
  0
LINE
  5
236
100
AcDbEntity
  8
Mst 1_1
 62
     7
  6
DASHED
370
    -3
100
AcDbLine
 10
-141.42561587
 20
-198.17848608
 30
0.0
 11
-141.42561587
 21
-233.17848608
 31
0.0
  0
LINE
  5
237
100
AcDbEntity
  8
Mst 1_1
 62
   137
370
    15
100
AcDbLine
 10
-133.08110465
 20
-244.17848608
 30
0.0
 11
-133.08110465
 21
-252.17848608
 31
0.0
  0
LINE
  5
238
100
AcDbEntity
  8
Mst 1_1
 62
   137
370
    15
100
AcDbLine
 10
-133.08110465
 20
-244.89415275
 30
0.0
 11
-133.08110465
 21
-251.46281941
 31
0.0
  0
LINE
  5
239
100
AcDbEntity
  8
Mst 1_1
 62
   137
370
    15
100
AcDbLine
 10
-133.08110465
 20
-252.17848608
 30
0.0
 11
-146.34936752
 21
-252.17848608
 31
0.0
  0
LINE
  5
23A
100
AcDbEntity
  8
Mst 1_1
 62
   137
370
    15
100
AcDbLine
 10
-133.08110465
 20
-251.79948608
 30
0.0
 11
-146.34936752
 21
-251.79948608
 31
0.0
  0
LINE
  5
23B
100
AcDbEntity
  8
Mst 1_1
 62
   137
370
    15
100
AcDbLine
 10
-133.08110465
 20
-244.17848608
 30
0.0
 11
-146.34936752
 21
-244.17848608
 31
0.0
  0
LINE
  5
23C
100
AcDbEntity
  8
Mst 1_1
 62
   137
370
    15
100
AcDbLine
 10
-133.08110465
 20
-244.55748608
 30
0.0
 11
-146.34936752
 21
-244.55748608
 31
0.0
  0
LINE
  5
23D
100
AcDbEntity
  8
Mst 1_1
 62
   137
370
    15
100
AcDbLine
 10
-132.34936752
 20
-244.55748608
 30
0.0
 11
-132.34936752
 21
-251.79948608
 31
0.0
  0
LINE
  5
23E
100
AcDbEntity
  8
Mst 1_1
 62
     1
  6
CADWORK_8
370
    15
100
AcDbLine
 10
-88.34936752
 20
-248.17848608
 30
0.0
 11
-380.64936752
 21
-248.17848608
 31
0.0
  0
LWPOLYLINE
  5
23F
100
AcDbEntity
  8
Mst 1_1
 62
     7
  6
CONTINUOUS
370
    -3
100
AcDbPolyline
 90
        7
 70
     0
 43
0.0
 10
-146.34936752
 20
-262.27848608
 10
-146.34936752
 20
-252.27848608
 10
-95.71650362
 20
-252.27848608
 10
-93.34936752
 20
-248.17848608
 10
-95.71650362
 20
-244.07848608
 10
-146.34936752
 20
-244.07848608
 10
-146.34936752
 20
-234.07848608
  0
LINE
  5
240
100
AcDbEntity
  8
Mst 1_1
 62
     1
  6
CADWORK_8
370
    15
100
AcDbLine
 10
-146.34936752
 20
-244.17848608
 30
0.0
 11
-146.34936752
 21
-252.17848608
 31
0.0
  0
LWPOLYLINE
  5
241
100
AcDbEntity
  8
Mst 1_1
 62
   137
  6
CONTINUOUS
370
    15
100
AcDbPolyline
 90
        3
 70
     0
 43
0.0
 10
-133.08110465
 20
-244.17848608
 10
-132.34936752
 20
-244.55748608
 10
-131.68270085
 20
-244.55748608
  0
LWPOLYLINE
  5
242
100
AcDbEntity
  8
Mst 1_1
 62
   137
  6
CONTINUOUS
370
    15
100
AcDbPolyline
 90
        3
 70
     0
 43
0.0
 10
-133.08110465
 20
-252.17848608
 10
-132.34936752
 20
-251.79948608
 10
-131.68270085
 20
-251.79948608
  0
LINE
  5
243
100
AcDbEntity
  8
Mst 1_1
 62
   137
370
    15
100
AcDbLine
 10
-131.68270085
 20
-244.17848608
 30
0.0
 11
-125.47510023
 21
-244.17848608
 31
0.0
  0
LINE
  5
244
100
AcDbEntity
  8
Mst 1_1
 62
   137
370
    15
100
AcDbLine
 10
-131.68270085
 20
-252.17848608
 30
0.0
 11
-125.47510023
 21
-252.17848608
 31
0.0
  0
LINE
  5
245
100
AcDbEntity
  8
Mst 1_1
 62
   137
370
    15
100
AcDbLine
 10
-107.3126251
 20
-244.84003415
 30
0.0
 11
-104.65845844
 21
-244.24515275
 31
0.0
  0
LINE
  5
246
100
AcDbEntity
  8
Mst 1_1
 62
   137
370
    15
100
AcDbLine
 10
-107.3126251
 20
-251.516938
 30
0.0
 11
-104.65845844
 21
-252.11181941
 31
0.0
  0
LINE
  5
247
100
AcDbEntity
  8
Mst 1_1
 62
   137
370
    15
100
AcDbLine
 10
-102.35421678
 20
-244.24515275
 30
0.0
 11
-102.35421678
 21
-252.11181941
 31
0.0
  0
LINE
  5
248
100
AcDbEntity
  8
Mst 1_1
 62
   137
370
    15
100
AcDbLine
 10
-104.65845844
 20
-244.24515275
 30
0.0
 11
-104.65845844
 21
-252.11181941
 31
0.0
  0
LINE
  5
249
100
AcDbEntity
  8
Mst 1_1
 62
   137
370
    15
100
AcDbLine
 10
-131.68270085
 20
-244.17848608
 30
0.0
 11
-131.68270085
 21
-252.17848608
 31
0.0
  0
3DFACE
  5
24A
100
AcDbEntity
  8
Mst 1_1
 62
   137
  6
CONTINUOUS
370
     9
100
AcDbFace
 70
     0
 10
-107.3126251
 20
-247.84515274
 30
1000.0
 11
-107.3126251
 21
-244.24515275
 31
1000.0
 12
-112.9784983
 22
-244.24515275
 32
1000.0
 13
-112.9784983
 23
-247.84515274
 33
1000.0
  0
3DFACE
  5
24B
100
AcDbEntity
  8
Mst 1_1
 62
   137
  6
CONTINUOUS
370
     9
100
AcDbFace
 70
     0
 10
-107.3126251
 20
-248.51181941
 30
1000.0
 11
-107.3126251
 21
-252.11181941
 31
1000.0
 12
-112.9784983
 22
-252.11181941
 32
1000.0
 13
-112.9784983
 23
-248.51181941
 33
1000.0
  0
LINE
  5
24C
100
AcDbEntity
  8
Mst 1_1
 62
   137
370
    15
100
AcDbLine
 10
-119.37480167
 20
-244.84003415
 30
0.0
 11
-116.72063506
 21
-244.24515275
 31
0.0
  0
LINE
  5
24D
100
AcDbEntity
  8
Mst 1_1
 62
   137
370
    15
100
AcDbLine
 10
-119.37480167
 20
-251.516938
 30
0.0
 11
-116.72063506
 21
-252.11181941
 31
0.0
  0
LINE
  5
24E
100
AcDbEntity
  8
Mst 1_1
 62
   137
370
    15
100
AcDbLine
 10
-114.41639326
 20
-244.24515275
 30
0.0
 11
-114.41639326
 21
-252.11181941
 31
0.0
  0
LINE
  5
24F
100
AcDbEntity
  8
Mst 1_1
 62
   137
370
    15
100
AcDbLine
 10
-116.72063506
 20
-244.24515275
 30
0.0
 11
-116.72063506
 21
-252.11181941
 31
0.0
  0
3DFACE
  5
250
100
AcDbEntity
  8
Mst 1_1
 62
   137
  6
CONTINUOUS
370
     9
100
AcDbFace
 70
     0
 10
-119.37480167
 20
-247.84515274
 30
1000.0
 11
-119.37480167
 21
-244.24515275
 31
1000.0
 12
-125.04067476
 22
-244.24515275
 32
1000.0
 13
-125.04067476
 23
-247.84515274
 33
1000.0
  0
3DFACE
  5
251
100
AcDbEntity
  8
Mst 1_1
 62
   137
  6
CONTINUOUS
370
     9
100
AcDbFace
 70
     0
 10
-119.37480167
 20
-248.51181941
 30
1000.0
 11
-119.37480167
 21
-252.11181941
 31
1000.0
 12
-125.04067476
 22
-252.11181941
 32
1000.0
 13
-125.04067476
 23
-248.51181941
 33
1000.0
  0
LINE
  5
252
100
AcDbEntity
  8
Mst 1_1
 62
   137
  6
CONTINUOUS
370
    15
100
AcDbLine
 10
-112.9784983
 20
-245.51181941
 30
1000.0
 11
-113.41292374
 21
-245.51181941
 31
1000.0
  0
LINE
  5
253
100
AcDbEntity
  8
Mst 1_1
 62
   137
  6
CONTINUOUS
370
    15
100
AcDbLine
 10
-112.9784983
 20
-250.84515274
 30
1000.0
 11
-113.41292374
 21
-250.84515274
 31
1000.0
  0
LINE
  5
254
100
AcDbEntity
  8
Mst 1_1
 62
   137
  6
CONTINUOUS
370
    15
100
AcDbLine
 10
-125.04067476
 20
-245.51181941
 30
1000.0
 11
-125.47510023
 21
-245.51181941
 31
1000.0
  0
LINE
  5
255
100
AcDbEntity
  8
Mst 1_1
 62
   137
  6
CONTINUOUS
370
    15
100
AcDbLine
 10
-125.04067476
 20
-250.84515274
 30
1000.0
 11
-125.47510023
 21
-250.84515274
 31
1000.0
  0
LINE
  5
256
100
AcDbEntity
  8
Mst 1_1
 62
   137
  6
CONTINUOUS
370
    15
100
AcDbLine
 10
-125.47510023
 20
-244.17848608
 30
1000.0
 11
-125.47510023
 21
-252.17848608
 31
1000.0
  0
LWPOLYLINE
  5
257
100
AcDbEntity
  8
Mst 1_1
 62
   137
  6
CONTINUOUS
370
     9
100
AcDbPolyline
 90
       45
 70
     1
 43
0.0
 38
1000.0
 39
-1000.0
 10
-125.04067476
 20
-244.24515275
 10
-125.04067476
 20
-244.13388215
 10
-125.03982245
 20
-244.11738679
 10
-125.03727055
 20
-244.10098395
 10
-125.03303288
 20
-244.08476564
 10
-125.02713375
 20
-244.06882283
 10
-125.01960595
 20
-244.05324495
 10
-125.0104917
 20
-244.03811938
 10
-124.99984216
 20
-244.02353096
 10
-124.98771708
 20
-244.00956151
 10
-124.97418477
 20
-243.9962894
 10
-124.95932056
 20
-243.98378907
 10
-124.9432081
 20
-243.97213062
 10
-124.92593787
 20
-243.96137948
 10
-124.90760681
 20
-243.95159593
 10
-124.88831721
 20
-243.94283484
 10
-124.86817806
 20
-243.93514538
 10
-124.84730159
 20
-243.92857065
 10
-124.82580555
 20
-243.92314756
 10
-124.80380973
 20
-243.91890651
 10
-124.7814382
 20
-243.91587129
 10
-124.75881628
 20
-243.91405893
 10
-124.73607073
 20
-243.91347959
 10
-124.60610799
 20
-243.91438238
 10
-124.47617684
 20
-243.91664711
 10
-124.34630413
 20
-243.92027333
 10
-124.21651733
 20
-243.92526026
 10
-124.08684333
 20
-243.93160689
 10
-123.95730948
 20
-243.93931186
 10
-123.82794266
 20
-243.94837359
 10
-123.69876991
 20
-243.95879018
 10
-123.56981814
 20
-243.97055943
 10
-123.44111411
 20
-243.98367892
 10
-123.31268526
 20
-243.99814589
 10
-123.18455779
 20
-244.01395733
 10
-123.05675875
 20
-244.03110992
 10
-122.92931482
 20
-244.04960009
 10
-122.80225283
 20
-244.06942398
 10
-122.67559873
 20
-244.09057745
 10
-122.54937939
 20
-244.11305608
 10
-122.42362119
 20
-244.13685518
 10
-122.29835024
 20
-244.16196978
 10
-122.17359282
 20
-244.18839463
 10
-122.04937488
 20
-244.21612422
 10
-121.92572223
 20
-244.24515275
  0
LWPOLYLINE
  5
258
100
AcDbEntity
  8
Mst 1_1
 62
   137
  6
CONTINUOUS
370
     9
100
AcDbPolyline
 90
       45
 70
     1
 43
0.0
 38
1000.0
 39
-1000.0
 10
-125.04067476
 20
-252.11181941
 10
-125.04067476
 20
-252.22309
 10
-125.03982245
 20
-252.23958537
 10
-125.03727055
 20
-252.25598821
 10
-125.03303288
 20
-252.27220651
 10
-125.02713375
 20
-252.28814933
 10
-125.01960595
 20
-252.3037272
 10
-125.0104917
 20
-252.31885278
 10
-124.99984216
 20
-252.3334412
 10
-124.98771708
 20
-252.34741065
 10
-124.97418477
 20
-252.36068276
 10
-124.95932056
 20
-252.37318309
 10
-124.9432081
 20
-252.38484153
 10
-124.92593787
 20
-252.39559268
 10
-124.90760681
 20
-252.40537623
 10
-124.88831721
 20
-252.41413731
 10
-124.86817806
 20
-252.42182677
 10
-124.84730159
 20
-252.4284015
 10
-124.82580555
 20
-252.4338246
 10
-124.80380973
 20
-252.43806564
 10
-124.7814382
 20
-252.44110087
 10
-124.75881628
 20
-252.44291323
 10
-124.73607073
 20
-252.44349257
 10
-124.60610799
 20
-252.44258978
 10
-124.47617684
 20
-252.44032505
 10
-124.34630413
 20
-252.43669882
 10
-124.21651733
 20
-252.43171189
 10
-124.08684333
 20
-252.42536526
 10
-123.95730948
 20
-252.4176603
 10
-123.82794266
 20
-252.40859856
 10
-123.69876991
 20
-252.39818198
 10
-123.56981814
 20
-252.38641272
 10
-123.44111411
 20
-252.37329323
 10
-123.31268526
 20
-252.35882627
 10
-123.18455779
 20
-252.34301482
 10
-123.05675875
 20
-252.32586223
 10
-122.92931482
 20
-252.30737207
 10
-122.80225283
 20
-252.28754817
 10
-122.67559873
 20
-252.2663947
 10
-122.54937939
 20
-252.24391607
 10
-122.42362119
 20
-252.22011697
 10
-122.29835024
 20
-252.19500237
 10
-122.17359282
 20
-252.16857752
 10
-122.04937488
 20
-252.14084794
 10
-121.92572223
 20
-252.11181941
  0
LWPOLYLINE
  5
259
100
AcDbEntity
  8
Mst 1_1
 62
   137
  6
CONTINUOUS
370
     9
100
AcDbPolyline
 90
       45
 70
     1
 43
0.0
 38
1000.0
 39
-1000.0
 10
-112.9784983
 20
-252.11181941
 10
-112.9784983
 20
-252.22309
 10
-112.97764597
 20
-252.23958537
 10
-112.97509395
 20
-252.25598821
 10
-112.9708564
 20
-252.27220651
 10
-112.96495713
 20
-252.28814933
 10
-112.95742935
 20
-252.3037272
 10
-112.94831507
 20
-252.31885278
 10
-112.93766569
 20
-252.3334412
 10
-112.92554061
 20
-252.34741065
 10
-112.91200813
 20
-252.36068276
 10
-112.89714394
 20
-252.37318309
 10
-112.88103163
 20
-252.38484153
 10
-112.8637614
 20
-252.39559268
 10
-112.84543019
 20
-252.40537623
 10
-112.82614076
 20
-252.41413731
 10
-112.80600143
 20
-252.42182677
 10
-112.78512511
 20
-252.4284015
 10
-112.76362892
 20
-252.4338246
 10
-112.74163327
 20
-252.43806564
 10
-112.71926187
 20
-252.44110087
 10
-112.69663983
 20
-252.44291323
 10
-112.67389423
 20
-252.44349257
 10
-112.54393151
 20
-252.44258978
 10
-112.4140002
 20
-252.44032505
 10
-112.2841275
 20
-252.43669882
 10
-112.15434071
 20
-252.43171189
 10
-112.02466683
 20
-252.42536526
 10
-111.89513303
 20
-252.4176603
 10
-111.76576605
 20
-252.40859856
 10
-111.63659327
 20
-252.39818198
 10
-111.50764154
 20
-252.38641272
 10
-111.37893766
 20
-252.37329323
 10
-111.25050863
 20
-252.35882627
 10
-111.12238131
 20
-252.34301482
 10
-110.99458227
 20
-252.32586223
 10
-110.86713849
 20
-252.30737207
 10
-110.74007623
 20
-252.28754817
 10
-110.61342225
 20
-252.2663947
 10
-110.48720294
 20
-252.24391607
 10
-110.36144472
 20
-252.22011697
 10
-110.23617374
 20
-252.19500237
 10
-110.11141619
 20
-252.16857752
 10
-109.98719828
 20
-252.14084794
 10
-109.86354576
 20
-252.11181941
  0
LWPOLYLINE
  5
25A
100
AcDbEntity
  8
Mst 1_1
 62
   137
  6
CONTINUOUS
370
     9
100
AcDbPolyline
 90
       45
 70
     1
 43
0.0
 38
1000.0
 39
-1000.0
 10
-112.9784983
 20
-244.24515275
 10
-112.9784983
 20
-244.13388215
 10
-112.97764597
 20
-244.11738679
 10
-112.97509395
 20
-244.10098395
 10
-112.9708564
 20
-244.08476564
 10
-112.96495713
 20
-244.06882283
 10
-112.95742935
 20
-244.05324495
 10
-112.94831507
 20
-244.03811938
 10
-112.93766569
 20
-244.02353096
 10
-112.92554061
 20
-244.00956151
 10
-112.91200813
 20
-243.9962894
 10
-112.89714394
 20
-243.98378907
 10
-112.88103163
 20
-243.97213062
 10
-112.8637614
 20
-243.96137948
 10
-112.84543019
 20
-243.95159593
 10
-112.82614076
 20
-243.94283484
 10
-112.80600143
 20
-243.93514538
 10
-112.78512511
 20
-243.92857065
 10
-112.76362892
 20
-243.92314756
 10
-112.74163327
 20
-243.91890651
 10
-112.71926187
 20
-243.91587129
 10
-112.69663983
 20
-243.91405893
 10
-112.67389423
 20
-243.91347959
 10
-112.54393151
 20
-243.91438238
 10
-112.4140002
 20
-243.91664711
 10
-112.2841275
 20
-243.92027333
 10
-112.15434071
 20
-243.92526026
 10
-112.02466683
 20
-243.93160689
 10
-111.89513303
 20
-243.93931186
 10
-111.76576605
 20
-243.94837359
 10
-111.63659327
 20
-243.95879018
 10
-111.50764154
 20
-243.97055943
 10
-111.37893766
 20
-243.98367892
 10
-111.25050863
 20
-243.99814589
 10
-111.12238131
 20
-244.01395733
 10
-110.99458227
 20
-244.03110992
 10
-110.86713849
 20
-244.04960009
 10
-110.74007623
 20
-244.06942398
 10
-110.61342225
 20
-244.09057745
 10
-110.48720294
 20
-244.11305608
 10
-110.36144472
 20
-244.13685518
 10
-110.23617374
 20
-244.16196978
 10
-110.11141619
 20
-244.18839463
 10
-109.98719828
 20
-244.21612422
 10
-109.86354576
 20
-244.24515275
  0
LWPOLYLINE
  5
25B
100
AcDbEntity
  8
Mst 1_1
 62
   137
  6
CONTINUOUS
370
    15
100
AcDbPolyline
 90
       46
 70
     0
 43
0.0
 10
-104.65845844
 20
-244.24515275
 10
-102.45239782
 20
-244.24515275
 10
-102.36996826
 20
-244.24888102
 10
-102.28799969
 20
-244.26004498
 10
-102.2069505
 20
-244.2785822
 10
-102.12727393
 20
-244.304389
 10
-102.0494156
 20
-244.33732108
 10
-101.97381091
 20
-244.37719425
 10
-101.90088267
 20
-244.42378554
 10
-101.83103873
 20
-244.47683438
 10
-101.76466967
 20
-244.5360441
 10
-101.70214668
 20
-244.60108358
 10
-101.64381939
 20
-244.67158909
 10
-101.59001401
 20
-244.74716634
 10
-101.54103142
 20
-244.82739267
 10
-101.49714556
 20
-244.91181941
 10
-101.45860186
 20
-244.99997443
 10
-101.42561587
 20
-245.09136471
 10
-101.39837206
 20
-245.18547918
 10
-101.37702279
 20
-245.2817915
 10
-101.36168745
 20
-245.37976306
 10
-101.35245181
 20
-245.47884595
 10
-101.34936752
 20
-245.57848608
 10
-101.34936752
 20
-250.77848608
 10
-101.35245181
 20
-250.8781262
 10
-101.36168745
 20
-250.9772091
 10
-101.37702279
 20
-251.07518065
 10
-101.39837206
 20
-251.17149298
 10
-101.42561587
 20
-251.26560744
 10
-101.45860186
 20
-251.35699773
 10
-101.49714556
 20
-251.44515274
 10
-101.54103142
 20
-251.52957949
 10
-101.59001401
 20
-251.60980581
 10
-101.64381939
 20
-251.68538306
 10
-101.70214668
 20
-251.75588857
 10
-101.76466967
 20
-251.82092805
 10
-101.83103873
 20
-251.88013777
 10
-101.90088267
 20
-251.93318661
 10
-101.97381091
 20
-251.9797779
 10
-102.0494156
 20
-252.01965107
 10
-102.12727393
 20
-252.05258315
 10
-102.2069505
 20
-252.07838996
 10
-102.28799969
 20
-252.09692718
 10
-102.36996826
 20
-252.10809114
 10
-102.45239782
 20
-252.11181941
 10
-104.65845844
 20
-252.11181941
  0
LWPOLYLINE
  5
25C
100
AcDbEntity
  8
Mst 1_1
 62
   137
  6
CONTINUOUS
370
    15
100
AcDbPolyline
 90
       46
 70
     0
 43
0.0
 10
-116.72063506
 20
-244.24515275
 10
-114.51457435
 20
-244.24515275
 10
-114.43214475
 20
-244.24888102
 10
-114.35017618
 20
-244.26004498
 10
-114.26912703
 20
-244.2785822
 10
-114.1894505
 20
-244.304389
 10
-114.11159215
 20
-244.33732108
 10
-114.03598737
 20
-244.37719425
 10
-113.96305924
 20
-244.42378554
 10
-113.89321533
 20
-244.47683438
 10
-113.82684621
 20
-244.5360441
 10
-113.76432314
 20
-244.60108358
 10
-113.70599595
 20
-244.67158909
 10
-113.65219058
 20
-244.74716634
 10
-113.60320801
 20
-244.82739267
 10
-113.55932204
 20
-244.91181941
 10
-113.52077841
 20
-244.99997443
 10
-113.4877924
 20
-245.09136471
 10
-113.46054863
 20
-245.18547918
 10
-113.43919931
 20
-245.2817915
 10
-113.42386403
 20
-245.37976306
 10
-113.41462835
 20
-245.47884595
 10
-113.41154399
 20
-245.57848608
 10
-113.41154399
 20
-250.77848608
 10
-113.41462835
 20
-250.8781262
 10
-113.42386403
 20
-250.9772091
 10
-113.43919931
 20
-251.07518065
 10
-113.46054863
 20
-251.17149298
 10
-113.4877924
 20
-251.26560744
 10
-113.52077841
 20
-251.35699773
 10
-113.55932204
 20
-251.44515274
 10
-113.60320801
 20
-251.52957949
 10
-113.65219058
 20
-251.60980581
 10
-113.70599595
 20
-251.68538306
 10
-113.76432314
 20
-251.75588857
 10
-113.82684621
 20
-251.82092805
 10
-113.89321533
 20
-251.88013777
 10
-113.96305924
 20
-251.93318661
 10
-114.03598737
 20
-251.9797779
 10
-114.11159215
 20
-252.01965107
 10
-114.1894505
 20
-252.05258315
 10
-114.26912703
 20
-252.07838996
 10
-114.35017618
 20
-252.09692718
 10
-114.43214475
 20
-252.10809114
 10
-114.51457435
 20
-252.11181941
 10
-116.72063506
 20
-252.11181941
  0
LINE
  5
25D
100
AcDbEntity
  8
Mst 1_1
 62
   137
370
    15
100
AcDbLine
 10
-148.34936752
 20
-243.17848608
 30
100.0
 11
-146.34936752
 21
-244.17848608
 31
100.0
  0
LINE
  5
25E
100
AcDbEntity
  8
Mst 1_1
 62
   137
370
    15
100
AcDbLine
 10
-148.34936752
 20
-253.17848608
 30
100.0
 11
-148.34936752
 21
-243.17848608
 31
100.0
  0
LINE
  5
25F
100
AcDbEntity
  8
Mst 1_1
 62
   137
370
    15
100
AcDbLine
 10
-148.34936752
 20
-253.17848608
 30
100.0
 11
-146.34936752
 21
-252.17848608
 31
100.0
  0
LINE
  5
260
100
AcDbEntity
  8
Mst 1_1
 62
   137
370
    15
100
AcDbLine
 10
-148.34936752
 20
-243.17848608
 30
100.0
 11
-321.34936752
 21
-243.17848608
 31
100.0
  0
LINE
  5
261
100
AcDbEntity
  8
Mst 1_1
 62
   137
370
    15
100
AcDbLine
 10
-148.34936752
 20
-253.17848608
 30
100.0
 11
-321.34936752
 21
-253.17848608
 31
100.0
  0
LINE
  5
262
100
AcDbEntity
  8
Mst 1_1
 62
   137
370
    15
100
AcDbLine
 10
-321.34936752
 20
-243.17848608
 30
100.0
 11
-321.34936752
 21
-253.17848608
 31
100.0
  0
LWPOLYLINE
  5
263
100
AcDbEntity
  8
Mst 1_1
 62
   137
370
    15
100
AcDbPolyline
 90
        5
 70
     0
 43
0.0
 38
100.0
 10
-314.34936752
 20
-245.17848608
 10
-371.84936752
 20
-245.17848608
 10
-371.84936752
 20
-251.17848608
 10
-314.34936752
 20
-251.17848608
 10
-314.34936752
 20
-245.17848608
  0
LWPOLYLINE
  5
264
100
AcDbEntity
  8
Mst 1_1
 62
   137
370
    15
100
AcDbPolyline
 90
        4
 70
     0
 43
0.0
 38
100.0
 10
-314.34936752
 20
-245.17848608
 10
-313.34936752
 20
-246.17848608
 10
-313.34936752
 20
-250.17848608
 10
-314.34936752
 20
-251.17848608
  0
LINE
  5
265
100
AcDbEntity
  8
Mst 1_1
 62
   137
370
    15
100
AcDbLine
 10
-313.34936752
 20
-246.17848608
 30
100.0
 11
-371.84936752
 21
-246.17848608
 31
100.0
  0
LINE
  5
266
100
AcDbEntity
  8
Mst 1_1
 62
   137
370
    15
100
AcDbLine
 10
-313.34936752
 20
-250.17848608
 30
100.0
 11
-371.84936752
 21
-250.17848608
 31
100.0
  0
LWPOLYLINE
  5
267
100
AcDbEntity
  8
Mst 1_1
 62
   137
370
    15
100
AcDbPolyline
 90
        6
 70
     0
 43
0.0
 38
100.0
 10
-373.34936752
 20
-245.17848608
 10
-373.34936752
 20
-239.17848608
 10
-371.84936752
 20
-239.17848608
 10
-371.84936752
 20
-257.17848608
 10
-373.34936752
 20
-257.17848608
 10
-373.34936752
 20
-245.17848608
  0
LWPOLYLINE
  5
268
100
AcDbEntity
  8
Mst 1_1
 62
   137
370
    15
100
AcDbPolyline
 90
        5
 70
     0
 43
0.0
 38
100.0
 10
-373.34936752
 20
-241.37848608
 10
-374.34936752
 20
-241.37848608
 10
-374.34936752
 20
-254.97848608
 10
-373.34936752
 20
-254.97848608
 10
-373.34936752
 20
-241.37848608
  0
LWPOLYLINE
  5
269
100
AcDbEntity
  8
Mst 1_1
 62
   137
370
    15
100
AcDbPolyline
 90
        5
 70
     0
 43
0.0
 38
100.0
 10
-374.34936752
 20
-243.32848608
 10
-375.64936752
 20
-245.02848608
 10
-375.64936752
 20
-251.32848608
 10
-374.34936752
 20
-253.02848608
 10
-374.34936752
 20
-243.32848608
  0
CIRCLE
  5
26A
100
AcDbEntity
  8
Mst 1_1
 62
   137
  6
CONTINUOUS
370
     9
100
AcDbCircle
 10
-436.9250338
 20
-248.17848608
 30
0.0
 40
1.88177431
  0
CIRCLE
  5
26B
100
AcDbEntity
  8
Mst 1_1
 62
   137
  6
CONTINUOUS
370
     9
100
AcDbCircle
 10
-436.9250338
 20
-248.17848608
 30
0.0
 40
1.88177431
  0
CIRCLE
  5
26C
100
AcDbEntity
  8
Mst 1_1
 62
   137
  6
CONTINUOUS
370
     9
100
AcDbCircle
 10
-436.9250338
 20
-248.17848608
 30
0.0
 40
1.88177431
  0
CIRCLE
  5
26D
100
AcDbEntity
  8
Mst 1_1
 62
   137
  6
CONTINUOUS
370
     9
100
AcDbCircle
 10
-436.9250338
 20
-248.17848608
 30
0.0
 40
2.97217223
  0
CIRCLE
  5
26E
100
AcDbEntity
  8
Mst 1_1
 62
   137
  6
CONTINUOUS
370
     9
100
AcDbCircle
 10
-436.9250338
 20
-248.17848608
 30
0.0
 40
4.56609304
  0
CIRCLE
  5
26F
100
AcDbEntity
  8
Mst 1_1
 62
   137
  6
CONTINUOUS
370
     9
100
AcDbCircle
 10
-436.9250338
 20
-248.17848608
 30
0.0
 40
1.9962351
  0
CIRCLE
  5
270
100
AcDbEntity
  8
Mst 1_1
 62
   137
  6
CONTINUOUS
370
     9
100
AcDbCircle
 10
-436.9250338
 20
-248.17848608
 30
0.0
 40
8.74999999
  0
ARC
  5
271
100
AcDbEntity
  8
Mst 1_1
 62
   137
  6
CONTINUOUS
370
    15
100
AcDbCircle
 10
-439.35955338
 20
-248.17848608
 30
0.0
 40
0.53765266
100
AcDbArc
 50
104.00039951
 51
255.99961051
  0
ARC
  5
272
100
AcDbEntity
  8
Mst 1_1
 62
   137
  6
CONTINUOUS
370
    15
100
AcDbCircle
 10
-439.76894583
 20
-249.8204195
 30
0.0
 40
1.15454932
100
AcDbArc
 50
344.00042282
 51
75.99958535
  0
ARC
  5
273
100
AcDbEntity
  8
Mst 1_1
 62
   137
  6
CONTINUOUS
370
    15
100
AcDbCircle
 10
-438.14229355
 20
-250.28684189
 30
0.0
 40
0.53765264
100
AcDbArc
 50
164.00040911
 51
315.99959504
  0
ARC
  5
274
100
AcDbEntity
  8
Mst 1_1
 62
   137
  6
CONTINUOUS
370
    15
100
AcDbCircle
 10
-436.9250338
 20
-251.4623527
 30
0.0
 40
1.15454918
100
AcDbArc
 50
44.00040429
 51
135.99959571
  0
ARC
  5
275
100
AcDbEntity
  8
Mst 1_1
 62
   137
  6
CONTINUOUS
370
    15
100
AcDbCircle
 10
-435.707774
 20
-250.28684197
 30
0.0
 40
0.53765261
100
AcDbArc
 50
224.00041508
 51
15.9996008
  0
ARC
  5
276
100
AcDbEntity
  8
Mst 1_1
 62
   137
  6
CONTINUOUS
370
    15
100
AcDbCircle
 10
-434.49051422
 20
-248.17848608
 30
0.0
 40
0.53765266
100
AcDbArc
 50
284.00040953
 51
75.99960049
  0
ARC
  5
277
100
AcDbEntity
  8
Mst 1_1
 62
   137
  6
CONTINUOUS
370
    15
100
AcDbCircle
 10
-434.08112177
 20
-246.53655266
 30
0.0
 40
1.15454932
100
AcDbArc
 50
164.00041281
 51
255.99959537
  0
ARC
  5
278
100
AcDbEntity
  8
Mst 1_1
 62
   137
  6
CONTINUOUS
370
    15
100
AcDbCircle
 10
-435.70777405
 20
-246.07013027
 30
0.0
 40
0.53765264
100
AcDbArc
 50
344.00041913
 51
135.99958502
  0
ARC
  5
279
100
AcDbEntity
  8
Mst 1_1
 62
   137
  6
CONTINUOUS
370
    15
100
AcDbCircle
 10
-436.9250338
 20
-244.89461945
 30
0.0
 40
1.15454918
100
AcDbArc
 50
224.00041431
 51
315.99960573
  0
ARC
  5
27A
100
AcDbEntity
  8
Mst 1_1
 62
   137
  6
CONTINUOUS
370
    15
100
AcDbCircle
 10
-438.1422936
 20
-246.07013019
 30
0.0
 40
0.53765261
100
AcDbArc
 50
44.00040506
 51
195.99961082
  0
ARC
  5
27B
100
AcDbEntity
  8
Mst 1_1
 62
   137
  6
CONTINUOUS
370
    15
100
AcDbCircle
 10
-439.76894583
 20
-246.53655266
 30
0.0
 40
1.15454932
100
AcDbArc
 50
284.00042461
 51
15.99958726
  0
CIRCLE
  5
27C
100
AcDbEntity
  8
Mst 1_1
 62
   137
  6
CONTINUOUS
370
     9
100
AcDbCircle
 10
-436.9250338
 20
-248.17848608
 30
0.0
 40
6.8
  0
ARC
  5
27D
100
AcDbEntity
  8
Mst 1_1
 62
   137
  6
CONTINUOUS
370
    15
100
AcDbCircle
 10
-434.08112177
 20
-249.8204195
 30
0.0
 40
1.15454932
100
AcDbArc
 50
104.00041459
 51
195.99959727
  0
LINE
  5
27E
100
AcDbEntity
  8
Mst 1_1
 62
     7
  6
DASHED
370
    -3
100
AcDbLine
 10
-101.42561587
 20
-228.17848608
 30
0.0
 11
-101.42561587
 21
-263.17848608
 31
0.0
  0
LINE
  5
27F
100
AcDbEntity
  8
Mst 1_1
 62
   137
370
    15
100
AcDbLine
 10
-93.08110465
 20
-274.17848608
 30
0.0
 11
-93.08110465
 21
-282.17848608
 31
0.0
  0
LINE
  5
280
100
AcDbEntity
  8
Mst 1_1
 62
   137
370
    15
100
AcDbLine
 10
-93.08110465
 20
-274.89415275
 30
0.0
 11
-93.08110465
 21
-281.46281941
 31
0.0
  0
LINE
  5
281
100
AcDbEntity
  8
Mst 1_1
 62
   137
370
    15
100
AcDbLine
 10
-93.08110465
 20
-282.17848608
 30
0.0
 11
-106.34936752
 21
-282.17848608
 31
0.0
  0
LINE
  5
282
100
AcDbEntity
  8
Mst 1_1
 62
   137
370
    15
100
AcDbLine
 10
-93.08110465
 20
-281.79948608
 30
0.0
 11
-106.34936752
 21
-281.79948608
 31
0.0
  0
LINE
  5
283
100
AcDbEntity
  8
Mst 1_1
 62
   137
370
    15
100
AcDbLine
 10
-93.08110465
 20
-274.17848608
 30
0.0
 11
-106.34936752
 21
-274.17848608
 31
0.0
  0
LINE
  5
284
100
AcDbEntity
  8
Mst 1_1
 62
   137
370
    15
100
AcDbLine
 10
-93.08110465
 20
-274.55748608
 30
0.0
 11
-106.34936752
 21
-274.55748608
 31
0.0
  0
LINE
  5
285
100
AcDbEntity
  8
Mst 1_1
 62
   137
370
    15
100
AcDbLine
 10
-92.34936752
 20
-274.55748608
 30
0.0
 11
-92.34936752
 21
-281.79948608
 31
0.0
  0
LINE
  5
286
100
AcDbEntity
  8
Mst 1_1
 62
     1
  6
CADWORK_8
370
    15
100
AcDbLine
 10
-48.34936752
 20
-278.17848608
 30
0.0
 11
-380.64936752
 21
-278.17848608
 31
0.0
  0
LWPOLYLINE
  5
287
100
AcDbEntity
  8
Mst 1_1
 62
     7
  6
CONTINUOUS
370
    -3
100
AcDbPolyline
 90
        7
 70
     0
 43
0.0
 10
-106.34936752
 20
-292.27848608
 10
-106.34936752
 20
-282.27848608
 10
-55.71650362
 20
-282.27848608
 10
-53.34936752
 20
-278.17848608
 10
-55.71650362
 20
-274.07848608
 10
-106.34936752
 20
-274.07848608
 10
-106.34936752
 20
-264.07848608
  0
LINE
  5
288
100
AcDbEntity
  8
Mst 1_1
 62
     1
  6
CADWORK_8
370
    15
100
AcDbLine
 10
-106.34936752
 20
-274.17848608
 30
0.0
 11
-106.34936752
 21
-282.17848608
 31
0.0
  0
LWPOLYLINE
  5
289
100
AcDbEntity
  8
Mst 1_1
 62
   137
  6
CONTINUOUS
370
    15
100
AcDbPolyline
 90
        3
 70
     0
 43
0.0
 10
-93.08110465
 20
-274.17848608
 10
-92.34936752
 20
-274.55748608
 10
-91.68270085
 20
-274.55748608
  0
LWPOLYLINE
  5
28A
100
AcDbEntity
  8
Mst 1_1
 62
   137
  6
CONTINUOUS
370
    15
100
AcDbPolyline
 90
        3
 70
     0
 43
0.0
 10
-93.08110465
 20
-282.17848608
 10
-92.34936752
 20
-281.79948608
 10
-91.68270085
 20
-281.79948608
  0
LINE
  5
28B
100
AcDbEntity
  8
Mst 1_1
 62
   137
370
    15
100
AcDbLine
 10
-91.68270085
 20
-274.17848608
 30
0.0
 11
-85.47510023
 21
-274.17848608
 31
0.0
  0
LINE
  5
28C
100
AcDbEntity
  8
Mst 1_1
 62
   137
370
    15
100
AcDbLine
 10
-91.68270085
 20
-282.17848608
 30
0.0
 11
-85.47510023
 21
-282.17848608
 31
0.0
  0
LINE
  5
28D
100
AcDbEntity
  8
Mst 1_1
 62
   137
370
    15
100
AcDbLine
 10
-67.3126251
 20
-274.84003415
 30
0.0
 11
-64.65845844
 21
-274.24515275
 31
0.0
  0
LINE
  5
28E
100
AcDbEntity
  8
Mst 1_1
 62
   137
370
    15
100
AcDbLine
 10
-67.3126251
 20
-281.516938
 30
0.0
 11
-64.65845844
 21
-282.11181941
 31
0.0
  0
LINE
  5
28F
100
AcDbEntity
  8
Mst 1_1
 62
   137
370
    15
100
AcDbLine
 10
-62.35421678
 20
-274.24515275
 30
0.0
 11
-62.35421678
 21
-282.11181941
 31
0.0
  0
LINE
  5
290
100
AcDbEntity
  8
Mst 1_1
 62
   137
370
    15
100
AcDbLine
 10
-64.65845844
 20
-274.24515275
 30
0.0
 11
-64.65845844
 21
-282.11181941
 31
0.0
  0
LINE
  5
291
100
AcDbEntity
  8
Mst 1_1
 62
   137
370
    15
100
AcDbLine
 10
-91.68270085
 20
-274.17848608
 30
0.0
 11
-91.68270085
 21
-282.17848608
 31
0.0
  0
3DFACE
  5
292
100
AcDbEntity
  8
Mst 1_1
 62
   137
  6
CONTINUOUS
370
     9
100
AcDbFace
 70
     0
 10
-67.3126251
 20
-277.84515274
 30
1000.0
 11
-67.3126251
 21
-274.24515275
 31
1000.0
 12
-72.9784983
 22
-274.24515275
 32
1000.0
 13
-72.9784983
 23
-277.84515274
 33
1000.0
  0
3DFACE
  5
293
100
AcDbEntity
  8
Mst 1_1
 62
   137
  6
CONTINUOUS
370
     9
100
AcDbFace
 70
     0
 10
-67.3126251
 20
-278.51181941
 30
1000.0
 11
-67.3126251
 21
-282.11181941
 31
1000.0
 12
-72.9784983
 22
-282.11181941
 32
1000.0
 13
-72.9784983
 23
-278.51181941
 33
1000.0
  0
LINE
  5
294
100
AcDbEntity
  8
Mst 1_1
 62
   137
370
    15
100
AcDbLine
 10
-79.37480167
 20
-274.84003415
 30
0.0
 11
-76.72063506
 21
-274.24515275
 31
0.0
  0
LINE
  5
295
100
AcDbEntity
  8
Mst 1_1
 62
   137
370
    15
100
AcDbLine
 10
-79.37480167
 20
-281.516938
 30
0.0
 11
-76.72063506
 21
-282.11181941
 31
0.0
  0
LINE
  5
296
100
AcDbEntity
  8
Mst 1_1
 62
   137
370
    15
100
AcDbLine
 10
-74.41639326
 20
-274.24515275
 30
0.0
 11
-74.41639326
 21
-282.11181941
 31
0.0
  0
LINE
  5
297
100
AcDbEntity
  8
Mst 1_1
 62
   137
370
    15
100
AcDbLine
 10
-76.72063506
 20
-274.24515275
 30
0.0
 11
-76.72063506
 21
-282.11181941
 31
0.0
  0
3DFACE
  5
298
100
AcDbEntity
  8
Mst 1_1
 62
   137
  6
CONTINUOUS
370
     9
100
AcDbFace
 70
     0
 10
-79.37480167
 20
-277.84515274
 30
1000.0
 11
-79.37480167
 21
-274.24515275
 31
1000.0
 12
-85.04067476
 22
-274.24515275
 32
1000.0
 13
-85.04067476
 23
-277.84515274
 33
1000.0
  0
3DFACE
  5
299
100
AcDbEntity
  8
Mst 1_1
 62
   137
  6
CONTINUOUS
370
     9
100
AcDbFace
 70
     0
 10
-79.37480167
 20
-278.51181941
 30
1000.0
 11
-79.37480167
 21
-282.11181941
 31
1000.0
 12
-85.04067476
 22
-282.11181941
 32
1000.0
 13
-85.04067476
 23
-278.51181941
 33
1000.0
  0
LINE
  5
29A
100
AcDbEntity
  8
Mst 1_1
 62
   137
  6
CONTINUOUS
370
    15
100
AcDbLine
 10
-72.9784983
 20
-275.51181941
 30
1000.0
 11
-73.41292374
 21
-275.51181941
 31
1000.0
  0
LINE
  5
29B
100
AcDbEntity
  8
Mst 1_1
 62
   137
  6
CONTINUOUS
370
    15
100
AcDbLine
 10
-72.9784983
 20
-280.84515274
 30
1000.0
 11
-73.41292374
 21
-280.84515274
 31
1000.0
  0
LINE
  5
29C
100
AcDbEntity
  8
Mst 1_1
 62
   137
  6
CONTINUOUS
370
    15
100
AcDbLine
 10
-85.04067476
 20
-275.51181941
 30
1000.0
 11
-85.47510023
 21
-275.51181941
 31
1000.0
  0
LINE
  5
29D
100
AcDbEntity
  8
Mst 1_1
 62
   137
  6
CONTINUOUS
370
    15
100
AcDbLine
 10
-85.04067476
 20
-280.84515274
 30
1000.0
 11
-85.47510023
 21
-280.84515274
 31
1000.0
  0
LINE
  5
29E
100
AcDbEntity
  8
Mst 1_1
 62
   137
  6
CONTINUOUS
370
    15
100
AcDbLine
 10
-85.47510023
 20
-274.17848608
 30
1000.0
 11
-85.47510023
 21
-282.17848608
 31
1000.0
  0
LWPOLYLINE
  5
29F
100
AcDbEntity
  8
Mst 1_1
 62
   137
  6
CONTINUOUS
370
     9
100
AcDbPolyline
 90
       45
 70
     1
 43
0.0
 38
1000.0
 39
-1000.0
 10
-85.04067476
 20
-274.24515275
 10
-85.04067476
 20
-274.13388215
 10
-85.03982245
 20
-274.11738679
 10
-85.03727055
 20
-274.10098395
 10
-85.03303288
 20
-274.08476564
 10
-85.02713375
 20
-274.06882283
 10
-85.01960595
 20
-274.05324495
 10
-85.0104917
 20
-274.03811938
 10
-84.99984216
 20
-274.02353096
 10
-84.98771708
 20
-274.00956151
 10
-84.97418477
 20
-273.9962894
 10
-84.95932056
 20
-273.98378907
 10
-84.9432081
 20
-273.97213062
 10
-84.92593787
 20
-273.96137948
 10
-84.90760681
 20
-273.95159593
 10
-84.88831721
 20
-273.94283484
 10
-84.86817806
 20
-273.93514538
 10
-84.84730159
 20
-273.92857065
 10
-84.82580555
 20
-273.92314756
 10
-84.80380973
 20
-273.91890651
 10
-84.7814382
 20
-273.91587129
 10
-84.75881628
 20
-273.91405893
 10
-84.73607073
 20
-273.91347959
 10
-84.60610799
 20
-273.91438238
 10
-84.47617684
 20
-273.91664711
 10
-84.34630413
 20
-273.92027333
 10
-84.21651733
 20
-273.92526026
 10
-84.08684333
 20
-273.93160689
 10
-83.95730948
 20
-273.93931186
 10
-83.82794266
 20
-273.94837359
 10
-83.69876991
 20
-273.95879018
 10
-83.56981814
 20
-273.97055943
 10
-83.44111411
 20
-273.98367892
 10
-83.31268526
 20
-273.99814589
 10
-83.18455779
 20
-274.01395733
 10
-83.05675875
 20
-274.03110992
 10
-82.92931482
 20
-274.04960009
 10
-82.80225283
 20
-274.06942398
 10
-82.67559873
 20
-274.09057745
 10
-82.54937939
 20
-274.11305608
 10
-82.42362119
 20
-274.13685518
 10
-82.29835024
 20
-274.16196978
 10
-82.17359282
 20
-274.18839463
 10
-82.04937488
 20
-274.21612422
 10
-81.92572223
 20
-274.24515275
  0
LWPOLYLINE
  5
2A0
100
AcDbEntity
  8
Mst 1_1
 62
   137
  6
CONTINUOUS
370
     9
100
AcDbPolyline
 90
       45
 70
     1
 43
0.0
 38
1000.0
 39
-1000.0
 10
-85.04067476
 20
-282.11181941
 10
-85.04067476
 20
-282.22309
 10
-85.03982245
 20
-282.23958537
 10
-85.03727055
 20
-282.25598821
 10
-85.03303288
 20
-282.27220651
 10
-85.02713375
 20
-282.28814933
 10
-85.01960595
 20
-282.3037272
 10
-85.0104917
 20
-282.31885278
 10
-84.99984216
 20
-282.3334412
 10
-84.98771708
 20
-282.34741065
 10
-84.97418477
 20
-282.36068276
 10
-84.95932056
 20
-282.37318309
 10
-84.9432081
 20
-282.38484153
 10
-84.92593787
 20
-282.39559268
 10
-84.90760681
 20
-282.40537623
 10
-84.88831721
 20
-282.41413731
 10
-84.86817806
 20
-282.42182677
 10
-84.84730159
 20
-282.4284015
 10
-84.82580555
 20
-282.4338246
 10
-84.80380973
 20
-282.43806564
 10
-84.7814382
 20
-282.44110087
 10
-84.75881628
 20
-282.44291323
 10
-84.73607073
 20
-282.44349257
 10
-84.60610799
 20
-282.44258978
 10
-84.47617684
 20
-282.44032505
 10
-84.34630413
 20
-282.43669882
 10
-84.21651733
 20
-282.43171189
 10
-84.08684333
 20
-282.42536526
 10
-83.95730948
 20
-282.4176603
 10
-83.82794266
 20
-282.40859856
 10
-83.69876991
 20
-282.39818198
 10
-83.56981814
 20
-282.38641272
 10
-83.44111411
 20
-282.37329323
 10
-83.31268526
 20
-282.35882627
 10
-83.18455779
 20
-282.34301482
 10
-83.05675875
 20
-282.32586223
 10
-82.92931482
 20
-282.30737207
 10
-82.80225283
 20
-282.28754817
 10
-82.67559873
 20
-282.2663947
 10
-82.54937939
 20
-282.24391607
 10
-82.42362119
 20
-282.22011697
 10
-82.29835024
 20
-282.19500237
 10
-82.17359282
 20
-282.16857752
 10
-82.04937488
 20
-282.14084794
 10
-81.92572223
 20
-282.11181941
  0
LWPOLYLINE
  5
2A1
100
AcDbEntity
  8
Mst 1_1
 62
   137
  6
CONTINUOUS
370
     9
100
AcDbPolyline
 90
       45
 70
     1
 43
0.0
 38
1000.0
 39
-1000.0
 10
-72.9784983
 20
-282.11181941
 10
-72.9784983
 20
-282.22309
 10
-72.97764597
 20
-282.23958537
 10
-72.97509395
 20
-282.25598821
 10
-72.9708564
 20
-282.27220651
 10
-72.96495713
 20
-282.28814933
 10
-72.95742935
 20
-282.3037272
 10
-72.94831507
 20
-282.31885278
 10
-72.93766569
 20
-282.3334412
 10
-72.92554061
 20
-282.34741065
 10
-72.91200813
 20
-282.36068276
 10
-72.89714394
 20
-282.37318309
 10
-72.88103163
 20
-282.38484153
 10
-72.8637614
 20
-282.39559268
 10
-72.84543019
 20
-282.40537623
 10
-72.82614076
 20
-282.41413731
 10
-72.80600143
 20
-282.42182677
 10
-72.78512511
 20
-282.4284015
 10
-72.76362892
 20
-282.4338246
 10
-72.74163327
 20
-282.43806564
 10
-72.71926187
 20
-282.44110087
 10
-72.69663983
 20
-282.44291323
 10
-72.67389423
 20
-282.44349257
 10
-72.54393151
 20
-282.44258978
 10
-72.4140002
 20
-282.44032505
 10
-72.2841275
 20
-282.43669882
 10
-72.15434071
 20
-282.43171189
 10
-72.02466683
 20
-282.42536526
 10
-71.89513303
 20
-282.4176603
 10
-71.76576605
 20
-282.40859856
 10
-71.63659327
 20
-282.39818198
 10
-71.50764154
 20
-282.38641272
 10
-71.37893766
 20
-282.37329323
 10
-71.25050863
 20
-282.35882627
 10
-71.12238131
 20
-282.34301482
 10
-70.99458227
 20
-282.32586223
 10
-70.86713849
 20
-282.30737207
 10
-70.74007623
 20
-282.28754817
 10
-70.61342225
 20
-282.2663947
 10
-70.48720294
 20
-282.24391607
 10
-70.36144472
 20
-282.22011697
 10
-70.23617374
 20
-282.19500237
 10
-70.11141619
 20
-282.16857752
 10
-69.98719828
 20
-282.14084794
 10
-69.86354576
 20
-282.11181941
  0
LWPOLYLINE
  5
2A2
100
AcDbEntity
  8
Mst 1_1
 62
   137
  6
CONTINUOUS
370
     9
100
AcDbPolyline
 90
       45
 70
     1
 43
0.0
 38
1000.0
 39
-1000.0
 10
-72.9784983
 20
-274.24515275
 10
-72.9784983
 20
-274.13388215
 10
-72.97764597
 20
-274.11738679
 10
-72.97509395
 20
-274.10098395
 10
-72.9708564
 20
-274.08476564
 10
-72.96495713
 20
-274.06882283
 10
-72.95742935
 20
-274.05324495
 10
-72.94831507
 20
-274.03811938
 10
-72.93766569
 20
-274.02353096
 10
-72.92554061
 20
-274.00956151
 10
-72.91200813
 20
-273.9962894
 10
-72.89714394
 20
-273.98378907
 10
-72.88103163
 20
-273.97213062
 10
-72.8637614
 20
-273.96137948
 10
-72.84543019
 20
-273.95159593
 10
-72.82614076
 20
-273.94283484
 10
-72.80600143
 20
-273.93514538
 10
-72.78512511
 20
-273.92857065
 10
-72.76362892
 20
-273.92314756
 10
-72.74163327
 20
-273.91890651
 10
-72.71926187
 20
-273.91587129
 10
-72.69663983
 20
-273.91405893
 10
-72.67389423
 20
-273.91347959
 10
-72.54393151
 20
-273.91438238
 10
-72.4140002
 20
-273.91664711
 10
-72.2841275
 20
-273.92027333
 10
-72.15434071
 20
-273.92526026
 10
-72.02466683
 20
-273.93160689
 10
-71.89513303
 20
-273.93931186
 10
-71.76576605
 20
-273.94837359
 10
-71.63659327
 20
-273.95879018
 10
-71.50764154
 20
-273.97055943
 10
-71.37893766
 20
-273.98367892
 10
-71.25050863
 20
-273.99814589
 10
-71.12238131
 20
-274.01395733
 10
-70.99458227
 20
-274.03110992
 10
-70.86713849
 20
-274.04960009
 10
-70.74007623
 20
-274.06942398
 10
-70.61342225
 20
-274.09057745
 10
-70.48720294
 20
-274.11305608
 10
-70.36144472
 20
-274.13685518
 10
-70.23617374
 20
-274.16196978
 10
-70.11141619
 20
-274.18839463
 10
-69.98719828
 20
-274.21612422
 10
-69.86354576
 20
-274.24515275
  0
LWPOLYLINE
  5
2A3
100
AcDbEntity
  8
Mst 1_1
 62
   137
  6
CONTINUOUS
370
    15
100
AcDbPolyline
 90
       46
 70
     0
 43
0.0
 10
-64.65845844
 20
-274.24515275
 10
-62.45239782
 20
-274.24515275
 10
-62.36996826
 20
-274.24888102
 10
-62.28799969
 20
-274.26004498
 10
-62.2069505
 20
-274.2785822
 10
-62.12727393
 20
-274.304389
 10
-62.0494156
 20
-274.33732108
 10
-61.97381091
 20
-274.37719425
 10
-61.90088267
 20
-274.42378554
 10
-61.83103873
 20
-274.47683438
 10
-61.76466967
 20
-274.5360441
 10
-61.70214668
 20
-274.60108358
 10
-61.64381939
 20
-274.67158909
 10
-61.59001401
 20
-274.74716634
 10
-61.54103142
 20
-274.82739267
 10
-61.49714556
 20
-274.91181941
 10
-61.45860186
 20
-274.99997443
 10
-61.42561587
 20
-275.09136471
 10
-61.39837206
 20
-275.18547918
 10
-61.37702279
 20
-275.2817915
 10
-61.36168745
 20
-275.37976306
 10
-61.35245181
 20
-275.47884595
 10
-61.34936752
 20
-275.57848608
 10
-61.34936752
 20
-280.77848608
 10
-61.35245181
 20
-280.8781262
 10
-61.36168745
 20
-280.9772091
 10
-61.37702279
 20
-281.07518065
 10
-61.39837206
 20
-281.17149298
 10
-61.42561587
 20
-281.26560744
 10
-61.45860186
 20
-281.35699773
 10
-61.49714556
 20
-281.44515274
 10
-61.54103142
 20
-281.52957949
 10
-61.59001401
 20
-281.60980581
 10
-61.64381939
 20
-281.68538306
 10
-61.70214668
 20
-281.75588857
 10
-61.76466967
 20
-281.82092805
 10
-61.83103873
 20
-281.88013777
 10
-61.90088267
 20
-281.93318661
 10
-61.97381091
 20
-281.9797779
 10
-62.0494156
 20
-282.01965107
 10
-62.12727393
 20
-282.05258315
 10
-62.2069505
 20
-282.07838996
 10
-62.28799969
 20
-282.09692718
 10
-62.36996826
 20
-282.10809114
 10
-62.45239782
 20
-282.11181941
 10
-64.65845844
 20
-282.11181941
  0
LWPOLYLINE
  5
2A4
100
AcDbEntity
  8
Mst 1_1
 62
   137
  6
CONTINUOUS
370
    15
100
AcDbPolyline
 90
       46
 70
     0
 43
0.0
 10
-76.72063506
 20
-274.24515275
 10
-74.51457435
 20
-274.24515275
 10
-74.43214475
 20
-274.24888102
 10
-74.35017618
 20
-274.26004498
 10
-74.26912703
 20
-274.2785822
 10
-74.1894505
 20
-274.304389
 10
-74.11159215
 20
-274.33732108
 10
-74.03598737
 20
-274.37719425
 10
-73.96305924
 20
-274.42378554
 10
-73.89321533
 20
-274.47683438
 10
-73.82684621
 20
-274.5360441
 10
-73.76432314
 20
-274.60108358
 10
-73.70599595
 20
-274.67158909
 10
-73.65219058
 20
-274.74716634
 10
-73.60320801
 20
-274.82739267
 10
-73.55932204
 20
-274.91181941
 10
-73.52077841
 20
-274.99997443
 10
-73.4877924
 20
-275.09136471
 10
-73.46054863
 20
-275.18547918
 10
-73.43919931
 20
-275.2817915
 10
-73.42386403
 20
-275.37976306
 10
-73.41462835
 20
-275.47884595
 10
-73.41154399
 20
-275.57848608
 10
-73.41154399
 20
-280.77848608
 10
-73.41462835
 20
-280.8781262
 10
-73.42386403
 20
-280.9772091
 10
-73.43919931
 20
-281.07518065
 10
-73.46054863
 20
-281.17149298
 10
-73.4877924
 20
-281.26560744
 10
-73.52077841
 20
-281.35699773
 10
-73.55932204
 20
-281.44515274
 10
-73.60320801
 20
-281.52957949
 10
-73.65219058
 20
-281.60980581
 10
-73.70599595
 20
-281.68538306
 10
-73.76432314
 20
-281.75588857
 10
-73.82684621
 20
-281.82092805
 10
-73.89321533
 20
-281.88013777
 10
-73.96305924
 20
-281.93318661
 10
-74.03598737
 20
-281.9797779
 10
-74.11159215
 20
-282.01965107
 10
-74.1894505
 20
-282.05258315
 10
-74.26912703
 20
-282.07838996
 10
-74.35017618
 20
-282.09692718
 10
-74.43214475
 20
-282.10809114
 10
-74.51457435
 20
-282.11181941
 10
-76.72063506
 20
-282.11181941
  0
LINE
  5
2A5
100
AcDbEntity
  8
Mst 1_1
 62
   137
370
    15
100
AcDbLine
 10
-108.34936752
 20
-273.17848608
 30
100.0
 11
-106.34936752
 21
-274.17848608
 31
100.0
  0
LINE
  5
2A6
100
AcDbEntity
  8
Mst 1_1
 62
   137
370
    15
100
AcDbLine
 10
-108.34936752
 20
-283.17848608
 30
100.0
 11
-108.34936752
 21
-273.17848608
 31
100.0
  0
LINE
  5
2A7
100
AcDbEntity
  8
Mst 1_1
 62
   137
370
    15
100
AcDbLine
 10
-108.34936752
 20
-283.17848608
 30
100.0
 11
-106.34936752
 21
-282.17848608
 31
100.0
  0
LINE
  5
2A8
100
AcDbEntity
  8
Mst 1_1
 62
   137
370
    15
100
AcDbLine
 10
-108.34936752
 20
-273.17848608
 30
100.0
 11
-321.34936752
 21
-273.17848608
 31
100.0
  0
LINE
  5
2A9
100
AcDbEntity
  8
Mst 1_1
 62
   137
370
    15
100
AcDbLine
 10
-108.34936752
 20
-283.17848608
 30
100.0
 11
-321.34936752
 21
-283.17848608
 31
100.0
  0
LINE
  5
2AA
100
AcDbEntity
  8
Mst 1_1
 62
   137
370
    15
100
AcDbLine
 10
-321.34936752
 20
-273.17848608
 30
100.0
 11
-321.34936752
 21
-283.17848608
 31
100.0
  0
LWPOLYLINE
  5
2AB
100
AcDbEntity
  8
Mst 1_1
 62
   137
370
    15
100
AcDbPolyline
 90
        5
 70
     0
 43
0.0
 38
100.0
 10
-314.34936752
 20
-275.17848608
 10
-371.84936752
 20
-275.17848608
 10
-371.84936752
 20
-281.17848608
 10
-314.34936752
 20
-281.17848608
 10
-314.34936752
 20
-275.17848608
  0
LWPOLYLINE
  5
2AC
100
AcDbEntity
  8
Mst 1_1
 62
   137
370
    15
100
AcDbPolyline
 90
        4
 70
     0
 43
0.0
 38
100.0
 10
-314.34936752
 20
-275.17848608
 10
-313.34936752
 20
-276.17848608
 10
-313.34936752
 20
-280.17848608
 10
-314.34936752
 20
-281.17848608
  0
LINE
  5
2AD
100
AcDbEntity
  8
Mst 1_1
 62
   137
370
    15
100
AcDbLine
 10
-313.34936752
 20
-276.17848608
 30
100.0
 11
-371.84936752
 21
-276.17848608
 31
100.0
  0
LINE
  5
2AE
100
AcDbEntity
  8
Mst 1_1
 62
   137
370
    15
100
AcDbLine
 10
-313.34936752
 20
-280.17848608
 30
100.0
 11
-371.84936752
 21
-280.17848608
 31
100.0
  0
LWPOLYLINE
  5
2AF
100
AcDbEntity
  8
Mst 1_1
 62
   137
370
    15
100
AcDbPolyline
 90
        6
 70
     0
 43
0.0
 38
100.0
 10
-373.34936752
 20
-275.17848608
 10
-373.34936752
 20
-269.17848608
 10
-371.84936752
 20
-269.17848608
 10
-371.84936752
 20
-287.17848608
 10
-373.34936752
 20
-287.17848608
 10
-373.34936752
 20
-275.17848608
  0
LWPOLYLINE
  5
2B0
100
AcDbEntity
  8
Mst 1_1
 62
   137
370
    15
100
AcDbPolyline
 90
        5
 70
     0
 43
0.0
 38
100.0
 10
-373.34936752
 20
-271.37848608
 10
-374.34936752
 20
-271.37848608
 10
-374.34936752
 20
-284.97848608
 10
-373.34936752
 20
-284.97848608
 10
-373.34936752
 20
-271.37848608
  0
LWPOLYLINE
  5
2B1
100
AcDbEntity
  8
Mst 1_1
 62
   137
370
    15
100
AcDbPolyline
 90
        5
 70
     0
 43
0.0
 38
100.0
 10
-374.34936752
 20
-273.32848608
 10
-375.64936752
 20
-275.02848608
 10
-375.64936752
 20
-281.32848608
 10
-374.34936752
 20
-283.02848608
 10
-374.34936752
 20
-273.32848608
  0
CIRCLE
  5
2B2
100
AcDbEntity
  8
Mst 1_1
 62
   137
  6
CONTINUOUS
370
     9
100
AcDbCircle
 10
-436.9250338
 20
-278.17848608
 30
0.0
 40
1.88177431
  0
CIRCLE
  5
2B3
100
AcDbEntity
  8
Mst 1_1
 62
   137
  6
CONTINUOUS
370
     9
100
AcDbCircle
 10
-436.9250338
 20
-278.17848608
 30
0.0
 40
1.88177431
  0
CIRCLE
  5
2B4
100
AcDbEntity
  8
Mst 1_1
 62
   137
  6
CONTINUOUS
370
     9
100
AcDbCircle
 10
-436.9250338
 20
-278.17848608
 30
0.0
 40
1.88177431
  0
CIRCLE
  5
2B5
100
AcDbEntity
  8
Mst 1_1
 62
   137
  6
CONTINUOUS
370
     9
100
AcDbCircle
 10
-436.9250338
 20
-278.17848608
 30
0.0
 40
2.97217223
  0
CIRCLE
  5
2B6
100
AcDbEntity
  8
Mst 1_1
 62
   137
  6
CONTINUOUS
370
     9
100
AcDbCircle
 10
-436.9250338
 20
-278.17848608
 30
0.0
 40
4.56609304
  0
CIRCLE
  5
2B7
100
AcDbEntity
  8
Mst 1_1
 62
   137
  6
CONTINUOUS
370
     9
100
AcDbCircle
 10
-436.9250338
 20
-278.17848608
 30
0.0
 40
1.9962351
  0
CIRCLE
  5
2B8
100
AcDbEntity
  8
Mst 1_1
 62
   137
  6
CONTINUOUS
370
     9
100
AcDbCircle
 10
-436.9250338
 20
-278.17848608
 30
0.0
 40
8.74999999
  0
ARC
  5
2B9
100
AcDbEntity
  8
Mst 1_1
 62
   137
  6
CONTINUOUS
370
    15
100
AcDbCircle
 10
-439.35955338
 20
-278.17848608
 30
0.0
 40
0.53765266
100
AcDbArc
 50
104.00039951
 51
255.99961051
  0
ARC
  5
2BA
100
AcDbEntity
  8
Mst 1_1
 62
   137
  6
CONTINUOUS
370
    15
100
AcDbCircle
 10
-439.76894583
 20
-279.8204195
 30
0.0
 40
1.15454932
100
AcDbArc
 50
344.00042282
 51
75.99958535
  0
ARC
  5
2BB
100
AcDbEntity
  8
Mst 1_1
 62
   137
  6
CONTINUOUS
370
    15
100
AcDbCircle
 10
-438.14229355
 20
-280.28684189
 30
0.0
 40
0.53765264
100
AcDbArc
 50
164.00040911
 51
315.99959504
  0
ARC
  5
2BC
100
AcDbEntity
  8
Mst 1_1
 62
   137
  6
CONTINUOUS
370
    15
100
AcDbCircle
 10
-436.9250338
 20
-281.4623527
 30
0.0
 40
1.15454918
100
AcDbArc
 50
44.00040429
 51
135.99959571
  0
ARC
  5
2BD
100
AcDbEntity
  8
Mst 1_1
 62
   137
  6
CONTINUOUS
370
    15
100
AcDbCircle
 10
-435.707774
 20
-280.28684197
 30
0.0
 40
0.53765261
100
AcDbArc
 50
224.00041508
 51
15.9996008
  0
ARC
  5
2BE
100
AcDbEntity
  8
Mst 1_1
 62
   137
  6
CONTINUOUS
370
    15
100
AcDbCircle
 10
-434.49051422
 20
-278.17848608
 30
0.0
 40
0.53765266
100
AcDbArc
 50
284.00040953
 51
75.99960049
  0
ARC
  5
2BF
100
AcDbEntity
  8
Mst 1_1
 62
   137
  6
CONTINUOUS
370
    15
100
AcDbCircle
 10
-434.08112177
 20
-276.53655266
 30
0.0
 40
1.15454932
100
AcDbArc
 50
164.00041281
 51
255.99959537
  0
ARC
  5
2C0
100
AcDbEntity
  8
Mst 1_1
 62
   137
  6
CONTINUOUS
370
    15
100
AcDbCircle
 10
-435.70777405
 20
-276.07013027
 30
0.0
 40
0.53765264
100
AcDbArc
 50
344.00041913
 51
135.99958502
  0
ARC
  5
2C1
100
AcDbEntity
  8
Mst 1_1
 62
   137
  6
CONTINUOUS
370
    15
100
AcDbCircle
 10
-436.9250338
 20
-274.89461945
 30
0.0
 40
1.15454918
100
AcDbArc
 50
224.00041431
 51
315.99960573
  0
ARC
  5
2C2
100
AcDbEntity
  8
Mst 1_1
 62
   137
  6
CONTINUOUS
370
    15
100
AcDbCircle
 10
-438.1422936
 20
-276.07013019
 30
0.0
 40
0.53765261
100
AcDbArc
 50
44.00040506
 51
195.99961082
  0
ARC
  5
2C3
100
AcDbEntity
  8
Mst 1_1
 62
   137
  6
CONTINUOUS
370
    15
100
AcDbCircle
 10
-439.76894583
 20
-276.53655266
 30
0.0
 40
1.15454932
100
AcDbArc
 50
284.00042461
 51
15.99958726
  0
CIRCLE
  5
2C4
100
AcDbEntity
  8
Mst 1_1
 62
   137
  6
CONTINUOUS
370
     9
100
AcDbCircle
 10
-436.9250338
 20
-278.17848608
 30
0.0
 40
6.8
  0
ARC
  5
2C5
100
AcDbEntity
  8
Mst 1_1
 62
   137
  6
CONTINUOUS
370
    15
100
AcDbCircle
 10
-434.08112177
 20
-279.8204195
 30
0.0
 40
1.15454932
100
AcDbArc
 50
104.00041459
 51
195.99959727
  0
LINE
  5
2C6
100
AcDbEntity
  8
Mst 1_1
 62
     7
  6
DASHED
370
    -3
100
AcDbLine
 10
-61.42561587
 20
-258.17848608
 30
0.0
 11
-61.42561587
 21
-293.17848608
 31
0.0
  0
LINE
  5
2C7
100
AcDbEntity
  8
Mst 1_1
 62
   137
370
    15
100
AcDbLine
 10
-53.08110465
 20
-304.17848608
 30
0.0
 11
-53.08110465
 21
-312.17848608
 31
0.0
  0
LINE
  5
2C8
100
AcDbEntity
  8
Mst 1_1
 62
   137
370
    15
100
AcDbLine
 10
-53.08110465
 20
-304.89415275
 30
0.0
 11
-53.08110465
 21
-311.46281941
 31
0.0
  0
LINE
  5
2C9
100
AcDbEntity
  8
Mst 1_1
 62
   137
370
    15
100
AcDbLine
 10
-53.08110465
 20
-312.17848608
 30
0.0
 11
-66.34936752
 21
-312.17848608
 31
0.0
  0
LINE
  5
2CA
100
AcDbEntity
  8
Mst 1_1
 62
   137
370
    15
100
AcDbLine
 10
-53.08110465
 20
-311.79948608
 30
0.0
 11
-66.34936752
 21
-311.79948608
 31
0.0
  0
LINE
  5
2CB
100
AcDbEntity
  8
Mst 1_1
 62
   137
370
    15
100
AcDbLine
 10
-53.08110465
 20
-304.17848608
 30
0.0
 11
-66.34936752
 21
-304.17848608
 31
0.0
  0
LINE
  5
2CC
100
AcDbEntity
  8
Mst 1_1
 62
   137
370
    15
100
AcDbLine
 10
-53.08110465
 20
-304.55748608
 30
0.0
 11
-66.34936752
 21
-304.55748608
 31
0.0
  0
LINE
  5
2CD
100
AcDbEntity
  8
Mst 1_1
 62
   137
370
    15
100
AcDbLine
 10
-52.34936752
 20
-304.55748608
 30
0.0
 11
-52.34936752
 21
-311.79948608
 31
0.0
  0
LINE
  5
2CE
100
AcDbEntity
  8
Mst 1_1
 62
     1
  6
CADWORK_8
370
    15
100
AcDbLine
 10
-8.34936752
 20
-308.17848608
 30
0.0
 11
-380.64936752
 21
-308.17848608
 31
0.0
  0
LWPOLYLINE
  5
2CF
100
AcDbEntity
  8
Mst 1_1
 62
     7
  6
CONTINUOUS
370
    -3
100
AcDbPolyline
 90
        7
 70
     0
 43
0.0
 10
-66.34936752
 20
-322.27848608
 10
-66.34936752
 20
-312.27848608
 10
-15.71650362
 20
-312.27848608
 10
-13.34936752
 20
-308.17848608
 10
-15.71650362
 20
-304.07848608
 10
-66.34936752
 20
-304.07848608
 10
-66.34936752
 20
-294.07848608
  0
LINE
  5
2D0
100
AcDbEntity
  8
Mst 1_1
 62
     1
  6
CADWORK_8
370
    15
100
AcDbLine
 10
-66.34936752
 20
-304.17848608
 30
0.0
 11
-66.34936752
 21
-312.17848608
 31
0.0
  0
LWPOLYLINE
  5
2D1
100
AcDbEntity
  8
Mst 1_1
 62
   137
  6
CONTINUOUS
370
    15
100
AcDbPolyline
 90
        3
 70
     0
 43
0.0
 10
-53.08110465
 20
-304.17848608
 10
-52.34936752
 20
-304.55748608
 10
-51.68270085
 20
-304.55748608
  0
LWPOLYLINE
  5
2D2
100
AcDbEntity
  8
Mst 1_1
 62
   137
  6
CONTINUOUS
370
    15
100
AcDbPolyline
 90
        3
 70
     0
 43
0.0
 10
-53.08110465
 20
-312.17848608
 10
-52.34936752
 20
-311.79948608
 10
-51.68270085
 20
-311.79948608
  0
LINE
  5
2D3
100
AcDbEntity
  8
Mst 1_1
 62
   137
370
    15
100
AcDbLine
 10
-51.68270085
 20
-304.17848608
 30
0.0
 11
-45.47510023
 21
-304.17848608
 31
0.0
  0
LINE
  5
2D4
100
AcDbEntity
  8
Mst 1_1
 62
   137
370
    15
100
AcDbLine
 10
-51.68270085
 20
-312.17848608
 30
0.0
 11
-45.47510023
 21
-312.17848608
 31
0.0
  0
LINE
  5
2D5
100
AcDbEntity
  8
Mst 1_1
 62
   137
370
    15
100
AcDbLine
 10
-27.3126251
 20
-304.84003415
 30
0.0
 11
-24.65845844
 21
-304.24515275
 31
0.0
  0
LINE
  5
2D6
100
AcDbEntity
  8
Mst 1_1
 62
   137
370
    15
100
AcDbLine
 10
-27.3126251
 20
-311.516938
 30
0.0
 11
-24.65845844
 21
-312.11181941
 31
0.0
  0
LINE
  5
2D7
100
AcDbEntity
  8
Mst 1_1
 62
   137
370
    15
100
AcDbLine
 10
-22.35421678
 20
-304.24515275
 30
0.0
 11
-22.35421678
 21
-312.11181941
 31
0.0
  0
LINE
  5
2D8
100
AcDbEntity
  8
Mst 1_1
 62
   137
370
    15
100
AcDbLine
 10
-24.65845844
 20
-304.24515275
 30
0.0
 11
-24.65845844
 21
-312.11181941
 31
0.0
  0
LINE
  5
2D9
100
AcDbEntity
  8
Mst 1_1
 62
   137
370
    15
100
AcDbLine
 10
-51.68270085
 20
-304.17848608
 30
0.0
 11
-51.68270085
 21
-312.17848608
 31
0.0
  0
3DFACE
  5
2DA
100
AcDbEntity
  8
Mst 1_1
 62
   137
  6
CONTINUOUS
370
     9
100
AcDbFace
 70
     0
 10
-27.3126251
 20
-307.84515274
 30
1000.0
 11
-27.3126251
 21
-304.24515275
 31
1000.0
 12
-32.9784983
 22
-304.24515275
 32
1000.0
 13
-32.9784983
 23
-307.84515274
 33
1000.0
  0
3DFACE
  5
2DB
100
AcDbEntity
  8
Mst 1_1
 62
   137
  6
CONTINUOUS
370
     9
100
AcDbFace
 70
     0
 10
-27.3126251
 20
-308.51181941
 30
1000.0
 11
-27.3126251
 21
-312.11181941
 31
1000.0
 12
-32.9784983
 22
-312.11181941
 32
1000.0
 13
-32.9784983
 23
-308.51181941
 33
1000.0
  0
LINE
  5
2DC
100
AcDbEntity
  8
Mst 1_1
 62
   137
370
    15
100
AcDbLine
 10
-39.37480167
 20
-304.84003415
 30
0.0
 11
-36.72063506
 21
-304.24515275
 31
0.0
  0
LINE
  5
2DD
100
AcDbEntity
  8
Mst 1_1
 62
   137
370
    15
100
AcDbLine
 10
-39.37480167
 20
-311.516938
 30
0.0
 11
-36.72063506
 21
-312.11181941
 31
0.0
  0
LINE
  5
2DE
100
AcDbEntity
  8
Mst 1_1
 62
   137
370
    15
100
AcDbLine
 10
-34.41639326
 20
-304.24515275
 30
0.0
 11
-34.41639326
 21
-312.11181941
 31
0.0
  0
LINE
  5
2DF
100
AcDbEntity
  8
Mst 1_1
 62
   137
370
    15
100
AcDbLine
 10
-36.72063506
 20
-304.24515275
 30
0.0
 11
-36.72063506
 21
-312.11181941
 31
0.0
  0
3DFACE
  5
2E0
100
AcDbEntity
  8
Mst 1_1
 62
   137
  6
CONTINUOUS
370
     9
100
AcDbFace
 70
     0
 10
-39.37480167
 20
-307.84515274
 30
1000.0
 11
-39.37480167
 21
-304.24515275
 31
1000.0
 12
-45.04067476
 22
-304.24515275
 32
1000.0
 13
-45.04067476
 23
-307.84515274
 33
1000.0
  0
3DFACE
  5
2E1
100
AcDbEntity
  8
Mst 1_1
 62
   137
  6
CONTINUOUS
370
     9
100
AcDbFace
 70
     0
 10
-39.37480167
 20
-308.51181941
 30
1000.0
 11
-39.37480167
 21
-312.11181941
 31
1000.0
 12
-45.04067476
 22
-312.11181941
 32
1000.0
 13
-45.04067476
 23
-308.51181941
 33
1000.0
  0
LINE
  5
2E2
100
AcDbEntity
  8
Mst 1_1
 62
   137
  6
CONTINUOUS
370
    15
100
AcDbLine
 10
-32.9784983
 20
-305.51181941
 30
1000.0
 11
-33.41292374
 21
-305.51181941
 31
1000.0
  0
LINE
  5
2E3
100
AcDbEntity
  8
Mst 1_1
 62
   137
  6
CONTINUOUS
370
    15
100
AcDbLine
 10
-32.9784983
 20
-310.84515274
 30
1000.0
 11
-33.41292374
 21
-310.84515274
 31
1000.0
  0
LINE
  5
2E4
100
AcDbEntity
  8
Mst 1_1
 62
   137
  6
CONTINUOUS
370
    15
100
AcDbLine
 10
-45.04067476
 20
-305.51181941
 30
1000.0
 11
-45.47510023
 21
-305.51181941
 31
1000.0
  0
LINE
  5
2E5
100
AcDbEntity
  8
Mst 1_1
 62
   137
  6
CONTINUOUS
370
    15
100
AcDbLine
 10
-45.04067476
 20
-310.84515274
 30
1000.0
 11
-45.47510023
 21
-310.84515274
 31
1000.0
  0
LINE
  5
2E6
100
AcDbEntity
  8
Mst 1_1
 62
   137
  6
CONTINUOUS
370
    15
100
AcDbLine
 10
-45.47510023
 20
-304.17848608
 30
1000.0
 11
-45.47510023
 21
-312.17848608
 31
1000.0
  0
LWPOLYLINE
  5
2E7
100
AcDbEntity
  8
Mst 1_1
 62
   137
  6
CONTINUOUS
370
     9
100
AcDbPolyline
 90
       45
 70
     1
 43
0.0
 38
1000.0
 39
-1000.0
 10
-45.04067476
 20
-304.24515275
 10
-45.04067476
 20
-304.13388215
 10
-45.03982245
 20
-304.11738679
 10
-45.03727055
 20
-304.10098395
 10
-45.03303288
 20
-304.08476564
 10
-45.02713375
 20
-304.06882283
 10
-45.01960595
 20
-304.05324495
 10
-45.0104917
 20
-304.03811938
 10
-44.99984216
 20
-304.02353096
 10
-44.98771708
 20
-304.00956151
 10
-44.97418477
 20
-303.9962894
 10
-44.95932056
 20
-303.98378907
 10
-44.9432081
 20
-303.97213062
 10
-44.92593787
 20
-303.96137948
 10
-44.90760681
 20
-303.95159593
 10
-44.88831721
 20
-303.94283484
 10
-44.86817806
 20
-303.93514538
 10
-44.84730159
 20
-303.92857065
 10
-44.82580555
 20
-303.92314756
 10
-44.80380973
 20
-303.91890651
 10
-44.7814382
 20
-303.91587129
 10
-44.75881628
 20
-303.91405893
 10
-44.73607073
 20
-303.91347959
 10
-44.60610799
 20
-303.91438238
 10
-44.47617684
 20
-303.91664711
 10
-44.34630413
 20
-303.92027333
 10
-44.21651733
 20
-303.92526026
 10
-44.08684333
 20
-303.93160689
 10
-43.95730948
 20
-303.93931186
 10
-43.82794266
 20
-303.94837359
 10
-43.69876991
 20
-303.95879018
 10
-43.56981814
 20
-303.97055943
 10
-43.44111411
 20
-303.98367892
 10
-43.31268526
 20
-303.99814589
 10
-43.18455779
 20
-304.01395733
 10
-43.05675875
 20
-304.03110992
 10
-42.92931482
 20
-304.04960009
 10
-42.80225283
 20
-304.06942398
 10
-42.67559873
 20
-304.09057745
 10
-42.54937939
 20
-304.11305608
 10
-42.42362119
 20
-304.13685518
 10
-42.29835024
 20
-304.16196978
 10
-42.17359282
 20
-304.18839463
 10
-42.04937488
 20
-304.21612422
 10
-41.92572223
 20
-304.24515275
  0
LWPOLYLINE
  5
2E8
100
AcDbEntity
  8
Mst 1_1
 62
   137
  6
CONTINUOUS
370
     9
100
AcDbPolyline
 90
       45
 70
     1
 43
0.0
 38
1000.0
 39
-1000.0
 10
-45.04067476
 20
-312.11181941
 10
-45.04067476
 20
-312.22309
 10
-45.03982245
 20
-312.23958537
 10
-45.03727055
 20
-312.25598821
 10
-45.03303288
 20
-312.27220651
 10
-45.02713375
 20
-312.28814933
 10
-45.01960595
 20
-312.3037272
 10
-45.0104917
 20
-312.31885278
 10
-44.99984216
 20
-312.3334412
 10
-44.98771708
 20
-312.34741065
 10
-44.97418477
 20
-312.36068276
 10
-44.95932056
 20
-312.37318309
 10
-44.9432081
 20
-312.38484153
 10
-44.92593787
 20
-312.39559268
 10
-44.90760681
 20
-312.40537623
 10
-44.88831721
 20
-312.41413731
 10
-44.86817806
 20
-312.42182677
 10
-44.84730159
 20
-312.4284015
 10
-44.82580555
 20
-312.4338246
 10
-44.80380973
 20
-312.43806564
 10
-44.7814382
 20
-312.44110087
 10
-44.75881628
 20
-312.44291323
 10
-44.73607073
 20
-312.44349257
 10
-44.60610799
 20
-312.44258978
 10
-44.47617684
 20
-312.44032505
 10
-44.34630413
 20
-312.43669882
 10
-44.21651733
 20
-312.43171189
 10
-44.08684333
 20
-312.42536526
 10
-43.95730948
 20
-312.4176603
 10
-43.82794266
 20
-312.40859856
 10
-43.69876991
 20
-312.39818198
 10
-43.56981814
 20
-312.38641272
 10
-43.44111411
 20
-312.37329323
 10
-43.31268526
 20
-312.35882627
 10
-43.18455779
 20
-312.34301482
 10
-43.05675875
 20
-312.32586223
 10
-42.92931482
 20
-312.30737207
 10
-42.80225283
 20
-312.28754817
 10
-42.67559873
 20
-312.2663947
 10
-42.54937939
 20
-312.24391607
 10
-42.42362119
 20
-312.22011697
 10
-42.29835024
 20
-312.19500237
 10
-42.17359282
 20
-312.16857752
 10
-42.04937488
 20
-312.14084794
 10
-41.92572223
 20
-312.11181941
  0
LWPOLYLINE
  5
2E9
100
AcDbEntity
  8
Mst 1_1
 62
   137
  6
CONTINUOUS
370
     9
100
AcDbPolyline
 90
       45
 70
     1
 43
0.0
 38
1000.0
 39
-1000.0
 10
-32.9784983
 20
-312.11181941
 10
-32.9784983
 20
-312.22309
 10
-32.97764597
 20
-312.23958537
 10
-32.97509395
 20
-312.25598821
 10
-32.9708564
 20
-312.27220651
 10
-32.96495713
 20
-312.28814933
 10
-32.95742935
 20
-312.3037272
 10
-32.94831507
 20
-312.31885278
 10
-32.93766569
 20
-312.3334412
 10
-32.92554061
 20
-312.34741065
 10
-32.91200813
 20
-312.36068276
 10
-32.89714394
 20
-312.37318309
 10
-32.88103163
 20
-312.38484153
 10
-32.8637614
 20
-312.39559268
 10
-32.84543019
 20
-312.40537623
 10
-32.82614076
 20
-312.41413731
 10
-32.80600143
 20
-312.42182677
 10
-32.78512511
 20
-312.4284015
 10
-32.76362892
 20
-312.4338246
 10
-32.74163327
 20
-312.43806564
 10
-32.71926187
 20
-312.44110087
 10
-32.69663983
 20
-312.44291323
 10
-32.67389423
 20
-312.44349257
 10
-32.54393151
 20
-312.44258978
 10
-32.4140002
 20
-312.44032505
 10
-32.2841275
 20
-312.43669882
 10
-32.15434071
 20
-312.43171189
 10
-32.02466683
 20
-312.42536526
 10
-31.89513303
 20
-312.4176603
 10
-31.76576605
 20
-312.40859856
 10
-31.63659327
 20
-312.39818198
 10
-31.50764154
 20
-312.38641272
 10
-31.37893766
 20
-312.37329323
 10
-31.25050863
 20
-312.35882627
 10
-31.12238131
 20
-312.34301482
 10
-30.99458227
 20
-312.32586223
 10
-30.86713849
 20
-312.30737207
 10
-30.74007623
 20
-312.28754817
 10
-30.61342225
 20
-312.2663947
 10
-30.48720294
 20
-312.24391607
 10
-30.36144472
 20
-312.22011697
 10
-30.23617374
 20
-312.19500237
 10
-30.11141619
 20
-312.16857752
 10
-29.98719828
 20
-312.14084794
 10
-29.86354576
 20
-312.11181941
  0
LWPOLYLINE
  5
2EA
100
AcDbEntity
  8
Mst 1_1
 62
   137
  6
CONTINUOUS
370
     9
100
AcDbPolyline
 90
       45
 70
     1
 43
0.0
 38
1000.0
 39
-1000.0
 10
-32.9784983
 20
-304.24515275
 10
-32.9784983
 20
-304.13388215
 10
-32.97764597
 20
-304.11738679
 10
-32.97509395
 20
-304.10098395
 10
-32.9708564
 20
-304.08476564
 10
-32.96495713
 20
-304.06882283
 10
-32.95742935
 20
-304.05324495
 10
-32.94831507
 20
-304.03811938
 10
-32.93766569
 20
-304.02353096
 10
-32.92554061
 20
-304.00956151
 10
-32.91200813
 20
-303.9962894
 10
-32.89714394
 20
-303.98378907
 10
-32.88103163
 20
-303.97213062
 10
-32.8637614
 20
-303.96137948
 10
-32.84543019
 20
-303.95159593
 10
-32.82614076
 20
-303.94283484
 10
-32.80600143
 20
-303.93514538
 10
-32.78512511
 20
-303.92857065
 10
-32.76362892
 20
-303.92314756
 10
-32.74163327
 20
-303.91890651
 10
-32.71926187
 20
-303.91587129
 10
-32.69663983
 20
-303.91405893
 10
-32.67389423
 20
-303.91347959
 10
-32.54393151
 20
-303.91438238
 10
-32.4140002
 20
-303.91664711
 10
-32.2841275
 20
-303.92027333
 10
-32.15434071
 20
-303.92526026
 10
-32.02466683
 20
-303.93160689
 10
-31.89513303
 20
-303.93931186
 10
-31.76576605
 20
-303.94837359
 10
-31.63659327
 20
-303.95879018
 10
-31.50764154
 20
-303.97055943
 10
-31.37893766
 20
-303.98367892
 10
-31.25050863
 20
-303.99814589
 10
-31.12238131
 20
-304.01395733
 10
-30.99458227
 20
-304.03110992
 10
-30.86713849
 20
-304.04960009
 10
-30.74007623
 20
-304.06942398
 10
-30.61342225
 20
-304.09057745
 10
-30.48720294
 20
-304.11305608
 10
-30.36144472
 20
-304.13685518
 10
-30.23617374
 20
-304.16196978
 10
-30.11141619
 20
-304.18839463
 10
-29.98719828
 20
-304.21612422
 10
-29.86354576
 20
-304.24515275
  0
LWPOLYLINE
  5
2EB
100
AcDbEntity
  8
Mst 1_1
 62
   137
  6
CONTINUOUS
370
    15
100
AcDbPolyline
 90
       46
 70
     0
 43
0.0
 10
-24.65845844
 20
-304.24515275
 10
-22.45239782
 20
-304.24515275
 10
-22.36996826
 20
-304.24888102
 10
-22.28799969
 20
-304.26004498
 10
-22.2069505
 20
-304.2785822
 10
-22.12727393
 20
-304.304389
 10
-22.0494156
 20
-304.33732108
 10
-21.97381091
 20
-304.37719425
 10
-21.90088267
 20
-304.42378554
 10
-21.83103873
 20
-304.47683438
 10
-21.76466967
 20
-304.5360441
 10
-21.70214668
 20
-304.60108358
 10
-21.64381939
 20
-304.67158909
 10
-21.59001401
 20
-304.74716634
 10
-21.54103142
 20
-304.82739267
 10
-21.49714556
 20
-304.91181941
 10
-21.45860186
 20
-304.99997443
 10
-21.42561587
 20
-305.09136471
 10
-21.39837206
 20
-305.18547918
 10
-21.37702279
 20
-305.2817915
 10
-21.36168745
 20
-305.37976306
 10
-21.35245181
 20
-305.47884595
 10
-21.34936752
 20
-305.57848608
 10
-21.34936752
 20
-310.77848608
 10
-21.35245181
 20
-310.8781262
 10
-21.36168745
 20
-310.9772091
 10
-21.37702279
 20
-311.07518065
 10
-21.39837206
 20
-311.17149298
 10
-21.42561587
 20
-311.26560744
 10
-21.45860186
 20
-311.35699773
 10
-21.49714556
 20
-311.44515274
 10
-21.54103142
 20
-311.52957949
 10
-21.59001401
 20
-311.60980581
 10
-21.64381939
 20
-311.68538306
 10
-21.70214668
 20
-311.75588857
 10
-21.76466967
 20
-311.82092805
 10
-21.83103873
 20
-311.88013777
 10
-21.90088267
 20
-311.93318661
 10
-21.97381091
 20
-311.9797779
 10
-22.0494156
 20
-312.01965107
 10
-22.12727393
 20
-312.05258315
 10
-22.2069505
 20
-312.07838996
 10
-22.28799969
 20
-312.09692718
 10
-22.36996826
 20
-312.10809114
 10
-22.45239782
 20
-312.11181941
 10
-24.65845844
 20
-312.11181941
  0
LWPOLYLINE
  5
2EC
100
AcDbEntity
  8
Mst 1_1
 62
   137
  6
CONTINUOUS
370
    15
100
AcDbPolyline
 90
       46
 70
     0
 43
0.0
 10
-36.72063506
 20
-304.24515275
 10
-34.51457435
 20
-304.24515275
 10
-34.43214475
 20
-304.24888102
 10
-34.35017618
 20
-304.26004498
 10
-34.26912703
 20
-304.2785822
 10
-34.1894505
 20
-304.304389
 10
-34.11159215
 20
-304.33732108
 10
-34.03598737
 20
-304.37719425
 10
-33.96305924
 20
-304.42378554
 10
-33.89321533
 20
-304.47683438
 10
-33.82684621
 20
-304.5360441
 10
-33.76432314
 20
-304.60108358
 10
-33.70599595
 20
-304.67158909
 10
-33.65219058
 20
-304.74716634
 10
-33.60320801
 20
-304.82739267
 10
-33.55932204
 20
-304.91181941
 10
-33.52077841
 20
-304.99997443
 10
-33.4877924
 20
-305.09136471
 10
-33.46054863
 20
-305.18547918
 10
-33.43919931
 20
-305.2817915
 10
-33.42386403
 20
-305.37976306
 10
-33.41462835
 20
-305.47884595
 10
-33.41154399
 20
-305.57848608
 10
-33.41154399
 20
-310.77848608
 10
-33.41462835
 20
-310.8781262
 10
-33.42386403
 20
-310.9772091
 10
-33.43919931
 20
-311.07518065
 10
-33.46054863
 20
-311.17149298
 10
-33.4877924
 20
-311.26560744
 10
-33.52077841
 20
-311.35699773
 10
-33.55932204
 20
-311.44515274
 10
-33.60320801
 20
-311.52957949
 10
-33.65219058
 20
-311.60980581
 10
-33.70599595
 20
-311.68538306
 10
-33.76432314
 20
-311.75588857
 10
-33.82684621
 20
-311.82092805
 10
-33.89321533
 20
-311.88013777
 10
-33.96305924
 20
-311.93318661
 10
-34.03598737
 20
-311.9797779
 10
-34.11159215
 20
-312.01965107
 10
-34.1894505
 20
-312.05258315
 10
-34.26912703
 20
-312.07838996
 10
-34.35017618
 20
-312.09692718
 10
-34.43214475
 20
-312.10809114
 10
-34.51457435
 20
-312.11181941
 10
-36.72063506
 20
-312.11181941
  0
LINE
  5
2ED
100
AcDbEntity
  8
Mst 1_1
 62
   137
370
    15
100
AcDbLine
 10
-68.34936752
 20
-303.17848608
 30
100.0
 11
-66.34936752
 21
-304.17848608
 31
100.0
  0
LINE
  5
2EE
100
AcDbEntity
  8
Mst 1_1
 62
   137
370
    15
100
AcDbLine
 10
-68.34936752
 20
-313.17848608
 30
100.0
 11
-68.34936752
 21
-303.17848608
 31
100.0
  0
LINE
  5
2EF
100
AcDbEntity
  8
Mst 1_1
 62
   137
370
    15
100
AcDbLine
 10
-68.34936752
 20
-313.17848608
 30
100.0
 11
-66.34936752
 21
-312.17848608
 31
100.0
  0
LINE
  5
2F0
100
AcDbEntity
  8
Mst 1_1
 62
   137
370
    15
100
AcDbLine
 10
-68.34936752
 20
-303.17848608
 30
100.0
 11
-321.34936752
 21
-303.17848608
 31
100.0
  0
LINE
  5
2F1
100
AcDbEntity
  8
Mst 1_1
 62
   137
370
    15
100
AcDbLine
 10
-68.34936752
 20
-313.17848608
 30
100.0
 11
-321.34936752
 21
-313.17848608
 31
100.0
  0
LINE
  5
2F2
100
AcDbEntity
  8
Mst 1_1
 62
   137
370
    15
100
AcDbLine
 10
-321.34936752
 20
-303.17848608
 30
100.0
 11
-321.34936752
 21
-313.17848608
 31
100.0
  0
LWPOLYLINE
  5
2F3
100
AcDbEntity
  8
Mst 1_1
 62
   137
370
    15
100
AcDbPolyline
 90
        5
 70
     0
 43
0.0
 38
100.0
 10
-314.34936752
 20
-305.17848608
 10
-371.84936752
 20
-305.17848608
 10
-371.84936752
 20
-311.17848608
 10
-314.34936752
 20
-311.17848608
 10
-314.34936752
 20
-305.17848608
  0
LWPOLYLINE
  5
2F4
100
AcDbEntity
  8
Mst 1_1
 62
   137
370
    15
100
AcDbPolyline
 90
        4
 70
     0
 43
0.0
 38
100.0
 10
-314.34936752
 20
-305.17848608
 10
-313.34936752
 20
-306.17848608
 10
-313.34936752
 20
-310.17848608
 10
-314.34936752
 20
-311.17848608
  0
LINE
  5
2F5
100
AcDbEntity
  8
Mst 1_1
 62
   137
370
    15
100
AcDbLine
 10
-313.34936752
 20
-306.17848608
 30
100.0
 11
-371.84936752
 21
-306.17848608
 31
100.0
  0
LINE
  5
2F6
100
AcDbEntity
  8
Mst 1_1
 62
   137
370
    15
100
AcDbLine
 10
-313.34936752
 20
-310.17848608
 30
100.0
 11
-371.84936752
 21
-310.17848608
 31
100.0
  0
LWPOLYLINE
  5
2F7
100
AcDbEntity
  8
Mst 1_1
 62
   137
370
    15
100
AcDbPolyline
 90
        6
 70
     0
 43
0.0
 38
100.0
 10
-373.34936752
 20
-305.17848608
 10
-373.34936752
 20
-299.17848608
 10
-371.84936752
 20
-299.17848608
 10
-371.84936752
 20
-317.17848608
 10
-373.34936752
 20
-317.17848608
 10
-373.34936752
 20
-305.17848608
  0
LWPOLYLINE
  5
2F8
100
AcDbEntity
  8
Mst 1_1
 62
   137
370
    15
100
AcDbPolyline
 90
        5
 70
     0
 43
0.0
 38
100.0
 10
-373.34936752
 20
-301.37848608
 10
-374.34936752
 20
-301.37848608
 10
-374.34936752
 20
-314.97848608
 10
-373.34936752
 20
-314.97848608
 10
-373.34936752
 20
-301.37848608
  0
LWPOLYLINE
  5
2F9
100
AcDbEntity
  8
Mst 1_1
 62
   137
370
    15
100
AcDbPolyline
 90
        5
 70
     0
 43
0.0
 38
100.0
 10
-374.34936752
 20
-303.32848608
 10
-375.64936752
 20
-305.02848608
 10
-375.64936752
 20
-311.32848608
 10
-374.34936752
 20
-313.02848608
 10
-374.34936752
 20
-303.32848608
  0
CIRCLE
  5
2FA
100
AcDbEntity
  8
Mst 1_1
 62
   137
  6
CONTINUOUS
370
     9
100
AcDbCircle
 10
-436.9250338
 20
-308.17848608
 30
0.0
 40
1.88177431
  0
CIRCLE
  5
2FB
100
AcDbEntity
  8
Mst 1_1
 62
   137
  6
CONTINUOUS
370
     9
100
AcDbCircle
 10
-436.9250338
 20
-308.17848608
 30
0.0
 40
1.88177431
  0
CIRCLE
  5
2FC
100
AcDbEntity
  8
Mst 1_1
 62
   137
  6
CONTINUOUS
370
     9
100
AcDbCircle
 10
-436.9250338
 20
-308.17848608
 30
0.0
 40
1.88177431
  0
CIRCLE
  5
2FD
100
AcDbEntity
  8
Mst 1_1
 62
   137
  6
CONTINUOUS
370
     9
100
AcDbCircle
 10
-436.9250338
 20
-308.17848608
 30
0.0
 40
2.97217223
  0
CIRCLE
  5
2FE
100
AcDbEntity
  8
Mst 1_1
 62
   137
  6
CONTINUOUS
370
     9
100
AcDbCircle
 10
-436.9250338
 20
-308.17848608
 30
0.0
 40
4.56609304
  0
CIRCLE
  5
2FF
100
AcDbEntity
  8
Mst 1_1
 62
   137
  6
CONTINUOUS
370
     9
100
AcDbCircle
 10
-436.9250338
 20
-308.17848608
 30
0.0
 40
1.9962351
  0
CIRCLE
  5
300
100
AcDbEntity
  8
Mst 1_1
 62
   137
  6
CONTINUOUS
370
     9
100
AcDbCircle
 10
-436.9250338
 20
-308.17848608
 30
0.0
 40
8.74999999
  0
ARC
  5
301
100
AcDbEntity
  8
Mst 1_1
 62
   137
  6
CONTINUOUS
370
    15
100
AcDbCircle
 10
-439.35955338
 20
-308.17848608
 30
0.0
 40
0.53765266
100
AcDbArc
 50
104.00039951
 51
255.99961051
  0
ARC
  5
302
100
AcDbEntity
  8
Mst 1_1
 62
   137
  6
CONTINUOUS
370
    15
100
AcDbCircle
 10
-439.76894583
 20
-309.8204195
 30
0.0
 40
1.15454932
100
AcDbArc
 50
344.00042282
 51
75.99958535
  0
ARC
  5
303
100
AcDbEntity
  8
Mst 1_1
 62
   137
  6
CONTINUOUS
370
    15
100
AcDbCircle
 10
-438.14229355
 20
-310.28684189
 30
0.0
 40
0.53765264
100
AcDbArc
 50
164.00040911
 51
315.99959504
  0
ARC
  5
304
100
AcDbEntity
  8
Mst 1_1
 62
   137
  6
CONTINUOUS
370
    15
100
AcDbCircle
 10
-436.9250338
 20
-311.4623527
 30
0.0
 40
1.15454918
100
AcDbArc
 50
44.00040429
 51
135.99959571
  0
ARC
  5
305
100
AcDbEntity
  8
Mst 1_1
 62
   137
  6
CONTINUOUS
370
    15
100
AcDbCircle
 10
-435.707774
 20
-310.28684197
 30
0.0
 40
0.53765261
100
AcDbArc
 50
224.00041508
 51
15.9996008
  0
ARC
  5
306
100
AcDbEntity
  8
Mst 1_1
 62
   137
  6
CONTINUOUS
370
    15
100
AcDbCircle
 10
-434.49051422
 20
-308.17848608
 30
0.0
 40
0.53765266
100
AcDbArc
 50
284.00040953
 51
75.99960049
  0
ARC
  5
307
100
AcDbEntity
  8
Mst 1_1
 62
   137
  6
CONTINUOUS
370
    15
100
AcDbCircle
 10
-434.08112177
 20
-306.53655266
 30
0.0
 40
1.15454932
100
AcDbArc
 50
164.00041281
 51
255.99959537
  0
ARC
  5
308
100
AcDbEntity
  8
Mst 1_1
 62
   137
  6
CONTINUOUS
370
    15
100
AcDbCircle
 10
-435.70777405
 20
-306.07013027
 30
0.0
 40
0.53765264
100
AcDbArc
 50
344.00041913
 51
135.99958502
  0
ARC
  5
309
100
AcDbEntity
  8
Mst 1_1
 62
   137
  6
CONTINUOUS
370
    15
100
AcDbCircle
 10
-436.9250338
 20
-304.89461945
 30
0.0
 40
1.15454918
100
AcDbArc
 50
224.00041431
 51
315.99960573
  0
ARC
  5
30A
100
AcDbEntity
  8
Mst 1_1
 62
   137
  6
CONTINUOUS
370
    15
100
AcDbCircle
 10
-438.1422936
 20
-306.07013019
 30
0.0
 40
0.53765261
100
AcDbArc
 50
44.00040506
 51
195.99961082
  0
ARC
  5
30B
100
AcDbEntity
  8
Mst 1_1
 62
   137
  6
CONTINUOUS
370
    15
100
AcDbCircle
 10
-439.76894583
 20
-306.53655266
 30
0.0
 40
1.15454932
100
AcDbArc
 50
284.00042461
 51
15.99958726
  0
CIRCLE
  5
30C
100
AcDbEntity
  8
Mst 1_1
 62
   137
  6
CONTINUOUS
370
     9
100
AcDbCircle
 10
-436.9250338
 20
-308.17848608
 30
0.0
 40
6.8
  0
ARC
  5
30D
100
AcDbEntity
  8
Mst 1_1
 62
   137
  6
CONTINUOUS
370
    15
100
AcDbCircle
 10
-434.08112177
 20
-309.8204195
 30
0.0
 40
1.15454932
100
AcDbArc
 50
104.00041459
 51
195.99959727
  0
LINE
  5
30E
100
AcDbEntity
  8
Mst 1_1
 62
     7
  6
DASHED
370
    -3
100
AcDbLine
 10
-21.42561587
 20
-288.17848608
 30
0.0
 11
-21.42561587
 21
-323.17848608
 31
0.0
  0
LINE
  5
30F
100
AcDbEntity
  8
Mst 1_1
 62
   137
370
    15
100
AcDbLine
 10
-13.08110465
 20
-334.17848608
 30
0.0
 11
-13.08110465
 21
-342.17848608
 31
0.0
  0
LINE
  5
310
100
AcDbEntity
  8
Mst 1_1
 62
   137
370
    15
100
AcDbLine
 10
-13.08110465
 20
-334.89415275
 30
0.0
 11
-13.08110465
 21
-341.46281941
 31
0.0
  0
LINE
  5
311
100
AcDbEntity
  8
Mst 1_1
 62
   137
370
    15
100
AcDbLine
 10
-13.08110465
 20
-342.17848608
 30
0.0
 11
-26.34936752
 21
-342.17848608
 31
0.0
  0
LINE
  5
312
100
AcDbEntity
  8
Mst 1_1
 62
   137
370
    15
100
AcDbLine
 10
-13.08110465
 20
-341.79948608
 30
0.0
 11
-26.34936752
 21
-341.79948608
 31
0.0
  0
LINE
  5
313
100
AcDbEntity
  8
Mst 1_1
 62
   137
370
    15
100
AcDbLine
 10
-13.08110465
 20
-334.17848608
 30
0.0
 11
-26.34936752
 21
-334.17848608
 31
0.0
  0
LINE
  5
314
100
AcDbEntity
  8
Mst 1_1
 62
   137
370
    15
100
AcDbLine
 10
-13.08110465
 20
-334.55748608
 30
0.0
 11
-26.34936752
 21
-334.55748608
 31
0.0
  0
LINE
  5
315
100
AcDbEntity
  8
Mst 1_1
 62
   137
370
    15
100
AcDbLine
 10
-12.34936752
 20
-334.55748608
 30
0.0
 11
-12.34936752
 21
-341.79948608
 31
0.0
  0
LINE
  5
316
100
AcDbEntity
  8
Mst 1_1
 62
     1
  6
CADWORK_8
370
    15
100
AcDbLine
 10
31.65063248
 20
-338.17848608
 30
0.0
 11
-380.64936752
 21
-338.17848608
 31
0.0
  0
LWPOLYLINE
  5
317
100
AcDbEntity
  8
Mst 1_1
 62
     7
  6
CONTINUOUS
370
    -3
100
AcDbPolyline
 90
        7
 70
     0
 43
0.0
 10
-26.34936752
 20
-352.27848608
 10
-26.34936752
 20
-342.27848608
 10
24.28349638
 20
-342.27848608
 10
26.65063248
 20
-338.17848608
 10
24.28349638
 20
-334.07848608
 10
-26.34936752
 20
-334.07848608
 10
-26.34936752
 20
-324.07848608
  0
LINE
  5
318
100
AcDbEntity
  8
Mst 1_1
 62
     1
  6
CADWORK_8
370
    15
100
AcDbLine
 10
-26.34936752
 20
-334.17848608
 30
0.0
 11
-26.34936752
 21
-342.17848608
 31
0.0
  0
LWPOLYLINE
  5
319
100
AcDbEntity
  8
Mst 1_1
 62
   137
  6
CONTINUOUS
370
    15
100
AcDbPolyline
 90
        3
 70
     0
 43
0.0
 10
-13.08110465
 20
-334.17848608
 10
-12.34936752
 20
-334.55748608
 10
-11.68270085
 20
-334.55748608
  0
LWPOLYLINE
  5
31A
100
AcDbEntity
  8
Mst 1_1
 62
   137
  6
CONTINUOUS
370
    15
100
AcDbPolyline
 90
        3
 70
     0
 43
0.0
 10
-13.08110465
 20
-342.17848608
 10
-12.34936752
 20
-341.79948608
 10
-11.68270085
 20
-341.79948608
  0
LINE
  5
31B
100
AcDbEntity
  8
Mst 1_1
 62
   137
370
    15
100
AcDbLine
 10
-11.68270085
 20
-334.17848608
 30
0.0
 11
-5.47510023
 21
-334.17848608
 31
0.0
  0
LINE
  5
31C
100
AcDbEntity
  8
Mst 1_1
 62
   137
370
    15
100
AcDbLine
 10
-11.68270085
 20
-342.17848608
 30
0.0
 11
-5.47510023
 21
-342.17848608
 31
0.0
  0
LINE
  5
31D
100
AcDbEntity
  8
Mst 1_1
 62
   137
370
    15
100
AcDbLine
 10
12.6873749
 20
-334.84003415
 30
0.0
 11
15.34154156
 21
-334.24515275
 31
0.0
  0
LINE
  5
31E
100
AcDbEntity
  8
Mst 1_1
 62
   137
370
    15
100
AcDbLine
 10
12.6873749
 20
-341.516938
 30
0.0
 11
15.34154156
 21
-342.11181941
 31
0.0
  0
LINE
  5
31F
100
AcDbEntity
  8
Mst 1_1
 62
   137
370
    15
100
AcDbLine
 10
17.64578322
 20
-334.24515275
 30
0.0
 11
17.64578322
 21
-342.11181941
 31
0.0
  0
LINE
  5
320
100
AcDbEntity
  8
Mst 1_1
 62
   137
370
    15
100
AcDbLine
 10
15.34154156
 20
-334.24515275
 30
0.0
 11
15.34154156
 21
-342.11181941
 31
0.0
  0
LINE
  5
321
100
AcDbEntity
  8
Mst 1_1
 62
   137
370
    15
100
AcDbLine
 10
-11.68270085
 20
-334.17848608
 30
0.0
 11
-11.68270085
 21
-342.17848608
 31
0.0
  0
3DFACE
  5
322
100
AcDbEntity
  8
Mst 1_1
 62
   137
  6
CONTINUOUS
370
     9
100
AcDbFace
 70
     0
 10
12.6873749
 20
-337.84515274
 30
1000.0
 11
12.6873749
 21
-334.24515275
 31
1000.0
 12
7.0215017
 22
-334.24515275
 32
1000.0
 13
7.0215017
 23
-337.84515274
 33
1000.0
  0
3DFACE
  5
323
100
AcDbEntity
  8
Mst 1_1
 62
   137
  6
CONTINUOUS
370
     9
100
AcDbFace
 70
     0
 10
12.6873749
 20
-338.51181941
 30
1000.0
 11
12.6873749
 21
-342.11181941
 31
1000.0
 12
7.0215017
 22
-342.11181941
 32
1000.0
 13
7.0215017
 23
-338.51181941
 33
1000.0
  0
LINE
  5
324
100
AcDbEntity
  8
Mst 1_1
 62
   137
370
    15
100
AcDbLine
 10
0.62519833
 20
-334.84003415
 30
0.0
 11
3.27936494
 21
-334.24515275
 31
0.0
  0
LINE
  5
325
100
AcDbEntity
  8
Mst 1_1
 62
   137
370
    15
100
AcDbLine
 10
0.62519833
 20
-341.516938
 30
0.0
 11
3.27936494
 21
-342.11181941
 31
0.0
  0
LINE
  5
326
100
AcDbEntity
  8
Mst 1_1
 62
   137
370
    15
100
AcDbLine
 10
5.58360674
 20
-334.24515275
 30
0.0
 11
5.58360674
 21
-342.11181941
 31
0.0
  0
LINE
  5
327
100
AcDbEntity
  8
Mst 1_1
 62
   137
370
    15
100
AcDbLine
 10
3.27936494
 20
-334.24515275
 30
0.0
 11
3.27936494
 21
-342.11181941
 31
0.0
  0
3DFACE
  5
328
100
AcDbEntity
  8
Mst 1_1
 62
   137
  6
CONTINUOUS
370
     9
100
AcDbFace
 70
     0
 10
0.62519833
 20
-337.84515274
 30
1000.0
 11
0.62519833
 21
-334.24515275
 31
1000.0
 12
-5.04067476
 22
-334.24515275
 32
1000.0
 13
-5.04067476
 23
-337.84515274
 33
1000.0
  0
3DFACE
  5
329
100
AcDbEntity
  8
Mst 1_1
 62
   137
  6
CONTINUOUS
370
     9
100
AcDbFace
 70
     0
 10
0.62519833
 20
-338.51181941
 30
1000.0
 11
0.62519833
 21
-342.11181941
 31
1000.0
 12
-5.04067476
 22
-342.11181941
 32
1000.0
 13
-5.04067476
 23
-338.51181941
 33
1000.0
  0
LINE
  5
32A
100
AcDbEntity
  8
Mst 1_1
 62
   137
  6
CONTINUOUS
370
    15
100
AcDbLine
 10
7.0215017
 20
-335.51181941
 30
1000.0
 11
6.58707626
 21
-335.51181941
 31
1000.0
  0
LINE
  5
32B
100
AcDbEntity
  8
Mst 1_1
 62
   137
  6
CONTINUOUS
370
    15
100
AcDbLine
 10
7.0215017
 20
-340.84515274
 30
1000.0
 11
6.58707626
 21
-340.84515274
 31
1000.0
  0
LINE
  5
32C
100
AcDbEntity
  8
Mst 1_1
 62
   137
  6
CONTINUOUS
370
    15
100
AcDbLine
 10
-5.04067476
 20
-335.51181941
 30
1000.0
 11
-5.47510023
 21
-335.51181941
 31
1000.0
  0
LINE
  5
32D
100
AcDbEntity
  8
Mst 1_1
 62
   137
  6
CONTINUOUS
370
    15
100
AcDbLine
 10
-5.04067476
 20
-340.84515274
 30
1000.0
 11
-5.47510023
 21
-340.84515274
 31
1000.0
  0
LINE
  5
32E
100
AcDbEntity
  8
Mst 1_1
 62
   137
  6
CONTINUOUS
370
    15
100
AcDbLine
 10
-5.47510023
 20
-334.17848608
 30
1000.0
 11
-5.47510023
 21
-342.17848608
 31
1000.0
  0
LWPOLYLINE
  5
32F
100
AcDbEntity
  8
Mst 1_1
 62
   137
  6
CONTINUOUS
370
     9
100
AcDbPolyline
 90
       45
 70
     1
 43
0.0
 38
1000.0
 39
-1000.0
 10
-5.04067476
 20
-334.24515275
 10
-5.04067476
 20
-334.13388215
 10
-5.03982245
 20
-334.11738679
 10
-5.03727055
 20
-334.10098395
 10
-5.03303288
 20
-334.08476564
 10
-5.02713375
 20
-334.06882283
 10
-5.01960595
 20
-334.05324495
 10
-5.0104917
 20
-334.03811938
 10
-4.99984216
 20
-334.02353096
 10
-4.98771708
 20
-334.00956151
 10
-4.97418477
 20
-333.9962894
 10
-4.95932056
 20
-333.98378907
 10
-4.9432081
 20
-333.97213062
 10
-4.92593787
 20
-333.96137948
 10
-4.90760681
 20
-333.95159593
 10
-4.88831721
 20
-333.94283484
 10
-4.86817806
 20
-333.93514538
 10
-4.84730159
 20
-333.92857065
 10
-4.82580555
 20
-333.92314756
 10
-4.80380973
 20
-333.91890651
 10
-4.7814382
 20
-333.91587129
 10
-4.75881628
 20
-333.91405893
 10
-4.73607073
 20
-333.91347959
 10
-4.60610799
 20
-333.91438238
 10
-4.47617684
 20
-333.91664711
 10
-4.34630413
 20
-333.92027333
 10
-4.21651733
 20
-333.92526026
 10
-4.08684333
 20
-333.93160689
 10
-3.95730948
 20
-333.93931186
 10
-3.82794266
 20
-333.94837359
 10
-3.69876991
 20
-333.95879018
 10
-3.56981814
 20
-333.97055943
 10
-3.44111411
 20
-333.98367892
 10
-3.31268526
 20
-333.99814589
 10
-3.18455779
 20
-334.01395733
 10
-3.05675875
 20
-334.03110992
 10
-2.92931482
 20
-334.04960009
 10
-2.80225283
 20
-334.06942398
 10
-2.67559873
 20
-334.09057745
 10
-2.54937939
 20
-334.11305608
 10
-2.42362119
 20
-334.13685518
 10
-2.29835024
 20
-334.16196978
 10
-2.17359282
 20
-334.18839463
 10
-2.04937488
 20
-334.21612422
 10
-1.92572223
 20
-334.24515275
  0
LWPOLYLINE
  5
330
100
AcDbEntity
  8
Mst 1_1
 62
   137
  6
CONTINUOUS
370
     9
100
AcDbPolyline
 90
       45
 70
     1
 43
0.0
 38
1000.0
 39
-1000.0
 10
-5.04067476
 20
-342.11181941
 10
-5.04067476
 20
-342.22309
 10
-5.03982245
 20
-342.23958537
 10
-5.03727055
 20
-342.25598821
 10
-5.03303288
 20
-342.27220651
 10
-5.02713375
 20
-342.28814933
 10
-5.01960595
 20
-342.3037272
 10
-5.0104917
 20
-342.31885278
 10
-4.99984216
 20
-342.3334412
 10
-4.98771708
 20
-342.34741065
 10
-4.97418477
 20
-342.36068276
 10
-4.95932056
 20
-342.37318309
 10
-4.9432081
 20
-342.38484153
 10
-4.92593787
 20
-342.39559268
 10
-4.90760681
 20
-342.40537623
 10
-4.88831721
 20
-342.41413731
 10
-4.86817806
 20
-342.42182677
 10
-4.84730159
 20
-342.4284015
 10
-4.82580555
 20
-342.4338246
 10
-4.80380973
 20
-342.43806564
 10
-4.7814382
 20
-342.44110087
 10
-4.75881628
 20
-342.44291323
 10
-4.73607073
 20
-342.44349257
 10
-4.60610799
 20
-342.44258978
 10
-4.47617684
 20
-342.44032505
 10
-4.34630413
 20
-342.43669882
 10
-4.21651733
 20
-342.43171189
 10
-4.08684333
 20
-342.42536526
 10
-3.95730948
 20
-342.4176603
 10
-3.82794266
 20
-342.40859856
 10
-3.69876991
 20
-342.39818198
 10
-3.56981814
 20
-342.38641272
 10
-3.44111411
 20
-342.37329323
 10
-3.31268526
 20
-342.35882627
 10
-3.18455779
 20
-342.34301482
 10
-3.05675875
 20
-342.32586223
 10
-2.92931482
 20
-342.30737207
 10
-2.80225283
 20
-342.28754817
 10
-2.67559873
 20
-342.2663947
 10
-2.54937939
 20
-342.24391607
 10
-2.42362119
 20
-342.22011697
 10
-2.29835024
 20
-342.19500237
 10
-2.17359282
 20
-342.16857752
 10
-2.04937488
 20
-342.14084794
 10
-1.92572223
 20
-342.11181941
  0
LWPOLYLINE
  5
331
100
AcDbEntity
  8
Mst 1_1
 62
   137
  6
CONTINUOUS
370
     9
100
AcDbPolyline
 90
       45
 70
     1
 43
0.0
 38
1000.0
 39
-1000.0
 10
7.0215017
 20
-342.11181941
 10
7.0215017
 20
-342.22309
 10
7.02235403
 20
-342.23958537
 10
7.02490605
 20
-342.25598821
 10
7.0291436
 20
-342.27220651
 10
7.03504287
 20
-342.28814933
 10
7.04257065
 20
-342.3037272
 10
7.05168493
 20
-342.31885278
 10
7.06233431
 20
-342.3334412
 10
7.07445939
 20
-342.34741065
 10
7.08799187
 20
-342.36068276
 10
7.10285606
 20
-342.37318309
 10
7.11896837
 20
-342.38484153
 10
7.1362386
 20
-342.39559268
 10
7.15456981
 20
-342.40537623
 10
7.17385924
 20
-342.41413731
 10
7.19399857
 20
-342.42182677
 10
7.21487489
 20
-342.4284015
 10
7.23637108
 20
-342.4338246
 10
7.25836673
 20
-342.43806564
 10
7.28073813
 20
-342.44110087
 10
7.30336017
 20
-342.44291323
 10
7.32610577
 20
-342.44349257
 10
7.45606849
 20
-342.44258978
 10
7.5859998
 20
-342.44032505
 10
7.7158725
 20
-342.43669882
 10
7.84565929
 20
-342.43171189
 10
7.97533317
 20
-342.42536526
 10
8.10486697
 20
-342.4176603
 10
8.23423395
 20
-342.40859856
 10
8.36340673
 20
-342.39818198
 10
8.49235846
 20
-342.38641272
 10
8.62106234
 20
-342.37329323
 10
8.74949137
 20
-342.35882627
 10
8.87761869
 20
-342.34301482
 10
9.00541773
 20
-342.32586223
 10
9.13286151
 20
-342.30737207
 10
9.25992377
 20
-342.28754817
 10
9.38657775
 20
-342.2663947
 10
9.51279706
 20
-342.24391607
 10
9.63855528
 20
-342.22011697
 10
9.76382626
 20
-342.19500237
 10
9.88858381
 20
-342.16857752
 10
10.01280172
 20
-342.14084794
 10
10.13645424
 20
-342.11181941
  0
LWPOLYLINE
  5
332
100
AcDbEntity
  8
Mst 1_1
 62
   137
  6
CONTINUOUS
370
     9
100
AcDbPolyline
 90
       45
 70
     1
 43
0.0
 38
1000.0
 39
-1000.0
 10
7.0215017
 20
-334.24515275
 10
7.0215017
 20
-334.13388215
 10
7.02235403
 20
-334.11738679
 10
7.02490605
 20
-334.10098395
 10
7.0291436
 20
-334.08476564
 10
7.03504287
 20
-334.06882283
 10
7.04257065
 20
-334.05324495
 10
7.05168493
 20
-334.03811938
 10
7.06233431
 20
-334.02353096
 10
7.07445939
 20
-334.00956151
 10
7.08799187
 20
-333.9962894
 10
7.10285606
 20
-333.98378907
 10
7.11896837
 20
-333.97213062
 10
7.1362386
 20
-333.96137948
 10
7.15456981
 20
-333.95159593
 10
7.17385924
 20
-333.94283484
 10
7.19399857
 20
-333.93514538
 10
7.21487489
 20
-333.92857065
 10
7.23637108
 20
-333.92314756
 10
7.25836673
 20
-333.91890651
 10
7.28073813
 20
-333.91587129
 10
7.30336017
 20
-333.91405893
 10
7.32610577
 20
-333.91347959
 10
7.45606849
 20
-333.91438238
 10
7.5859998
 20
-333.91664711
 10
7.7158725
 20
-333.92027333
 10
7.84565929
 20
-333.92526026
 10
7.97533317
 20
-333.93160689
 10
8.10486697
 20
-333.93931186
 10
8.23423395
 20
-333.94837359
 10
8.36340673
 20
-333.95879018
 10
8.49235846
 20
-333.97055943
 10
8.62106234
 20
-333.98367892
 10
8.74949137
 20
-333.99814589
 10
8.87761869
 20
-334.01395733
 10
9.00541773
 20
-334.03110992
 10
9.13286151
 20
-334.04960009
 10
9.25992377
 20
-334.06942398
 10
9.38657775
 20
-334.09057745
 10
9.51279706
 20
-334.11305608
 10
9.63855528
 20
-334.13685518
 10
9.76382626
 20
-334.16196978
 10
9.88858381
 20
-334.18839463
 10
10.01280172
 20
-334.21612422
 10
10.13645424
 20
-334.24515275
  0
LWPOLYLINE
  5
333
100
AcDbEntity
  8
Mst 1_1
 62
   137
  6
CONTINUOUS
370
    15
100
AcDbPolyline
 90
       46
 70
     0
 43
0.0
 10
15.34154156
 20
-334.24515275
 10
17.54760218
 20
-334.24515275
 10
17.63003174
 20
-334.24888102
 10
17.71200031
 20
-334.26004498
 10
17.7930495
 20
-334.2785822
 10
17.87272607
 20
-334.304389
 10
17.9505844
 20
-334.33732108
 10
18.02618909
 20
-334.37719425
 10
18.09911733
 20
-334.42378554
 10
18.16896127
 20
-334.47683438
 10
18.23533033
 20
-334.5360441
 10
18.29785332
 20
-334.60108358
 10
18.35618061
 20
-334.67158909
 10
18.40998599
 20
-334.74716634
 10
18.45896858
 20
-334.82739267
 10
18.50285444
 20
-334.91181941
 10
18.54139814
 20
-334.99997443
 10
18.57438413
 20
-335.09136471
 10
18.60162794
 20
-335.18547918
 10
18.62297721
 20
-335.2817915
 10
18.63831255
 20
-335.37976306
 10
18.64754819
 20
-335.47884595
 10
18.65063248
 20
-335.57848608
 10
18.65063248
 20
-340.77848608
 10
18.64754819
 20
-340.8781262
 10
18.63831255
 20
-340.9772091
 10
18.62297721
 20
-341.07518065
 10
18.60162794
 20
-341.17149298
 10
18.57438413
 20
-341.26560744
 10
18.54139814
 20
-341.35699773
 10
18.50285444
 20
-341.44515274
 10
18.45896858
 20
-341.52957949
 10
18.40998599
 20
-341.60980581
 10
18.35618061
 20
-341.68538306
 10
18.29785332
 20
-341.75588857
 10
18.23533033
 20
-341.82092805
 10
18.16896127
 20
-341.88013777
 10
18.09911733
 20
-341.93318661
 10
18.02618909
 20
-341.9797779
 10
17.9505844
 20
-342.01965107
 10
17.87272607
 20
-342.05258315
 10
17.7930495
 20
-342.07838996
 10
17.71200031
 20
-342.09692718
 10
17.63003174
 20
-342.10809114
 10
17.54760218
 20
-342.11181941
 10
15.34154156
 20
-342.11181941
  0
LWPOLYLINE
  5
334
100
AcDbEntity
  8
Mst 1_1
 62
   137
  6
CONTINUOUS
370
    15
100
AcDbPolyline
 90
       46
 70
     0
 43
0.0
 10
3.27936494
 20
-334.24515275
 10
5.48542565
 20
-334.24515275
 10
5.56785525
 20
-334.24888102
 10
5.64982382
 20
-334.26004498
 10
5.73087297
 20
-334.2785822
 10
5.8105495
 20
-334.304389
 10
5.88840785
 20
-334.33732108
 10
5.96401263
 20
-334.37719425
 10
6.03694076
 20
-334.42378554
 10
6.10678467
 20
-334.47683438
 10
6.17315379
 20
-334.5360441
 10
6.23567686
 20
-334.60108358
 10
6.29400405
 20
-334.67158909
 10
6.34780942
 20
-334.74716634
 10
6.39679199
 20
-334.82739267
 10
6.44067796
 20
-334.91181941
 10
6.47922159
 20
-334.99997443
 10
6.5122076
 20
-335.09136471
 10
6.53945137
 20
-335.18547918
 10
6.56080069
 20
-335.2817915
 10
6.57613597
 20
-335.37976306
 10
6.58537165
 20
-335.47884595
 10
6.58845601
 20
-335.57848608
 10
6.58845601
 20
-340.77848608
 10
6.58537165
 20
-340.8781262
 10
6.57613597
 20
-340.9772091
 10
6.56080069
 20
-341.07518065
 10
6.53945137
 20
-341.17149298
 10
6.5122076
 20
-341.26560744
 10
6.47922159
 20
-341.35699773
 10
6.44067796
 20
-341.44515274
 10
6.39679199
 20
-341.52957949
 10
6.34780942
 20
-341.60980581
 10
6.29400405
 20
-341.68538306
 10
6.23567686
 20
-341.75588857
 10
6.17315379
 20
-341.82092805
 10
6.10678467
 20
-341.88013777
 10
6.03694076
 20
-341.93318661
 10
5.96401263
 20
-341.9797779
 10
5.88840785
 20
-342.01965107
 10
5.8105495
 20
-342.05258315
 10
5.73087297
 20
-342.07838996
 10
5.64982382
 20
-342.09692718
 10
5.56785525
 20
-342.10809114
 10
5.48542565
 20
-342.11181941
 10
3.27936494
 20
-342.11181941
  0
LINE
  5
335
100
AcDbEntity
  8
Mst 1_1
 62
   137
370
    15
100
AcDbLine
 10
-28.34936752
 20
-333.17848608
 30
100.0
 11
-26.34936752
 21
-334.17848608
 31
100.0
  0
LINE
  5
336
100
AcDbEntity
  8
Mst 1_1
 62
   137
370
    15
100
AcDbLine
 10
-28.34936752
 20
-343.17848608
 30
100.0
 11
-28.34936752
 21
-333.17848608
 31
100.0
  0
LINE
  5
337
100
AcDbEntity
  8
Mst 1_1
 62
   137
370
    15
100
AcDbLine
 10
-28.34936752
 20
-343.17848608
 30
100.0
 11
-26.34936752
 21
-342.17848608
 31
100.0
  0
LINE
  5
338
100
AcDbEntity
  8
Mst 1_1
 62
   137
370
    15
100
AcDbLine
 10
-28.34936752
 20
-333.17848608
 30
100.0
 11
-321.34936752
 21
-333.17848608
 31
100.0
  0
LINE
  5
339
100
AcDbEntity
  8
Mst 1_1
 62
   137
370
    15
100
AcDbLine
 10
-28.34936752
 20
-343.17848608
 30
100.0
 11
-321.34936752
 21
-343.17848608
 31
100.0
  0
LINE
  5
33A
100
AcDbEntity
  8
Mst 1_1
 62
   137
370
    15
100
AcDbLine
 10
-321.34936752
 20
-333.17848608
 30
100.0
 11
-321.34936752
 21
-343.17848608
 31
100.0
  0
LWPOLYLINE
  5
33B
100
AcDbEntity
  8
Mst 1_1
 62
   137
370
    15
100
AcDbPolyline
 90
        5
 70
     0
 43
0.0
 38
100.0
 10
-314.34936752
 20
-335.17848608
 10
-371.84936752
 20
-335.17848608
 10
-371.84936752
 20
-341.17848608
 10
-314.34936752
 20
-341.17848608
 10
-314.34936752
 20
-335.17848608
  0
LWPOLYLINE
  5
33C
100
AcDbEntity
  8
Mst 1_1
 62
   137
370
    15
100
AcDbPolyline
 90
        4
 70
     0
 43
0.0
 38
100.0
 10
-314.34936752
 20
-335.17848608
 10
-313.34936752
 20
-336.17848608
 10
-313.34936752
 20
-340.17848608
 10
-314.34936752
 20
-341.17848608
  0
LINE
  5
33D
100
AcDbEntity
  8
Mst 1_1
 62
   137
370
    15
100
AcDbLine
 10
-313.34936752
 20
-336.17848608
 30
100.0
 11
-371.84936752
 21
-336.17848608
 31
100.0
  0
LINE
  5
33E
100
AcDbEntity
  8
Mst 1_1
 62
   137
370
    15
100
AcDbLine
 10
-313.34936752
 20
-340.17848608
 30
100.0
 11
-371.84936752
 21
-340.17848608
 31
100.0
  0
LWPOLYLINE
  5
33F
100
AcDbEntity
  8
Mst 1_1
 62
   137
370
    15
100
AcDbPolyline
 90
        6
 70
     0
 43
0.0
 38
100.0
 10
-373.34936752
 20
-335.17848608
 10
-373.34936752
 20
-329.17848608
 10
-371.84936752
 20
-329.17848608
 10
-371.84936752
 20
-347.17848608
 10
-373.34936752
 20
-347.17848608
 10
-373.34936752
 20
-335.17848608
  0
LWPOLYLINE
  5
340
100
AcDbEntity
  8
Mst 1_1
 62
   137
370
    15
100
AcDbPolyline
 90
        5
 70
     0
 43
0.0
 38
100.0
 10
-373.34936752
 20
-331.37848608
 10
-374.34936752
 20
-331.37848608
 10
-374.34936752
 20
-344.97848608
 10
-373.34936752
 20
-344.97848608
 10
-373.34936752
 20
-331.37848608
  0
LWPOLYLINE
  5
341
100
AcDbEntity
  8
Mst 1_1
 62
   137
370
    15
100
AcDbPolyline
 90
        5
 70
     0
 43
0.0
 38
100.0
 10
-374.34936752
 20
-333.32848608
 10
-375.64936752
 20
-335.02848608
 10
-375.64936752
 20
-341.32848608
 10
-374.34936752
 20
-343.02848608
 10
-374.34936752
 20
-333.32848608
  0
CIRCLE
  5
342
100
AcDbEntity
  8
Mst 1_1
 62
   137
  6
CONTINUOUS
370
     9
100
AcDbCircle
 10
-436.9250338
 20
-338.17848608
 30
0.0
 40
1.88177431
  0
CIRCLE
  5
343
100
AcDbEntity
  8
Mst 1_1
 62
   137
  6
CONTINUOUS
370
     9
100
AcDbCircle
 10
-436.9250338
 20
-338.17848608
 30
0.0
 40
1.88177431
  0
CIRCLE
  5
344
100
AcDbEntity
  8
Mst 1_1
 62
   137
  6
CONTINUOUS
370
     9
100
AcDbCircle
 10
-436.9250338
 20
-338.17848608
 30
0.0
 40
1.88177431
  0
CIRCLE
  5
345
100
AcDbEntity
  8
Mst 1_1
 62
   137
  6
CONTINUOUS
370
     9
100
AcDbCircle
 10
-436.9250338
 20
-338.17848608
 30
0.0
 40
2.97217223
  0
CIRCLE
  5
346
100
AcDbEntity
  8
Mst 1_1
 62
   137
  6
CONTINUOUS
370
     9
100
AcDbCircle
 10
-436.9250338
 20
-338.17848608
 30
0.0
 40
4.56609304
  0
CIRCLE
  5
347
100
AcDbEntity
  8
Mst 1_1
 62
   137
  6
CONTINUOUS
370
     9
100
AcDbCircle
 10
-436.9250338
 20
-338.17848608
 30
0.0
 40
1.9962351
  0
CIRCLE
  5
348
100
AcDbEntity
  8
Mst 1_1
 62
   137
  6
CONTINUOUS
370
     9
100
AcDbCircle
 10
-436.9250338
 20
-338.17848608
 30
0.0
 40
8.74999999
  0
ARC
  5
349
100
AcDbEntity
  8
Mst 1_1
 62
   137
  6
CONTINUOUS
370
    15
100
AcDbCircle
 10
-439.35955338
 20
-338.17848608
 30
0.0
 40
0.53765266
100
AcDbArc
 50
104.00039951
 51
255.99961051
  0
ARC
  5
34A
100
AcDbEntity
  8
Mst 1_1
 62
   137
  6
CONTINUOUS
370
    15
100
AcDbCircle
 10
-439.76894583
 20
-339.8204195
 30
0.0
 40
1.15454932
100
AcDbArc
 50
344.00042282
 51
75.99958535
  0
ARC
  5
34B
100
AcDbEntity
  8
Mst 1_1
 62
   137
  6
CONTINUOUS
370
    15
100
AcDbCircle
 10
-438.14229355
 20
-340.28684189
 30
0.0
 40
0.53765264
100
AcDbArc
 50
164.00040911
 51
315.99959504
  0
ARC
  5
34C
100
AcDbEntity
  8
Mst 1_1
 62
   137
  6
CONTINUOUS
370
    15
100
AcDbCircle
 10
-436.9250338
 20
-341.4623527
 30
0.0
 40
1.15454918
100
AcDbArc
 50
44.00040429
 51
135.99959571
  0
ARC
  5
34D
100
AcDbEntity
  8
Mst 1_1
 62
   137
  6
CONTINUOUS
370
    15
100
AcDbCircle
 10
-435.707774
 20
-340.28684197
 30
0.0
 40
0.53765261
100
AcDbArc
 50
224.00041508
 51
15.9996008
  0
ARC
  5
34E
100
AcDbEntity
  8
Mst 1_1
 62
   137
  6
CONTINUOUS
370
    15
100
AcDbCircle
 10
-434.49051422
 20
-338.17848608
 30
0.0
 40
0.53765266
100
AcDbArc
 50
284.00040953
 51
75.99960049
  0
ARC
  5
34F
100
AcDbEntity
  8
Mst 1_1
 62
   137
  6
CONTINUOUS
370
    15
100
AcDbCircle
 10
-434.08112177
 20
-336.53655266
 30
0.0
 40
1.15454932
100
AcDbArc
 50
164.00041281
 51
255.99959537
  0
ARC
  5
350
100
AcDbEntity
  8
Mst 1_1
 62
   137
  6
CONTINUOUS
370
    15
100
AcDbCircle
 10
-435.70777405
 20
-336.07013027
 30
0.0
 40
0.53765264
100
AcDbArc
 50
344.00041913
 51
135.99958502
  0
ARC
  5
351
100
AcDbEntity
  8
Mst 1_1
 62
   137
  6
CONTINUOUS
370
    15
100
AcDbCircle
 10
-436.9250338
 20
-334.89461945
 30
0.0
 40
1.15454918
100
AcDbArc
 50
224.00041431
 51
315.99960573
  0
ARC
  5
352
100
AcDbEntity
  8
Mst 1_1
 62
   137
  6
CONTINUOUS
370
    15
100
AcDbCircle
 10
-438.1422936
 20
-336.07013019
 30
0.0
 40
0.53765261
100
AcDbArc
 50
44.00040506
 51
195.99961082
  0
ARC
  5
353
100
AcDbEntity
  8
Mst 1_1
 62
   137
  6
CONTINUOUS
370
    15
100
AcDbCircle
 10
-439.76894583
 20
-336.53655266
 30
0.0
 40
1.15454932
100
AcDbArc
 50
284.00042461
 51
15.99958726
  0
CIRCLE
  5
354
100
AcDbEntity
  8
Mst 1_1
 62
   137
  6
CONTINUOUS
370
     9
100
AcDbCircle
 10
-436.9250338
 20
-338.17848608
 30
0.0
 40
6.8
  0
ARC
  5
355
100
AcDbEntity
  8
Mst 1_1
 62
   137
  6
CONTINUOUS
370
    15
100
AcDbCircle
 10
-434.08112177
 20
-339.8204195
 30
0.0
 40
1.15454932
100
AcDbArc
 50
104.00041459
 51
195.99959727
  0
LINE
  5
356
100
AcDbEntity
  8
Mst 1_1
 62
     7
  6
DASHED
370
    -3
100
AcDbLine
 10
18.57438413
 20
-318.17848608
 30
0.0
 11
18.57438413
 21
-353.17848608
 31
0.0
  0
LINE
  5
357
100
AcDbEntity
  8
Mst 1_1
 62
   137
370
    15
100
AcDbLine
 10
26.91889535
 20
-364.17848608
 30
0.0
 11
26.91889535
 21
-372.17848608
 31
0.0
  0
LINE
  5
358
100
AcDbEntity
  8
Mst 1_1
 62
   137
370
    15
100
AcDbLine
 10
26.91889535
 20
-364.89415275
 30
0.0
 11
26.91889535
 21
-371.46281941
 31
0.0
  0
LINE
  5
359
100
AcDbEntity
  8
Mst 1_1
 62
   137
370
    15
100
AcDbLine
 10
26.91889535
 20
-372.17848608
 30
0.0
 11
13.65063248
 21
-372.17848608
 31
0.0
  0
LINE
  5
35A
100
AcDbEntity
  8
Mst 1_1
 62
   137
370
    15
100
AcDbLine
 10
26.91889535
 20
-371.79948608
 30
0.0
 11
13.65063248
 21
-371.79948608
 31
0.0
  0
LINE
  5
35B
100
AcDbEntity
  8
Mst 1_1
 62
   137
370
    15
100
AcDbLine
 10
26.91889535
 20
-364.17848608
 30
0.0
 11
13.65063248
 21
-364.17848608
 31
0.0
  0
LINE
  5
35C
100
AcDbEntity
  8
Mst 1_1
 62
   137
370
    15
100
AcDbLine
 10
26.91889535
 20
-364.55748608
 30
0.0
 11
13.65063248
 21
-364.55748608
 31
0.0
  0
LINE
  5
35D
100
AcDbEntity
  8
Mst 1_1
 62
   137
370
    15
100
AcDbLine
 10
27.65063248
 20
-364.55748608
 30
0.0
 11
27.65063248
 21
-371.79948608
 31
0.0
  0
LINE
  5
35E
100
AcDbEntity
  8
Mst 1_1
 62
     1
  6
CADWORK_8
370
    15
100
AcDbLine
 10
71.65063248
 20
-368.17848608
 30
0.0
 11
-380.64936752
 21
-368.17848608
 31
0.0
  0
LWPOLYLINE
  5
35F
100
AcDbEntity
  8
Mst 1_1
 62
     7
  6
CONTINUOUS
370
    -3
100
AcDbPolyline
 90
        7
 70
     0
 43
0.0
 10
13.65063248
 20
-382.27848608
 10
13.65063248
 20
-372.27848608
 10
64.28349638
 20
-372.27848608
 10
66.65063248
 20
-368.17848608
 10
64.28349638
 20
-364.07848608
 10
13.65063248
 20
-364.07848608
 10
13.65063248
 20
-354.07848608
  0
LINE
  5
360
100
AcDbEntity
  8
Mst 1_1
 62
     1
  6
CADWORK_8
370
    15
100
AcDbLine
 10
13.65063248
 20
-364.17848608
 30
0.0
 11
13.65063248
 21
-372.17848608
 31
0.0
  0
LWPOLYLINE
  5
361
100
AcDbEntity
  8
Mst 1_1
 62
   137
  6
CONTINUOUS
370
    15
100
AcDbPolyline
 90
        3
 70
     0
 43
0.0
 10
26.91889535
 20
-364.17848608
 10
27.65063248
 20
-364.55748608
 10
28.31729915
 20
-364.55748608
  0
LWPOLYLINE
  5
362
100
AcDbEntity
  8
Mst 1_1
 62
   137
  6
CONTINUOUS
370
    15
100
AcDbPolyline
 90
        3
 70
     0
 43
0.0
 10
26.91889535
 20
-372.17848608
 10
27.65063248
 20
-371.79948608
 10
28.31729915
 20
-371.79948608
  0
LINE
  5
363
100
AcDbEntity
  8
Mst 1_1
 62
   137
370
    15
100
AcDbLine
 10
28.31729915
 20
-364.17848608
 30
0.0
 11
34.52489977
 21
-364.17848608
 31
0.0
  0
LINE
  5
364
100
AcDbEntity
  8
Mst 1_1
 62
   137
370
    15
100
AcDbLine
 10
28.31729915
 20
-372.17848608
 30
0.0
 11
34.52489977
 21
-372.17848608
 31
0.0
  0
LINE
  5
365
100
AcDbEntity
  8
Mst 1_1
 62
   137
370
    15
100
AcDbLine
 10
52.6873749
 20
-364.84003415
 30
0.0
 11
55.34154156
 21
-364.24515275
 31
0.0
  0
LINE
  5
366
100
AcDbEntity
  8
Mst 1_1
 62
   137
370
    15
100
AcDbLine
 10
52.6873749
 20
-371.516938
 30
0.0
 11
55.34154156
 21
-372.11181941
 31
0.0
  0
LINE
  5
367
100
AcDbEntity
  8
Mst 1_1
 62
   137
370
    15
100
AcDbLine
 10
57.64578322
 20
-364.24515275
 30
0.0
 11
57.64578322
 21
-372.11181941
 31
0.0
  0
LINE
  5
368
100
AcDbEntity
  8
Mst 1_1
 62
   137
370
    15
100
AcDbLine
 10
55.34154156
 20
-364.24515275
 30
0.0
 11
55.34154156
 21
-372.11181941
 31
0.0
  0
LINE
  5
369
100
AcDbEntity
  8
Mst 1_1
 62
   137
370
    15
100
AcDbLine
 10
28.31729915
 20
-364.17848608
 30
0.0
 11
28.31729915
 21
-372.17848608
 31
0.0
  0
3DFACE
  5
36A
100
AcDbEntity
  8
Mst 1_1
 62
   137
  6
CONTINUOUS
370
     9
100
AcDbFace
 70
     0
 10
52.6873749
 20
-367.84515274
 30
1000.0
 11
52.6873749
 21
-364.24515275
 31
1000.0
 12
47.0215017
 22
-364.24515275
 32
1000.0
 13
47.0215017
 23
-367.84515274
 33
1000.0
  0
3DFACE
  5
36B
100
AcDbEntity
  8
Mst 1_1
 62
   137
  6
CONTINUOUS
370
     9
100
AcDbFace
 70
     0
 10
52.6873749
 20
-368.51181941
 30
1000.0
 11
52.6873749
 21
-372.11181941
 31
1000.0
 12
47.0215017
 22
-372.11181941
 32
1000.0
 13
47.0215017
 23
-368.51181941
 33
1000.0
  0
LINE
  5
36C
100
AcDbEntity
  8
Mst 1_1
 62
   137
370
    15
100
AcDbLine
 10
40.62519833
 20
-364.84003415
 30
0.0
 11
43.27936494
 21
-364.24515275
 31
0.0
  0
LINE
  5
36D
100
AcDbEntity
  8
Mst 1_1
 62
   137
370
    15
100
AcDbLine
 10
40.62519833
 20
-371.516938
 30
0.0
 11
43.27936494
 21
-372.11181941
 31
0.0
  0
LINE
  5
36E
100
AcDbEntity
  8
Mst 1_1
 62
   137
370
    15
100
AcDbLine
 10
45.58360674
 20
-364.24515275
 30
0.0
 11
45.58360674
 21
-372.11181941
 31
0.0
  0
LINE
  5
36F
100
AcDbEntity
  8
Mst 1_1
 62
   137
370
    15
100
AcDbLine
 10
43.27936494
 20
-364.24515275
 30
0.0
 11
43.27936494
 21
-372.11181941
 31
0.0
  0
3DFACE
  5
370
100
AcDbEntity
  8
Mst 1_1
 62
   137
  6
CONTINUOUS
370
     9
100
AcDbFace
 70
     0
 10
40.62519833
 20
-367.84515274
 30
1000.0
 11
40.62519833
 21
-364.24515275
 31
1000.0
 12
34.95932524
 22
-364.24515275
 32
1000.0
 13
34.95932524
 23
-367.84515274
 33
1000.0
  0
3DFACE
  5
371
100
AcDbEntity
  8
Mst 1_1
 62
   137
  6
CONTINUOUS
370
     9
100
AcDbFace
 70
     0
 10
40.62519833
 20
-368.51181941
 30
1000.0
 11
40.62519833
 21
-372.11181941
 31
1000.0
 12
34.95932524
 22
-372.11181941
 32
1000.0
 13
34.95932524
 23
-368.51181941
 33
1000.0
  0
LINE
  5
372
100
AcDbEntity
  8
Mst 1_1
 62
   137
  6
CONTINUOUS
370
    15
100
AcDbLine
 10
47.0215017
 20
-365.51181941
 30
1000.0
 11
46.58707626
 21
-365.51181941
 31
1000.0
  0
LINE
  5
373
100
AcDbEntity
  8
Mst 1_1
 62
   137
  6
CONTINUOUS
370
    15
100
AcDbLine
 10
47.0215017
 20
-370.84515274
 30
1000.0
 11
46.58707626
 21
-370.84515274
 31
1000.0
  0
LINE
  5
374
100
AcDbEntity
  8
Mst 1_1
 62
   137
  6
CONTINUOUS
370
    15
100
AcDbLine
 10
34.95932524
 20
-365.51181941
 30
1000.0
 11
34.52489977
 21
-365.51181941
 31
1000.0
  0
LINE
  5
375
100
AcDbEntity
  8
Mst 1_1
 62
   137
  6
CONTINUOUS
370
    15
100
AcDbLine
 10
34.95932524
 20
-370.84515274
 30
1000.0
 11
34.52489977
 21
-370.84515274
 31
1000.0
  0
LINE
  5
376
100
AcDbEntity
  8
Mst 1_1
 62
   137
  6
CONTINUOUS
370
    15
100
AcDbLine
 10
34.52489977
 20
-364.17848608
 30
1000.0
 11
34.52489977
 21
-372.17848608
 31
1000.0
  0
LWPOLYLINE
  5
377
100
AcDbEntity
  8
Mst 1_1
 62
   137
  6
CONTINUOUS
370
     9
100
AcDbPolyline
 90
       45
 70
     1
 43
0.0
 38
1000.0
 39
-1000.0
 10
34.95932524
 20
-364.24515275
 10
34.95932524
 20
-364.13388215
 10
34.96017755
 20
-364.11738679
 10
34.96272945
 20
-364.10098395
 10
34.96696712
 20
-364.08476564
 10
34.97286625
 20
-364.06882283
 10
34.98039405
 20
-364.05324495
 10
34.9895083
 20
-364.03811938
 10
35.00015784
 20
-364.02353096
 10
35.01228292
 20
-364.00956151
 10
35.02581523
 20
-363.9962894
 10
35.04067944
 20
-363.98378907
 10
35.0567919
 20
-363.97213062
 10
35.07406213
 20
-363.96137948
 10
35.09239319
 20
-363.95159593
 10
35.11168279
 20
-363.94283484
 10
35.13182194
 20
-363.93514538
 10
35.15269841
 20
-363.92857065
 10
35.17419445
 20
-363.92314756
 10
35.19619027
 20
-363.91890651
 10
35.2185618
 20
-363.91587129
 10
35.24118372
 20
-363.91405893
 10
35.26392927
 20
-363.91347959
 10
35.39389201
 20
-363.91438238
 10
35.52382316
 20
-363.91664711
 10
35.65369587
 20
-363.92027333
 10
35.78348267
 20
-363.92526026
 10
35.91315667
 20
-363.93160689
 10
36.04269052
 20
-363.93931186
 10
36.17205734
 20
-363.94837359
 10
36.30123009
 20
-363.95879018
 10
36.43018186
 20
-363.97055943
 10
36.55888589
 20
-363.98367892
 10
36.68731474
 20
-363.99814589
 10
36.81544221
 20
-364.01395733
 10
36.94324125
 20
-364.03110992
 10
37.07068518
 20
-364.04960009
 10
37.19774717
 20
-364.06942398
 10
37.32440127
 20
-364.09057745
 10
37.45062061
 20
-364.11305608
 10
37.57637881
 20
-364.13685518
 10
37.70164976
 20
-364.16196978
 10
37.82640718
 20
-364.18839463
 10
37.95062512
 20
-364.21612422
 10
38.07427777
 20
-364.24515275
  0
LWPOLYLINE
  5
378
100
AcDbEntity
  8
Mst 1_1
 62
   137
  6
CONTINUOUS
370
     9
100
AcDbPolyline
 90
       45
 70
     1
 43
0.0
 38
1000.0
 39
-1000.0
 10
34.95932524
 20
-372.11181941
 10
34.95932524
 20
-372.22309
 10
34.96017755
 20
-372.23958537
 10
34.96272945
 20
-372.25598821
 10
34.96696712
 20
-372.27220651
 10
34.97286625
 20
-372.28814933
 10
34.98039405
 20
-372.3037272
 10
34.9895083
 20
-372.31885278
 10
35.00015784
 20
-372.3334412
 10
35.01228292
 20
-372.34741065
 10
35.02581523
 20
-372.36068276
 10
35.04067944
 20
-372.37318309
 10
35.0567919
 20
-372.38484153
 10
35.07406213
 20
-372.39559268
 10
35.09239319
 20
-372.40537623
 10
35.11168279
 20
-372.41413731
 10
35.13182194
 20
-372.42182677
 10
35.15269841
 20
-372.4284015
 10
35.17419445
 20
-372.4338246
 10
35.19619027
 20
-372.43806564
 10
35.2185618
 20
-372.44110087
 10
35.24118372
 20
-372.44291323
 10
35.26392927
 20
-372.44349257
 10
35.39389201
 20
-372.44258978
 10
35.52382316
 20
-372.44032505
 10
35.65369587
 20
-372.43669882
 10
35.78348267
 20
-372.43171189
 10
35.91315667
 20
-372.42536526
 10
36.04269052
 20
-372.4176603
 10
36.17205734
 20
-372.40859856
 10
36.30123009
 20
-372.39818198
 10
36.43018186
 20
-372.38641272
 10
36.55888589
 20
-372.37329323
 10
36.68731474
 20
-372.35882627
 10
36.81544221
 20
-372.34301482
 10
36.94324125
 20
-372.32586223
 10
37.07068518
 20
-372.30737207
 10
37.19774717
 20
-372.28754817
 10
37.32440127
 20
-372.2663947
 10
37.45062061
 20
-372.24391607
 10
37.57637881
 20
-372.22011697
 10
37.70164976
 20
-372.19500237
 10
37.82640718
 20
-372.16857752
 10
37.95062512
 20
-372.14084794
 10
38.07427777
 20
-372.11181941
  0
LWPOLYLINE
  5
379
100
AcDbEntity
  8
Mst 1_1
 62
   137
  6
CONTINUOUS
370
     9
100
AcDbPolyline
 90
       45
 70
     1
 43
0.0
 38
1000.0
 39
-1000.0
 10
47.0215017
 20
-372.11181941
 10
47.0215017
 20
-372.22309
 10
47.02235403
 20
-372.23958537
 10
47.02490605
 20
-372.25598821
 10
47.0291436
 20
-372.27220651
 10
47.03504287
 20
-372.28814933
 10
47.04257065
 20
-372.3037272
 10
47.05168493
 20
-372.31885278
 10
47.06233431
 20
-372.3334412
 10
47.07445939
 20
-372.34741065
 10
47.08799187
 20
-372.36068276
 10
47.10285606
 20
-372.37318309
 10
47.11896837
 20
-372.38484153
 10
47.1362386
 20
-372.39559268
 10
47.15456981
 20
-372.40537623
 10
47.17385924
 20
-372.41413731
 10
47.19399857
 20
-372.42182677
 10
47.21487489
 20
-372.4284015
 10
47.23637108
 20
-372.4338246
 10
47.25836673
 20
-372.43806564
 10
47.28073813
 20
-372.44110087
 10
47.30336017
 20
-372.44291323
 10
47.32610577
 20
-372.44349257
 10
47.45606849
 20
-372.44258978
 10
47.5859998
 20
-372.44032505
 10
47.7158725
 20
-372.43669882
 10
47.84565929
 20
-372.43171189
 10
47.97533317
 20
-372.42536526
 10
48.10486697
 20
-372.4176603
 10
48.23423395
 20
-372.40859856
 10
48.36340673
 20
-372.39818198
 10
48.49235846
 20
-372.38641272
 10
48.62106234
 20
-372.37329323
 10
48.74949137
 20
-372.35882627
 10
48.87761869
 20
-372.34301482
 10
49.00541773
 20
-372.32586223
 10
49.13286151
 20
-372.30737207
 10
49.25992377
 20
-372.28754817
 10
49.38657775
 20
-372.2663947
 10
49.51279706
 20
-372.24391607
 10
49.63855528
 20
-372.22011697
 10
49.76382626
 20
-372.19500237
 10
49.88858381
 20
-372.16857752
 10
50.01280172
 20
-372.14084794
 10
50.13645424
 20
-372.11181941
  0
LWPOLYLINE
  5
37A
100
AcDbEntity
  8
Mst 1_1
 62
   137
  6
CONTINUOUS
370
     9
100
AcDbPolyline
 90
       45
 70
     1
 43
0.0
 38
1000.0
 39
-1000.0
 10
47.0215017
 20
-364.24515275
 10
47.0215017
 20
-364.13388215
 10
47.02235403
 20
-364.11738679
 10
47.02490605
 20
-364.10098395
 10
47.0291436
 20
-364.08476564
 10
47.03504287
 20
-364.06882283
 10
47.04257065
 20
-364.05324495
 10
47.05168493
 20
-364.03811938
 10
47.06233431
 20
-364.02353096
 10
47.07445939
 20
-364.00956151
 10
47.08799187
 20
-363.9962894
 10
47.10285606
 20
-363.98378907
 10
47.11896837
 20
-363.97213062
 10
47.1362386
 20
-363.96137948
 10
47.15456981
 20
-363.95159593
 10
47.17385924
 20
-363.94283484
 10
47.19399857
 20
-363.93514538
 10
47.21487489
 20
-363.92857065
 10
47.23637108
 20
-363.92314756
 10
47.25836673
 20
-363.91890651
 10
47.28073813
 20
-363.91587129
 10
47.30336017
 20
-363.91405893
 10
47.32610577
 20
-363.91347959
 10
47.45606849
 20
-363.91438238
 10
47.5859998
 20
-363.91664711
 10
47.7158725
 20
-363.92027333
 10
47.84565929
 20
-363.92526026
 10
47.97533317
 20
-363.93160689
 10
48.10486697
 20
-363.93931186
 10
48.23423395
 20
-363.94837359
 10
48.36340673
 20
-363.95879018
 10
48.49235846
 20
-363.97055943
 10
48.62106234
 20
-363.98367892
 10
48.74949137
 20
-363.99814589
 10
48.87761869
 20
-364.01395733
 10
49.00541773
 20
-364.03110992
 10
49.13286151
 20
-364.04960009
 10
49.25992377
 20
-364.06942398
 10
49.38657775
 20
-364.09057745
 10
49.51279706
 20
-364.11305608
 10
49.63855528
 20
-364.13685518
 10
49.76382626
 20
-364.16196978
 10
49.88858381
 20
-364.18839463
 10
50.01280172
 20
-364.21612422
 10
50.13645424
 20
-364.24515275
  0
LWPOLYLINE
  5
37B
100
AcDbEntity
  8
Mst 1_1
 62
   137
  6
CONTINUOUS
370
    15
100
AcDbPolyline
 90
       46
 70
     0
 43
0.0
 10
55.34154156
 20
-364.24515275
 10
57.54760218
 20
-364.24515275
 10
57.63003174
 20
-364.24888102
 10
57.71200031
 20
-364.26004498
 10
57.7930495
 20
-364.2785822
 10
57.87272607
 20
-364.304389
 10
57.9505844
 20
-364.33732108
 10
58.02618909
 20
-364.37719425
 10
58.09911733
 20
-364.42378554
 10
58.16896127
 20
-364.47683438
 10
58.23533033
 20
-364.5360441
 10
58.29785332
 20
-364.60108358
 10
58.35618061
 20
-364.67158909
 10
58.40998599
 20
-364.74716634
 10
58.45896858
 20
-364.82739267
 10
58.50285444
 20
-364.91181941
 10
58.54139814
 20
-364.99997443
 10
58.57438413
 20
-365.09136471
 10
58.60162794
 20
-365.18547918
 10
58.62297721
 20
-365.2817915
 10
58.63831255
 20
-365.37976306
 10
58.64754819
 20
-365.47884595
 10
58.65063248
 20
-365.57848608
 10
58.65063248
 20
-370.77848608
 10
58.64754819
 20
-370.8781262
 10
58.63831255
 20
-370.9772091
 10
58.62297721
 20
-371.07518065
 10
58.60162794
 20
-371.17149298
 10
58.57438413
 20
-371.26560744
 10
58.54139814
 20
-371.35699773
 10
58.50285444
 20
-371.44515274
 10
58.45896858
 20
-371.52957949
 10
58.40998599
 20
-371.60980581
 10
58.35618061
 20
-371.68538306
 10
58.29785332
 20
-371.75588857
 10
58.23533033
 20
-371.82092805
 10
58.16896127
 20
-371.88013777
 10
58.09911733
 20
-371.93318661
 10
58.02618909
 20
-371.9797779
 10
57.9505844
 20
-372.01965107
 10
57.87272607
 20
-372.05258315
 10
57.7930495
 20
-372.07838996
 10
57.71200031
 20
-372.09692718
 10
57.63003174
 20
-372.10809114
 10
57.54760218
 20
-372.11181941
 10
55.34154156
 20
-372.11181941
  0
LWPOLYLINE
  5
37C
100
AcDbEntity
  8
Mst 1_1
 62
   137
  6
CONTINUOUS
370
    15
100
AcDbPolyline
 90
       46
 70
     0
 43
0.0
 10
43.27936494
 20
-364.24515275
 10
45.48542565
 20
-364.24515275
 10
45.56785525
 20
-364.24888102
 10
45.64982382
 20
-364.26004498
 10
45.73087297
 20
-364.2785822
 10
45.8105495
 20
-364.304389
 10
45.88840785
 20
-364.33732108
 10
45.96401263
 20
-364.37719425
 10
46.03694076
 20
-364.42378554
 10
46.10678467
 20
-364.47683438
 10
46.17315379
 20
-364.5360441
 10
46.23567686
 20
-364.60108358
 10
46.29400405
 20
-364.67158909
 10
46.34780942
 20
-364.74716634
 10
46.39679199
 20
-364.82739267
 10
46.44067796
 20
-364.91181941
 10
46.47922159
 20
-364.99997443
 10
46.5122076
 20
-365.09136471
 10
46.53945137
 20
-365.18547918
 10
46.56080069
 20
-365.2817915
 10
46.57613597
 20
-365.37976306
 10
46.58537165
 20
-365.47884595
 10
46.58845601
 20
-365.57848608
 10
46.58845601
 20
-370.77848608
 10
46.58537165
 20
-370.8781262
 10
46.57613597
 20
-370.9772091
 10
46.56080069
 20
-371.07518065
 10
46.53945137
 20
-371.17149298
 10
46.5122076
 20
-371.26560744
 10
46.47922159
 20
-371.35699773
 10
46.44067796
 20
-371.44515274
 10
46.39679199
 20
-371.52957949
 10
46.34780942
 20
-371.60980581
 10
46.29400405
 20
-371.68538306
 10
46.23567686
 20
-371.75588857
 10
46.17315379
 20
-371.82092805
 10
46.10678467
 20
-371.88013777
 10
46.03694076
 20
-371.93318661
 10
45.96401263
 20
-371.9797779
 10
45.88840785
 20
-372.01965107
 10
45.8105495
 20
-372.05258315
 10
45.73087297
 20
-372.07838996
 10
45.64982382
 20
-372.09692718
 10
45.56785525
 20
-372.10809114
 10
45.48542565
 20
-372.11181941
 10
43.27936494
 20
-372.11181941
  0
LINE
  5
37D
100
AcDbEntity
  8
Mst 1_1
 62
   137
370
    15
100
AcDbLine
 10
11.65063248
 20
-363.17848608
 30
100.0
 11
13.65063248
 21
-364.17848608
 31
100.0
  0
LINE
  5
37E
100
AcDbEntity
  8
Mst 1_1
 62
   137
370
    15
100
AcDbLine
 10
11.65063248
 20
-373.17848608
 30
100.0
 11
11.65063248
 21
-363.17848608
 31
100.0
  0
LINE
  5
37F
100
AcDbEntity
  8
Mst 1_1
 62
   137
370
    15
100
AcDbLine
 10
11.65063248
 20
-373.17848608
 30
100.0
 11
13.65063248
 21
-372.17848608
 31
100.0
  0
LINE
  5
380
100
AcDbEntity
  8
Mst 1_1
 62
   137
370
    15
100
AcDbLine
 10
11.65063248
 20
-363.17848608
 30
100.0
 11
-321.34936752
 21
-363.17848608
 31
100.0
  0
LINE
  5
381
100
AcDbEntity
  8
Mst 1_1
 62
   137
370
    15
100
AcDbLine
 10
11.65063248
 20
-373.17848608
 30
100.0
 11
-321.34936752
 21
-373.17848608
 31
100.0
  0
LINE
  5
382
100
AcDbEntity
  8
Mst 1_1
 62
   137
370
    15
100
AcDbLine
 10
-321.34936752
 20
-363.17848608
 30
100.0
 11
-321.34936752
 21
-373.17848608
 31
100.0
  0
LWPOLYLINE
  5
383
100
AcDbEntity
  8
Mst 1_1
 62
   137
370
    15
100
AcDbPolyline
 90
        5
 70
     0
 43
0.0
 38
100.0
 10
-314.34936752
 20
-365.17848608
 10
-371.84936752
 20
-365.17848608
 10
-371.84936752
 20
-371.17848608
 10
-314.34936752
 20
-371.17848608
 10
-314.34936752
 20
-365.17848608
  0
LWPOLYLINE
  5
384
100
AcDbEntity
  8
Mst 1_1
 62
   137
370
    15
100
AcDbPolyline
 90
        4
 70
     0
 43
0.0
 38
100.0
 10
-314.34936752
 20
-365.17848608
 10
-313.34936752
 20
-366.17848608
 10
-313.34936752
 20
-370.17848608
 10
-314.34936752
 20
-371.17848608
  0
LINE
  5
385
100
AcDbEntity
  8
Mst 1_1
 62
   137
370
    15
100
AcDbLine
 10
-313.34936752
 20
-366.17848608
 30
100.0
 11
-371.84936752
 21
-366.17848608
 31
100.0
  0
LINE
  5
386
100
AcDbEntity
  8
Mst 1_1
 62
   137
370
    15
100
AcDbLine
 10
-313.34936752
 20
-370.17848608
 30
100.0
 11
-371.84936752
 21
-370.17848608
 31
100.0
  0
LWPOLYLINE
  5
387
100
AcDbEntity
  8
Mst 1_1
 62
   137
370
    15
100
AcDbPolyline
 90
        6
 70
     0
 43
0.0
 38
100.0
 10
-373.34936752
 20
-365.17848608
 10
-373.34936752
 20
-359.17848608
 10
-371.84936752
 20
-359.17848608
 10
-371.84936752
 20
-377.17848608
 10
-373.34936752
 20
-377.17848608
 10
-373.34936752
 20
-365.17848608
  0
LWPOLYLINE
  5
388
100
AcDbEntity
  8
Mst 1_1
 62
   137
370
    15
100
AcDbPolyline
 90
        5
 70
     0
 43
0.0
 38
100.0
 10
-373.34936752
 20
-361.37848608
 10
-374.34936752
 20
-361.37848608
 10
-374.34936752
 20
-374.97848608
 10
-373.34936752
 20
-374.97848608
 10
-373.34936752
 20
-361.37848608
  0
LWPOLYLINE
  5
389
100
AcDbEntity
  8
Mst 1_1
 62
   137
370
    15
100
AcDbPolyline
 90
        5
 70
     0
 43
0.0
 38
100.0
 10
-374.34936752
 20
-363.32848608
 10
-375.64936752
 20
-365.02848608
 10
-375.64936752
 20
-371.32848608
 10
-374.34936752
 20
-373.02848608
 10
-374.34936752
 20
-363.32848608
  0
CIRCLE
  5
38A
100
AcDbEntity
  8
Mst 1_1
 62
   137
  6
CONTINUOUS
370
     9
100
AcDbCircle
 10
-436.9250338
 20
-368.17848608
 30
0.0
 40
1.88177431
  0
CIRCLE
  5
38B
100
AcDbEntity
  8
Mst 1_1
 62
   137
  6
CONTINUOUS
370
     9
100
AcDbCircle
 10
-436.9250338
 20
-368.17848608
 30
0.0
 40
1.88177431
  0
CIRCLE
  5
38C
100
AcDbEntity
  8
Mst 1_1
 62
   137
  6
CONTINUOUS
370
     9
100
AcDbCircle
 10
-436.9250338
 20
-368.17848608
 30
0.0
 40
1.88177431
  0
CIRCLE
  5
38D
100
AcDbEntity
  8
Mst 1_1
 62
   137
  6
CONTINUOUS
370
     9
100
AcDbCircle
 10
-436.9250338
 20
-368.17848608
 30
0.0
 40
2.97217223
  0
CIRCLE
  5
38E
100
AcDbEntity
  8
Mst 1_1
 62
   137
  6
CONTINUOUS
370
     9
100
AcDbCircle
 10
-436.9250338
 20
-368.17848608
 30
0.0
 40
4.56609304
  0
CIRCLE
  5
38F
100
AcDbEntity
  8
Mst 1_1
 62
   137
  6
CONTINUOUS
370
     9
100
AcDbCircle
 10
-436.9250338
 20
-368.17848608
 30
0.0
 40
1.9962351
  0
CIRCLE
  5
390
100
AcDbEntity
  8
Mst 1_1
 62
   137
  6
CONTINUOUS
370
     9
100
AcDbCircle
 10
-436.9250338
 20
-368.17848608
 30
0.0
 40
8.74999999
  0
ARC
  5
391
100
AcDbEntity
  8
Mst 1_1
 62
   137
  6
CONTINUOUS
370
    15
100
AcDbCircle
 10
-439.35955338
 20
-368.17848608
 30
0.0
 40
0.53765266
100
AcDbArc
 50
104.00039951
 51
255.99961051
  0
ARC
  5
392
100
AcDbEntity
  8
Mst 1_1
 62
   137
  6
CONTINUOUS
370
    15
100
AcDbCircle
 10
-439.76894583
 20
-369.8204195
 30
0.0
 40
1.15454932
100
AcDbArc
 50
344.00042282
 51
75.99958535
  0
ARC
  5
393
100
AcDbEntity
  8
Mst 1_1
 62
   137
  6
CONTINUOUS
370
    15
100
AcDbCircle
 10
-438.14229355
 20
-370.28684189
 30
0.0
 40
0.53765264
100
AcDbArc
 50
164.00040911
 51
315.99959504
  0
ARC
  5
394
100
AcDbEntity
  8
Mst 1_1
 62
   137
  6
CONTINUOUS
370
    15
100
AcDbCircle
 10
-436.9250338
 20
-371.4623527
 30
0.0
 40
1.15454918
100
AcDbArc
 50
44.00040429
 51
135.99959571
  0
ARC
  5
395
100
AcDbEntity
  8
Mst 1_1
 62
   137
  6
CONTINUOUS
370
    15
100
AcDbCircle
 10
-435.707774
 20
-370.28684197
 30
0.0
 40
0.53765261
100
AcDbArc
 50
224.00041508
 51
15.9996008
  0
ARC
  5
396
100
AcDbEntity
  8
Mst 1_1
 62
   137
  6
CONTINUOUS
370
    15
100
AcDbCircle
 10
-434.49051422
 20
-368.17848608
 30
0.0
 40
0.53765266
100
AcDbArc
 50
284.00040953
 51
75.99960049
  0
ARC
  5
397
100
AcDbEntity
  8
Mst 1_1
 62
   137
  6
CONTINUOUS
370
    15
100
AcDbCircle
 10
-434.08112177
 20
-366.53655266
 30
0.0
 40
1.15454932
100
AcDbArc
 50
164.00041281
 51
255.99959537
  0
ARC
  5
398
100
AcDbEntity
  8
Mst 1_1
 62
   137
  6
CONTINUOUS
370
    15
100
AcDbCircle
 10
-435.70777405
 20
-366.07013027
 30
0.0
 40
0.53765264
100
AcDbArc
 50
344.00041913
 51
135.99958502
  0
ARC
  5
399
100
AcDbEntity
  8
Mst 1_1
 62
   137
  6
CONTINUOUS
370
    15
100
AcDbCircle
 10
-436.9250338
 20
-364.89461945
 30
0.0
 40
1.15454918
100
AcDbArc
 50
224.00041431
 51
315.99960573
  0
ARC
  5
39A
100
AcDbEntity
  8
Mst 1_1
 62
   137
  6
CONTINUOUS
370
    15
100
AcDbCircle
 10
-438.1422936
 20
-366.07013019
 30
0.0
 40
0.53765261
100
AcDbArc
 50
44.00040506
 51
195.99961082
  0
ARC
  5
39B
100
AcDbEntity
  8
Mst 1_1
 62
   137
  6
CONTINUOUS
370
    15
100
AcDbCircle
 10
-439.76894583
 20
-366.53655266
 30
0.0
 40
1.15454932
100
AcDbArc
 50
284.00042461
 51
15.99958726
  0
CIRCLE
  5
39C
100
AcDbEntity
  8
Mst 1_1
 62
   137
  6
CONTINUOUS
370
     9
100
AcDbCircle
 10
-436.9250338
 20
-368.17848608
 30
0.0
 40
6.8
  0
ARC
  5
39D
100
AcDbEntity
  8
Mst 1_1
 62
   137
  6
CONTINUOUS
370
    15
100
AcDbCircle
 10
-434.08112177
 20
-369.8204195
 30
0.0
 40
1.15454932
100
AcDbArc
 50
104.00041459
 51
195.99959727
  0
LINE
  5
39E
100
AcDbEntity
  8
Mst 1_1
 62
     7
  6
DASHED
370
    -3
100
AcDbLine
 10
58.57438413
 20
-348.17848608
 30
0.0
 11
58.57438413
 21
-383.17848608
 31
0.0
  0
LINE
  5
39F
100
AcDbEntity
  8
Mst 1_1
 62
   137
370
    15
100
AcDbLine
 10
66.91889535
 20
-394.17848608
 30
0.0
 11
66.91889535
 21
-402.17848608
 31
0.0
  0
LINE
  5
3A0
100
AcDbEntity
  8
Mst 1_1
 62
   137
370
    15
100
AcDbLine
 10
66.91889535
 20
-394.89415275
 30
0.0
 11
66.91889535
 21
-401.46281941
 31
0.0
  0
LINE
  5
3A1
100
AcDbEntity
  8
Mst 1_1
 62
   137
370
    15
100
AcDbLine
 10
66.91889535
 20
-402.17848608
 30
0.0
 11
53.65063248
 21
-402.17848608
 31
0.0
  0
LINE
  5
3A2
100
AcDbEntity
  8
Mst 1_1
 62
   137
370
    15
100
AcDbLine
 10
66.91889535
 20
-401.79948608
 30
0.0
 11
53.65063248
 21
-401.79948608
 31
0.0
  0
LINE
  5
3A3
100
AcDbEntity
  8
Mst 1_1
 62
   137
370
    15
100
AcDbLine
 10
66.91889535
 20
-394.17848608
 30
0.0
 11
53.65063248
 21
-394.17848608
 31
0.0
  0
LINE
  5
3A4
100
AcDbEntity
  8
Mst 1_1
 62
   137
370
    15
100
AcDbLine
 10
66.91889535
 20
-394.55748608
 30
0.0
 11
53.65063248
 21
-394.55748608
 31
0.0
  0
LINE
  5
3A5
100
AcDbEntity
  8
Mst 1_1
 62
   137
370
    15
100
AcDbLine
 10
67.65063248
 20
-394.55748608
 30
0.0
 11
67.65063248
 21
-401.79948608
 31
0.0
  0
LINE
  5
3A6
100
AcDbEntity
  8
Mst 1_1
 62
     1
  6
CADWORK_8
370
    15
100
AcDbLine
 10
111.65063248
 20
-398.17848608
 30
0.0
 11
-380.64936752
 21
-398.17848608
 31
0.0
  0
LWPOLYLINE
  5
3A7
100
AcDbEntity
  8
Mst 1_1
 62
     7
  6
CONTINUOUS
370
    -3
100
AcDbPolyline
 90
        7
 70
     0
 43
0.0
 10
53.65063248
 20
-412.27848608
 10
53.65063248
 20
-402.27848608
 10
104.28349638
 20
-402.27848608
 10
106.65063248
 20
-398.17848608
 10
104.28349638
 20
-394.07848608
 10
53.65063248
 20
-394.07848608
 10
53.65063248
 20
-384.07848608
  0
LINE
  5
3A8
100
AcDbEntity
  8
Mst 1_1
 62
     1
  6
CADWORK_8
370
    15
100
AcDbLine
 10
53.65063248
 20
-394.17848608
 30
0.0
 11
53.65063248
 21
-402.17848608
 31
0.0
  0
LWPOLYLINE
  5
3A9
100
AcDbEntity
  8
Mst 1_1
 62
   137
  6
CONTINUOUS
370
    15
100
AcDbPolyline
 90
        3
 70
     0
 43
0.0
 10
66.91889535
 20
-394.17848608
 10
67.65063248
 20
-394.55748608
 10
68.31729915
 20
-394.55748608
  0
LWPOLYLINE
  5
3AA
100
AcDbEntity
  8
Mst 1_1
 62
   137
  6
CONTINUOUS
370
    15
100
AcDbPolyline
 90
        3
 70
     0
 43
0.0
 10
66.91889535
 20
-402.17848608
 10
67.65063248
 20
-401.79948608
 10
68.31729915
 20
-401.79948608
  0
LINE
  5
3AB
100
AcDbEntity
  8
Mst 1_1
 62
   137
370
    15
100
AcDbLine
 10
68.31729915
 20
-394.17848608
 30
0.0
 11
74.52489977
 21
-394.17848608
 31
0.0
  0
LINE
  5
3AC
100
AcDbEntity
  8
Mst 1_1
 62
   137
370
    15
100
AcDbLine
 10
68.31729915
 20
-402.17848608
 30
0.0
 11
74.52489977
 21
-402.17848608
 31
0.0
  0
LINE
  5
3AD
100
AcDbEntity
  8
Mst 1_1
 62
   137
370
    15
100
AcDbLine
 10
92.6873749
 20
-394.84003415
 30
0.0
 11
95.34154156
 21
-394.24515275
 31
0.0
  0
LINE
  5
3AE
100
AcDbEntity
  8
Mst 1_1
 62
   137
370
    15
100
AcDbLine
 10
92.6873749
 20
-401.516938
 30
0.0
 11
95.34154156
 21
-402.11181941
 31
0.0
  0
LINE
  5
3AF
100
AcDbEntity
  8
Mst 1_1
 62
   137
370
    15
100
AcDbLine
 10
97.64578322
 20
-394.24515275
 30
0.0
 11
97.64578322
 21
-402.11181941
 31
0.0
  0
LINE
  5
3B0
100
AcDbEntity
  8
Mst 1_1
 62
   137
370
    15
100
AcDbLine
 10
95.34154156
 20
-394.24515275
 30
0.0
 11
95.34154156
 21
-402.11181941
 31
0.0
  0
LINE
  5
3B1
100
AcDbEntity
  8
Mst 1_1
 62
   137
370
    15
100
AcDbLine
 10
68.31729915
 20
-394.17848608
 30
0.0
 11
68.31729915
 21
-402.17848608
 31
0.0
  0
3DFACE
  5
3B2
100
AcDbEntity
  8
Mst 1_1
 62
   137
  6
CONTINUOUS
370
     9
100
AcDbFace
 70
     0
 10
92.6873749
 20
-397.84515274
 30
1000.0
 11
92.6873749
 21
-394.24515275
 31
1000.0
 12
87.0215017
 22
-394.24515275
 32
1000.0
 13
87.0215017
 23
-397.84515274
 33
1000.0
  0
3DFACE
  5
3B3
100
AcDbEntity
  8
Mst 1_1
 62
   137
  6
CONTINUOUS
370
     9
100
AcDbFace
 70
     0
 10
92.6873749
 20
-398.51181941
 30
1000.0
 11
92.6873749
 21
-402.11181941
 31
1000.0
 12
87.0215017
 22
-402.11181941
 32
1000.0
 13
87.0215017
 23
-398.51181941
 33
1000.0
  0
LINE
  5
3B4
100
AcDbEntity
  8
Mst 1_1
 62
   137
370
    15
100
AcDbLine
 10
80.62519833
 20
-394.84003415
 30
0.0
 11
83.27936494
 21
-394.24515275
 31
0.0
  0
LINE
  5
3B5
100
AcDbEntity
  8
Mst 1_1
 62
   137
370
    15
100
AcDbLine
 10
80.62519833
 20
-401.516938
 30
0.0
 11
83.27936494
 21
-402.11181941
 31
0.0
  0
LINE
  5
3B6
100
AcDbEntity
  8
Mst 1_1
 62
   137
370
    15
100
AcDbLine
 10
85.58360674
 20
-394.24515275
 30
0.0
 11
85.58360674
 21
-402.11181941
 31
0.0
  0
LINE
  5
3B7
100
AcDbEntity
  8
Mst 1_1
 62
   137
370
    15
100
AcDbLine
 10
83.27936494
 20
-394.24515275
 30
0.0
 11
83.27936494
 21
-402.11181941
 31
0.0
  0
3DFACE
  5
3B8
100
AcDbEntity
  8
Mst 1_1
 62
   137
  6
CONTINUOUS
370
     9
100
AcDbFace
 70
     0
 10
80.62519833
 20
-397.84515274
 30
1000.0
 11
80.62519833
 21
-394.24515275
 31
1000.0
 12
74.95932524
 22
-394.24515275
 32
1000.0
 13
74.95932524
 23
-397.84515274
 33
1000.0
  0
3DFACE
  5
3B9
100
AcDbEntity
  8
Mst 1_1
 62
   137
  6
CONTINUOUS
370
     9
100
AcDbFace
 70
     0
 10
80.62519833
 20
-398.51181941
 30
1000.0
 11
80.62519833
 21
-402.11181941
 31
1000.0
 12
74.95932524
 22
-402.11181941
 32
1000.0
 13
74.95932524
 23
-398.51181941
 33
1000.0
  0
LINE
  5
3BA
100
AcDbEntity
  8
Mst 1_1
 62
   137
  6
CONTINUOUS
370
    15
100
AcDbLine
 10
87.0215017
 20
-395.51181941
 30
1000.0
 11
86.58707626
 21
-395.51181941
 31
1000.0
  0
LINE
  5
3BB
100
AcDbEntity
  8
Mst 1_1
 62
   137
  6
CONTINUOUS
370
    15
100
AcDbLine
 10
87.0215017
 20
-400.84515274
 30
1000.0
 11
86.58707626
 21
-400.84515274
 31
1000.0
  0
LINE
  5
3BC
100
AcDbEntity
  8
Mst 1_1
 62
   137
  6
CONTINUOUS
370
    15
100
AcDbLine
 10
74.95932524
 20
-395.51181941
 30
1000.0
 11
74.52489977
 21
-395.51181941
 31
1000.0
  0
LINE
  5
3BD
100
AcDbEntity
  8
Mst 1_1
 62
   137
  6
CONTINUOUS
370
    15
100
AcDbLine
 10
74.95932524
 20
-400.84515274
 30
1000.0
 11
74.52489977
 21
-400.84515274
 31
1000.0
  0
LINE
  5
3BE
100
AcDbEntity
  8
Mst 1_1
 62
   137
  6
CONTINUOUS
370
    15
100
AcDbLine
 10
74.52489977
 20
-394.17848608
 30
1000.0
 11
74.52489977
 21
-402.17848608
 31
1000.0
  0
LWPOLYLINE
  5
3BF
100
AcDbEntity
  8
Mst 1_1
 62
   137
  6
CONTINUOUS
370
     9
100
AcDbPolyline
 90
       45
 70
     1
 43
0.0
 38
1000.0
 39
-1000.0
 10
74.95932524
 20
-394.24515275
 10
74.95932524
 20
-394.13388215
 10
74.96017755
 20
-394.11738679
 10
74.96272945
 20
-394.10098395
 10
74.96696712
 20
-394.08476564
 10
74.97286625
 20
-394.06882283
 10
74.98039405
 20
-394.05324495
 10
74.9895083
 20
-394.03811938
 10
75.00015784
 20
-394.02353096
 10
75.01228292
 20
-394.00956151
 10
75.02581523
 20
-393.9962894
 10
75.04067944
 20
-393.98378907
 10
75.0567919
 20
-393.97213062
 10
75.07406213
 20
-393.96137948
 10
75.09239319
 20
-393.95159593
 10
75.11168279
 20
-393.94283484
 10
75.13182194
 20
-393.93514538
 10
75.15269841
 20
-393.92857065
 10
75.17419445
 20
-393.92314756
 10
75.19619027
 20
-393.91890651
 10
75.2185618
 20
-393.91587129
 10
75.24118372
 20
-393.91405893
 10
75.26392927
 20
-393.91347959
 10
75.39389201
 20
-393.91438238
 10
75.52382316
 20
-393.91664711
 10
75.65369587
 20
-393.92027333
 10
75.78348267
 20
-393.92526026
 10
75.91315667
 20
-393.93160689
 10
76.04269052
 20
-393.93931186
 10
76.17205734
 20
-393.94837359
 10
76.30123009
 20
-393.95879018
 10
76.43018186
 20
-393.97055943
 10
76.55888589
 20
-393.98367892
 10
76.68731474
 20
-393.99814589
 10
76.81544221
 20
-394.01395733
 10
76.94324125
 20
-394.03110992
 10
77.07068518
 20
-394.04960009
 10
77.19774717
 20
-394.06942398
 10
77.32440127
 20
-394.09057745
 10
77.45062061
 20
-394.11305608
 10
77.57637881
 20
-394.13685518
 10
77.70164976
 20
-394.16196978
 10
77.82640718
 20
-394.18839463
 10
77.95062512
 20
-394.21612422
 10
78.07427777
 20
-394.24515275
  0
LWPOLYLINE
  5
3C0
100
AcDbEntity
  8
Mst 1_1
 62
   137
  6
CONTINUOUS
370
     9
100
AcDbPolyline
 90
       45
 70
     1
 43
0.0
 38
1000.0
 39
-1000.0
 10
74.95932524
 20
-402.11181941
 10
74.95932524
 20
-402.22309
 10
74.96017755
 20
-402.23958537
 10
74.96272945
 20
-402.25598821
 10
74.96696712
 20
-402.27220651
 10
74.97286625
 20
-402.28814933
 10
74.98039405
 20
-402.3037272
 10
74.9895083
 20
-402.31885278
 10
75.00015784
 20
-402.3334412
 10
75.01228292
 20
-402.34741065
 10
75.02581523
 20
-402.36068276
 10
75.04067944
 20
-402.37318309
 10
75.0567919
 20
-402.38484153
 10
75.07406213
 20
-402.39559268
 10
75.09239319
 20
-402.40537623
 10
75.11168279
 20
-402.41413731
 10
75.13182194
 20
-402.42182677
 10
75.15269841
 20
-402.4284015
 10
75.17419445
 20
-402.4338246
 10
75.19619027
 20
-402.43806564
 10
75.2185618
 20
-402.44110087
 10
75.24118372
 20
-402.44291323
 10
75.26392927
 20
-402.44349257
 10
75.39389201
 20
-402.44258978
 10
75.52382316
 20
-402.44032505
 10
75.65369587
 20
-402.43669882
 10
75.78348267
 20
-402.43171189
 10
75.91315667
 20
-402.42536526
 10
76.04269052
 20
-402.4176603
 10
76.17205734
 20
-402.40859856
 10
76.30123009
 20
-402.39818198
 10
76.43018186
 20
-402.38641272
 10
76.55888589
 20
-402.37329323
 10
76.68731474
 20
-402.35882627
 10
76.81544221
 20
-402.34301482
 10
76.94324125
 20
-402.32586223
 10
77.07068518
 20
-402.30737207
 10
77.19774717
 20
-402.28754817
 10
77.32440127
 20
-402.2663947
 10
77.45062061
 20
-402.24391607
 10
77.57637881
 20
-402.22011697
 10
77.70164976
 20
-402.19500237
 10
77.82640718
 20
-402.16857752
 10
77.95062512
 20
-402.14084794
 10
78.07427777
 20
-402.11181941
  0
LWPOLYLINE
  5
3C1
100
AcDbEntity
  8
Mst 1_1
 62
   137
  6
CONTINUOUS
370
     9
100
AcDbPolyline
 90
       45
 70
     1
 43
0.0
 38
1000.0
 39
-1000.0
 10
87.0215017
 20
-402.11181941
 10
87.0215017
 20
-402.22309
 10
87.02235403
 20
-402.23958537
 10
87.02490605
 20
-402.25598821
 10
87.0291436
 20
-402.27220651
 10
87.03504287
 20
-402.28814933
 10
87.04257065
 20
-402.3037272
 10
87.05168493
 20
-402.31885278
 10
87.06233431
 20
-402.3334412
 10
87.07445939
 20
-402.34741065
 10
87.08799187
 20
-402.36068276
 10
87.10285606
 20
-402.37318309
 10
87.11896837
 20
-402.38484153
 10
87.1362386
 20
-402.39559268
 10
87.15456981
 20
-402.40537623
 10
87.17385924
 20
-402.41413731
 10
87.19399857
 20
-402.42182677
 10
87.21487489
 20
-402.4284015
 10
87.23637108
 20
-402.4338246
 10
87.25836673
 20
-402.43806564
 10
87.28073813
 20
-402.44110087
 10
87.30336017
 20
-402.44291323
 10
87.32610577
 20
-402.44349257
 10
87.45606849
 20
-402.44258978
 10
87.5859998
 20
-402.44032505
 10
87.7158725
 20
-402.43669882
 10
87.84565929
 20
-402.43171189
 10
87.97533317
 20
-402.42536526
 10
88.10486697
 20
-402.4176603
 10
88.23423395
 20
-402.40859856
 10
88.36340673
 20
-402.39818198
 10
88.49235846
 20
-402.38641272
 10
88.62106234
 20
-402.37329323
 10
88.74949137
 20
-402.35882627
 10
88.87761869
 20
-402.34301482
 10
89.00541773
 20
-402.32586223
 10
89.13286151
 20
-402.30737207
 10
89.25992377
 20
-402.28754817
 10
89.38657775
 20
-402.2663947
 10
89.51279706
 20
-402.24391607
 10
89.63855528
 20
-402.22011697
 10
89.76382626
 20
-402.19500237
 10
89.88858381
 20
-402.16857752
 10
90.01280172
 20
-402.14084794
 10
90.13645424
 20
-402.11181941
  0
LWPOLYLINE
  5
3C2
100
AcDbEntity
  8
Mst 1_1
 62
   137
  6
CONTINUOUS
370
     9
100
AcDbPolyline
 90
       45
 70
     1
 43
0.0
 38
1000.0
 39
-1000.0
 10
87.0215017
 20
-394.24515275
 10
87.0215017
 20
-394.13388215
 10
87.02235403
 20
-394.11738679
 10
87.02490605
 20
-394.10098395
 10
87.0291436
 20
-394.08476564
 10
87.03504287
 20
-394.06882283
 10
87.04257065
 20
-394.05324495
 10
87.05168493
 20
-394.03811938
 10
87.06233431
 20
-394.02353096
 10
87.07445939
 20
-394.00956151
 10
87.08799187
 20
-393.9962894
 10
87.10285606
 20
-393.98378907
 10
87.11896837
 20
-393.97213062
 10
87.1362386
 20
-393.96137948
 10
87.15456981
 20
-393.95159593
 10
87.17385924
 20
-393.94283484
 10
87.19399857
 20
-393.93514538
 10
87.21487489
 20
-393.92857065
 10
87.23637108
 20
-393.92314756
 10
87.25836673
 20
-393.91890651
 10
87.28073813
 20
-393.91587129
 10
87.30336017
 20
-393.91405893
 10
87.32610577
 20
-393.91347959
 10
87.45606849
 20
-393.91438238
 10
87.5859998
 20
-393.91664711
 10
87.7158725
 20
-393.92027333
 10
87.84565929
 20
-393.92526026
 10
87.97533317
 20
-393.93160689
 10
88.10486697
 20
-393.93931186
 10
88.23423395
 20
-393.94837359
 10
88.36340673
 20
-393.95879018
 10
88.49235846
 20
-393.97055943
 10
88.62106234
 20
-393.98367892
 10
88.74949137
 20
-393.99814589
 10
88.87761869
 20
-394.01395733
 10
89.00541773
 20
-394.03110992
 10
89.13286151
 20
-394.04960009
 10
89.25992377
 20
-394.06942398
 10
89.38657775
 20
-394.09057745
 10
89.51279706
 20
-394.11305608
 10
89.63855528
 20
-394.13685518
 10
89.76382626
 20
-394.16196978
 10
89.88858381
 20
-394.18839463
 10
90.01280172
 20
-394.21612422
 10
90.13645424
 20
-394.24515275
  0
LWPOLYLINE
  5
3C3
100
AcDbEntity
  8
Mst 1_1
 62
   137
  6
CONTINUOUS
370
    15
100
AcDbPolyline
 90
       46
 70
     0
 43
0.0
 10
95.34154156
 20
-394.24515275
 10
97.54760218
 20
-394.24515275
 10
97.63003174
 20
-394.24888102
 10
97.71200031
 20
-394.26004498
 10
97.7930495
 20
-394.2785822
 10
97.87272607
 20
-394.304389
 10
97.9505844
 20
-394.33732108
 10
98.02618909
 20
-394.37719425
 10
98.09911733
 20
-394.42378554
 10
98.16896127
 20
-394.47683438
 10
98.23533033
 20
-394.5360441
 10
98.29785332
 20
-394.60108358
 10
98.35618061
 20
-394.67158909
 10
98.40998599
 20
-394.74716634
 10
98.45896858
 20
-394.82739267
 10
98.50285444
 20
-394.91181941
 10
98.54139814
 20
-394.99997443
 10
98.57438413
 20
-395.09136471
 10
98.60162794
 20
-395.18547918
 10
98.62297721
 20
-395.2817915
 10
98.63831255
 20
-395.37976306
 10
98.64754819
 20
-395.47884595
 10
98.65063248
 20
-395.57848608
 10
98.65063248
 20
-400.77848608
 10
98.64754819
 20
-400.8781262
 10
98.63831255
 20
-400.9772091
 10
98.62297721
 20
-401.07518065
 10
98.60162794
 20
-401.17149298
 10
98.57438413
 20
-401.26560744
 10
98.54139814
 20
-401.35699773
 10
98.50285444
 20
-401.44515274
 10
98.45896858
 20
-401.52957949
 10
98.40998599
 20
-401.60980581
 10
98.35618061
 20
-401.68538306
 10
98.29785332
 20
-401.75588857
 10
98.23533033
 20
-401.82092805
 10
98.16896127
 20
-401.88013777
 10
98.09911733
 20
-401.93318661
 10
98.02618909
 20
-401.9797779
 10
97.9505844
 20
-402.01965107
 10
97.87272607
 20
-402.05258315
 10
97.7930495
 20
-402.07838996
 10
97.71200031
 20
-402.09692718
 10
97.63003174
 20
-402.10809114
 10
97.54760218
 20
-402.11181941
 10
95.34154156
 20
-402.11181941
  0
LWPOLYLINE
  5
3C4
100
AcDbEntity
  8
Mst 1_1
 62
   137
  6
CONTINUOUS
370
    15
100
AcDbPolyline
 90
       46
 70
     0
 43
0.0
 10
83.27936494
 20
-394.24515275
 10
85.48542565
 20
-394.24515275
 10
85.56785525
 20
-394.24888102
 10
85.64982382
 20
-394.26004498
 10
85.73087297
 20
-394.2785822
 10
85.8105495
 20
-394.304389
 10
85.88840785
 20
-394.33732108
 10
85.96401263
 20
-394.37719425
 10
86.03694076
 20
-394.42378554
 10
86.10678467
 20
-394.47683438
 10
86.17315379
 20
-394.5360441
 10
86.23567686
 20
-394.60108358
 10
86.29400405
 20
-394.67158909
 10
86.34780942
 20
-394.74716634
 10
86.39679199
 20
-394.82739267
 10
86.44067796
 20
-394.91181941
 10
86.47922159
 20
-394.99997443
 10
86.5122076
 20
-395.09136471
 10
86.53945137
 20
-395.18547918
 10
86.56080069
 20
-395.2817915
 10
86.57613597
 20
-395.37976306
 10
86.58537165
 20
-395.47884595
 10
86.58845601
 20
-395.57848608
 10
86.58845601
 20
-400.77848608
 10
86.58537165
 20
-400.8781262
 10
86.57613597
 20
-400.9772091
 10
86.56080069
 20
-401.07518065
 10
86.53945137
 20
-401.17149298
 10
86.5122076
 20
-401.26560744
 10
86.47922159
 20
-401.35699773
 10
86.44067796
 20
-401.44515274
 10
86.39679199
 20
-401.52957949
 10
86.34780942
 20
-401.60980581
 10
86.29400405
 20
-401.68538306
 10
86.23567686
 20
-401.75588857
 10
86.17315379
 20
-401.82092805
 10
86.10678467
 20
-401.88013777
 10
86.03694076
 20
-401.93318661
 10
85.96401263
 20
-401.9797779
 10
85.88840785
 20
-402.01965107
 10
85.8105495
 20
-402.05258315
 10
85.73087297
 20
-402.07838996
 10
85.64982382
 20
-402.09692718
 10
85.56785525
 20
-402.10809114
 10
85.48542565
 20
-402.11181941
 10
83.27936494
 20
-402.11181941
  0
LINE
  5
3C5
100
AcDbEntity
  8
Mst 1_1
 62
   137
370
    15
100
AcDbLine
 10
51.65063248
 20
-393.17848608
 30
100.0
 11
53.65063248
 21
-394.17848608
 31
100.0
  0
LINE
  5
3C6
100
AcDbEntity
  8
Mst 1_1
 62
   137
370
    15
100
AcDbLine
 10
51.65063248
 20
-403.17848608
 30
100.0
 11
51.65063248
 21
-393.17848608
 31
100.0
  0
LINE
  5
3C7
100
AcDbEntity
  8
Mst 1_1
 62
   137
370
    15
100
AcDbLine
 10
51.65063248
 20
-403.17848608
 30
100.0
 11
53.65063248
 21
-402.17848608
 31
100.0
  0
LINE
  5
3C8
100
AcDbEntity
  8
Mst 1_1
 62
   137
370
    15
100
AcDbLine
 10
51.65063248
 20
-393.17848608
 30
100.0
 11
-321.34936752
 21
-393.17848608
 31
100.0
  0
LINE
  5
3C9
100
AcDbEntity
  8
Mst 1_1
 62
   137
370
    15
100
AcDbLine
 10
51.65063248
 20
-403.17848608
 30
100.0
 11
-321.34936752
 21
-403.17848608
 31
100.0
  0
LINE
  5
3CA
100
AcDbEntity
  8
Mst 1_1
 62
   137
370
    15
100
AcDbLine
 10
-321.34936752
 20
-393.17848608
 30
100.0
 11
-321.34936752
 21
-403.17848608
 31
100.0
  0
LWPOLYLINE
  5
3CB
100
AcDbEntity
  8
Mst 1_1
 62
   137
370
    15
100
AcDbPolyline
 90
        5
 70
     0
 43
0.0
 38
100.0
 10
-314.34936752
 20
-395.17848608
 10
-371.84936752
 20
-395.17848608
 10
-371.84936752
 20
-401.17848608
 10
-314.34936752
 20
-401.17848608
 10
-314.34936752
 20
-395.17848608
  0
LWPOLYLINE
  5
3CC
100
AcDbEntity
  8
Mst 1_1
 62
   137
370
    15
100
AcDbPolyline
 90
        4
 70
     0
 43
0.0
 38
100.0
 10
-314.34936752
 20
-395.17848608
 10
-313.34936752
 20
-396.17848608
 10
-313.34936752
 20
-400.17848608
 10
-314.34936752
 20
-401.17848608
  0
LINE
  5
3CD
100
AcDbEntity
  8
Mst 1_1
 62
   137
370
    15
100
AcDbLine
 10
-313.34936752
 20
-396.17848608
 30
100.0
 11
-371.84936752
 21
-396.17848608
 31
100.0
  0
LINE
  5
3CE
100
AcDbEntity
  8
Mst 1_1
 62
   137
370
    15
100
AcDbLine
 10
-313.34936752
 20
-400.17848608
 30
100.0
 11
-371.84936752
 21
-400.17848608
 31
100.0
  0
LWPOLYLINE
  5
3CF
100
AcDbEntity
  8
Mst 1_1
 62
   137
370
    15
100
AcDbPolyline
 90
        6
 70
     0
 43
0.0
 38
100.0
 10
-373.34936752
 20
-395.17848608
 10
-373.34936752
 20
-389.17848608
 10
-371.84936752
 20
-389.17848608
 10
-371.84936752
 20
-407.17848608
 10
-373.34936752
 20
-407.17848608
 10
-373.34936752
 20
-395.17848608
  0
LWPOLYLINE
  5
3D0
100
AcDbEntity
  8
Mst 1_1
 62
   137
370
    15
100
AcDbPolyline
 90
        5
 70
     0
 43
0.0
 38
100.0
 10
-373.34936752
 20
-391.37848608
 10
-374.34936752
 20
-391.37848608
 10
-374.34936752
 20
-404.97848608
 10
-373.34936752
 20
-404.97848608
 10
-373.34936752
 20
-391.37848608
  0
LWPOLYLINE
  5
3D1
100
AcDbEntity
  8
Mst 1_1
 62
   137
370
    15
100
AcDbPolyline
 90
        5
 70
     0
 43
0.0
 38
100.0
 10
-374.34936752
 20
-393.32848608
 10
-375.64936752
 20
-395.02848608
 10
-375.64936752
 20
-401.32848608
 10
-374.34936752
 20
-403.02848608
 10
-374.34936752
 20
-393.32848608
  0
CIRCLE
  5
3D2
100
AcDbEntity
  8
Mst 1_1
 62
   137
  6
CONTINUOUS
370
     9
100
AcDbCircle
 10
-436.9250338
 20
-398.17848608
 30
0.0
 40
1.88177431
  0
CIRCLE
  5
3D3
100
AcDbEntity
  8
Mst 1_1
 62
   137
  6
CONTINUOUS
370
     9
100
AcDbCircle
 10
-436.9250338
 20
-398.17848608
 30
0.0
 40
1.88177431
  0
CIRCLE
  5
3D4
100
AcDbEntity
  8
Mst 1_1
 62
   137
  6
CONTINUOUS
370
     9
100
AcDbCircle
 10
-436.9250338
 20
-398.17848608
 30
0.0
 40
1.88177431
  0
CIRCLE
  5
3D5
100
AcDbEntity
  8
Mst 1_1
 62
   137
  6
CONTINUOUS
370
     9
100
AcDbCircle
 10
-436.9250338
 20
-398.17848608
 30
0.0
 40
2.97217223
  0
CIRCLE
  5
3D6
100
AcDbEntity
  8
Mst 1_1
 62
   137
  6
CONTINUOUS
370
     9
100
AcDbCircle
 10
-436.9250338
 20
-398.17848608
 30
0.0
 40
4.56609304
  0
CIRCLE
  5
3D7
100
AcDbEntity
  8
Mst 1_1
 62
   137
  6
CONTINUOUS
370
     9
100
AcDbCircle
 10
-436.9250338
 20
-398.17848608
 30
0.0
 40
1.9962351
  0
CIRCLE
  5
3D8
100
AcDbEntity
  8
Mst 1_1
 62
   137
  6
CONTINUOUS
370
     9
100
AcDbCircle
 10
-436.9250338
 20
-398.17848608
 30
0.0
 40
8.74999999
  0
ARC
  5
3D9
100
AcDbEntity
  8
Mst 1_1
 62
   137
  6
CONTINUOUS
370
    15
100
AcDbCircle
 10
-439.35955338
 20
-398.17848608
 30
0.0
 40
0.53765266
100
AcDbArc
 50
104.00039951
 51
255.99961051
  0
ARC
  5
3DA
100
AcDbEntity
  8
Mst 1_1
 62
   137
  6
CONTINUOUS
370
    15
100
AcDbCircle
 10
-439.76894583
 20
-399.8204195
 30
0.0
 40
1.15454932
100
AcDbArc
 50
344.00042282
 51
75.99958535
  0
ARC
  5
3DB
100
AcDbEntity
  8
Mst 1_1
 62
   137
  6
CONTINUOUS
370
    15
100
AcDbCircle
 10
-438.14229355
 20
-400.28684189
 30
0.0
 40
0.53765264
100
AcDbArc
 50
164.00040911
 51
315.99959504
  0
ARC
  5
3DC
100
AcDbEntity
  8
Mst 1_1
 62
   137
  6
CONTINUOUS
370
    15
100
AcDbCircle
 10
-436.9250338
 20
-401.4623527
 30
0.0
 40
1.15454918
100
AcDbArc
 50
44.00040429
 51
135.99959571
  0
ARC
  5
3DD
100
AcDbEntity
  8
Mst 1_1
 62
   137
  6
CONTINUOUS
370
    15
100
AcDbCircle
 10
-435.707774
 20
-400.28684197
 30
0.0
 40
0.53765261
100
AcDbArc
 50
224.00041508
 51
15.9996008
  0
ARC
  5
3DE
100
AcDbEntity
  8
Mst 1_1
 62
   137
  6
CONTINUOUS
370
    15
100
AcDbCircle
 10
-434.49051422
 20
-398.17848608
 30
0.0
 40
0.53765266
100
AcDbArc
 50
284.00040953
 51
75.99960049
  0
ARC
  5
3DF
100
AcDbEntity
  8
Mst 1_1
 62
   137
  6
CONTINUOUS
370
    15
100
AcDbCircle
 10
-434.08112177
 20
-396.53655266
 30
0.0
 40
1.15454932
100
AcDbArc
 50
164.00041281
 51
255.99959537
  0
ARC
  5
3E0
100
AcDbEntity
  8
Mst 1_1
 62
   137
  6
CONTINUOUS
370
    15
100
AcDbCircle
 10
-435.70777405
 20
-396.07013027
 30
0.0
 40
0.53765264
100
AcDbArc
 50
344.00041913
 51
135.99958502
  0
ARC
  5
3E1
100
AcDbEntity
  8
Mst 1_1
 62
   137
  6
CONTINUOUS
370
    15
100
AcDbCircle
 10
-436.9250338
 20
-394.89461945
 30
0.0
 40
1.15454918
100
AcDbArc
 50
224.00041431
 51
315.99960573
  0
ARC
  5
3E2
100
AcDbEntity
  8
Mst 1_1
 62
   137
  6
CONTINUOUS
370
    15
100
AcDbCircle
 10
-438.1422936
 20
-396.07013019
 30
0.0
 40
0.53765261
100
AcDbArc
 50
44.00040506
 51
195.99961082
  0
ARC
  5
3E3
100
AcDbEntity
  8
Mst 1_1
 62
   137
  6
CONTINUOUS
370
    15
100
AcDbCircle
 10
-439.76894583
 20
-396.53655266
 30
0.0
 40
1.15454932
100
AcDbArc
 50
284.00042461
 51
15.99958726
  0
CIRCLE
  5
3E4
100
AcDbEntity
  8
Mst 1_1
 62
   137
  6
CONTINUOUS
370
     9
100
AcDbCircle
 10
-436.9250338
 20
-398.17848608
 30
0.0
 40
6.8
  0
ARC
  5
3E5
100
AcDbEntity
  8
Mst 1_1
 62
   137
  6
CONTINUOUS
370
    15
100
AcDbCircle
 10
-434.08112177
 20
-399.8204195
 30
0.0
 40
1.15454932
100
AcDbArc
 50
104.00041459
 51
195.99959727
  0
LINE
  5
3E6
100
AcDbEntity
  8
Mst 1_1
 62
     7
  6
DASHED
370
    -3
100
AcDbLine
 10
98.57438413
 20
-378.17848608
 30
0.0
 11
98.57438413
 21
-413.17848608
 31
0.0
  0
LINE
  5
3E7
100
AcDbEntity
  8
Mst 1_1
 62
   137
370
    15
100
AcDbLine
 10
106.91889535
 20
-424.17848608
 30
0.0
 11
106.91889535
 21
-432.17848608
 31
0.0
  0
LINE
  5
3E8
100
AcDbEntity
  8
Mst 1_1
 62
   137
370
    15
100
AcDbLine
 10
106.91889535
 20
-424.89415275
 30
0.0
 11
106.91889535
 21
-431.46281941
 31
0.0
  0
LINE
  5
3E9
100
AcDbEntity
  8
Mst 1_1
 62
   137
370
    15
100
AcDbLine
 10
106.91889535
 20
-432.17848608
 30
0.0
 11
93.65063248
 21
-432.17848608
 31
0.0
  0
LINE
  5
3EA
100
AcDbEntity
  8
Mst 1_1
 62
   137
370
    15
100
AcDbLine
 10
106.91889535
 20
-431.79948608
 30
0.0
 11
93.65063248
 21
-431.79948608
 31
0.0
  0
LINE
  5
3EB
100
AcDbEntity
  8
Mst 1_1
 62
   137
370
    15
100
AcDbLine
 10
106.91889535
 20
-424.17848608
 30
0.0
 11
93.65063248
 21
-424.17848608
 31
0.0
  0
LINE
  5
3EC
100
AcDbEntity
  8
Mst 1_1
 62
   137
370
    15
100
AcDbLine
 10
106.91889535
 20
-424.55748608
 30
0.0
 11
93.65063248
 21
-424.55748608
 31
0.0
  0
LINE
  5
3ED
100
AcDbEntity
  8
Mst 1_1
 62
   137
370
    15
100
AcDbLine
 10
107.65063248
 20
-424.55748608
 30
0.0
 11
107.65063248
 21
-431.79948608
 31
0.0
  0
LINE
  5
3EE
100
AcDbEntity
  8
Mst 1_1
 62
     1
  6
CADWORK_8
370
    15
100
AcDbLine
 10
151.65063248
 20
-428.17848608
 30
0.0
 11
-380.64936752
 21
-428.17848608
 31
0.0
  0
LWPOLYLINE
  5
3EF
100
AcDbEntity
  8
Mst 1_1
 62
     7
  6
CONTINUOUS
370
    -3
100
AcDbPolyline
 90
        7
 70
     0
 43
0.0
 10
93.65063248
 20
-442.27848608
 10
93.65063248
 20
-432.27848608
 10
144.28349638
 20
-432.27848608
 10
146.65063248
 20
-428.17848608
 10
144.28349638
 20
-424.07848608
 10
93.65063248
 20
-424.07848608
 10
93.65063248
 20
-414.07848608
  0
LINE
  5
3F0
100
AcDbEntity
  8
Mst 1_1
 62
     1
  6
CADWORK_8
370
    15
100
AcDbLine
 10
93.65063248
 20
-424.17848608
 30
0.0
 11
93.65063248
 21
-432.17848608
 31
0.0
  0
LWPOLYLINE
  5
3F1
100
AcDbEntity
  8
Mst 1_1
 62
   137
  6
CONTINUOUS
370
    15
100
AcDbPolyline
 90
        3
 70
     0
 43
0.0
 10
106.91889535
 20
-424.17848608
 10
107.65063248
 20
-424.55748608
 10
108.31729915
 20
-424.55748608
  0
LWPOLYLINE
  5
3F2
100
AcDbEntity
  8
Mst 1_1
 62
   137
  6
CONTINUOUS
370
    15
100
AcDbPolyline
 90
        3
 70
     0
 43
0.0
 10
106.91889535
 20
-432.17848608
 10
107.65063248
 20
-431.79948608
 10
108.31729915
 20
-431.79948608
  0
LINE
  5
3F3
100
AcDbEntity
  8
Mst 1_1
 62
   137
370
    15
100
AcDbLine
 10
108.31729915
 20
-424.17848608
 30
0.0
 11
114.52489977
 21
-424.17848608
 31
0.0
  0
LINE
  5
3F4
100
AcDbEntity
  8
Mst 1_1
 62
   137
370
    15
100
AcDbLine
 10
108.31729915
 20
-432.17848608
 30
0.0
 11
114.52489977
 21
-432.17848608
 31
0.0
  0
LINE
  5
3F5
100
AcDbEntity
  8
Mst 1_1
 62
   137
370
    15
100
AcDbLine
 10
132.6873749
 20
-424.84003415
 30
0.0
 11
135.34154156
 21
-424.24515275
 31
0.0
  0
LINE
  5
3F6
100
AcDbEntity
  8
Mst 1_1
 62
   137
370
    15
100
AcDbLine
 10
132.6873749
 20
-431.516938
 30
0.0
 11
135.34154156
 21
-432.11181941
 31
0.0
  0
LINE
  5
3F7
100
AcDbEntity
  8
Mst 1_1
 62
   137
370
    15
100
AcDbLine
 10
137.64578322
 20
-424.24515275
 30
0.0
 11
137.64578322
 21
-432.11181941
 31
0.0
  0
LINE
  5
3F8
100
AcDbEntity
  8
Mst 1_1
 62
   137
370
    15
100
AcDbLine
 10
135.34154156
 20
-424.24515275
 30
0.0
 11
135.34154156
 21
-432.11181941
 31
0.0
  0
LINE
  5
3F9
100
AcDbEntity
  8
Mst 1_1
 62
   137
370
    15
100
AcDbLine
 10
108.31729915
 20
-424.17848608
 30
0.0
 11
108.31729915
 21
-432.17848608
 31
0.0
  0
3DFACE
  5
3FA
100
AcDbEntity
  8
Mst 1_1
 62
   137
  6
CONTINUOUS
370
     9
100
AcDbFace
 70
     0
 10
132.6873749
 20
-427.84515274
 30
1000.0
 11
132.6873749
 21
-424.24515275
 31
1000.0
 12
127.0215017
 22
-424.24515275
 32
1000.0
 13
127.0215017
 23
-427.84515274
 33
1000.0
  0
3DFACE
  5
3FB
100
AcDbEntity
  8
Mst 1_1
 62
   137
  6
CONTINUOUS
370
     9
100
AcDbFace
 70
     0
 10
132.6873749
 20
-428.51181941
 30
1000.0
 11
132.6873749
 21
-432.11181941
 31
1000.0
 12
127.0215017
 22
-432.11181941
 32
1000.0
 13
127.0215017
 23
-428.51181941
 33
1000.0
  0
LINE
  5
3FC
100
AcDbEntity
  8
Mst 1_1
 62
   137
370
    15
100
AcDbLine
 10
120.62519833
 20
-424.84003415
 30
0.0
 11
123.27936494
 21
-424.24515275
 31
0.0
  0
LINE
  5
3FD
100
AcDbEntity
  8
Mst 1_1
 62
   137
370
    15
100
AcDbLine
 10
120.62519833
 20
-431.516938
 30
0.0
 11
123.27936494
 21
-432.11181941
 31
0.0
  0
LINE
  5
3FE
100
AcDbEntity
  8
Mst 1_1
 62
   137
370
    15
100
AcDbLine
 10
125.58360674
 20
-424.24515275
 30
0.0
 11
125.58360674
 21
-432.11181941
 31
0.0
  0
LINE
  5
3FF
100
AcDbEntity
  8
Mst 1_1
 62
   137
370
    15
100
AcDbLine
 10
123.27936494
 20
-424.24515275
 30
0.0
 11
123.27936494
 21
-432.11181941
 31
0.0
  0
3DFACE
  5
400
100
AcDbEntity
  8
Mst 1_1
 62
   137
  6
CONTINUOUS
370
     9
100
AcDbFace
 70
     0
 10
120.62519833
 20
-427.84515274
 30
1000.0
 11
120.62519833
 21
-424.24515275
 31
1000.0
 12
114.95932524
 22
-424.24515275
 32
1000.0
 13
114.95932524
 23
-427.84515274
 33
1000.0
  0
3DFACE
  5
401
100
AcDbEntity
  8
Mst 1_1
 62
   137
  6
CONTINUOUS
370
     9
100
AcDbFace
 70
     0
 10
120.62519833
 20
-428.51181941
 30
1000.0
 11
120.62519833
 21
-432.11181941
 31
1000.0
 12
114.95932524
 22
-432.11181941
 32
1000.0
 13
114.95932524
 23
-428.51181941
 33
1000.0
  0
LINE
  5
402
100
AcDbEntity
  8
Mst 1_1
 62
   137
  6
CONTINUOUS
370
    15
100
AcDbLine
 10
127.0215017
 20
-425.51181941
 30
1000.0
 11
126.58707626
 21
-425.51181941
 31
1000.0
  0
LINE
  5
403
100
AcDbEntity
  8
Mst 1_1
 62
   137
  6
CONTINUOUS
370
    15
100
AcDbLine
 10
127.0215017
 20
-430.84515274
 30
1000.0
 11
126.58707626
 21
-430.84515274
 31
1000.0
  0
LINE
  5
404
100
AcDbEntity
  8
Mst 1_1
 62
   137
  6
CONTINUOUS
370
    15
100
AcDbLine
 10
114.95932524
 20
-425.51181941
 30
1000.0
 11
114.52489977
 21
-425.51181941
 31
1000.0
  0
LINE
  5
405
100
AcDbEntity
  8
Mst 1_1
 62
   137
  6
CONTINUOUS
370
    15
100
AcDbLine
 10
114.95932524
 20
-430.84515274
 30
1000.0
 11
114.52489977
 21
-430.84515274
 31
1000.0
  0
LINE
  5
406
100
AcDbEntity
  8
Mst 1_1
 62
   137
  6
CONTINUOUS
370
    15
100
AcDbLine
 10
114.52489977
 20
-424.17848608
 30
1000.0
 11
114.52489977
 21
-432.17848608
 31
1000.0
  0
LWPOLYLINE
  5
407
100
AcDbEntity
  8
Mst 1_1
 62
   137
  6
CONTINUOUS
370
     9
100
AcDbPolyline
 90
       45
 70
     1
 43
0.0
 38
1000.0
 39
-1000.0
 10
114.95932524
 20
-424.24515275
 10
114.95932524
 20
-424.13388215
 10
114.96017755
 20
-424.11738679
 10
114.96272945
 20
-424.10098395
 10
114.96696712
 20
-424.08476564
 10
114.97286625
 20
-424.06882283
 10
114.98039405
 20
-424.05324495
 10
114.9895083
 20
-424.03811938
 10
115.00015784
 20
-424.02353096
 10
115.01228292
 20
-424.00956151
 10
115.02581523
 20
-423.9962894
 10
115.04067944
 20
-423.98378907
 10
115.0567919
 20
-423.97213062
 10
115.07406213
 20
-423.96137948
 10
115.09239319
 20
-423.95159593
 10
115.11168279
 20
-423.94283484
 10
115.13182194
 20
-423.93514538
 10
115.15269841
 20
-423.92857065
 10
115.17419445
 20
-423.92314756
 10
115.19619027
 20
-423.91890651
 10
115.2185618
 20
-423.91587129
 10
115.24118372
 20
-423.91405893
 10
115.26392927
 20
-423.91347959
 10
115.39389201
 20
-423.91438238
 10
115.52382316
 20
-423.91664711
 10
115.65369587
 20
-423.92027333
 10
115.78348267
 20
-423.92526026
 10
115.91315667
 20
-423.93160689
 10
116.04269052
 20
-423.93931186
 10
116.17205734
 20
-423.94837359
 10
116.30123009
 20
-423.95879018
 10
116.43018186
 20
-423.97055943
 10
116.55888589
 20
-423.98367892
 10
116.68731474
 20
-423.99814589
 10
116.81544221
 20
-424.01395733
 10
116.94324125
 20
-424.03110992
 10
117.07068518
 20
-424.04960009
 10
117.19774717
 20
-424.06942398
 10
117.32440127
 20
-424.09057745
 10
117.45062061
 20
-424.11305608
 10
117.57637881
 20
-424.13685518
 10
117.70164976
 20
-424.16196978
 10
117.82640718
 20
-424.18839463
 10
117.95062512
 20
-424.21612422
 10
118.07427777
 20
-424.24515275
  0
LWPOLYLINE
  5
408
100
AcDbEntity
  8
Mst 1_1
 62
   137
  6
CONTINUOUS
370
     9
100
AcDbPolyline
 90
       45
 70
     1
 43
0.0
 38
1000.0
 39
-1000.0
 10
114.95932524
 20
-432.11181941
 10
114.95932524
 20
-432.22309
 10
114.96017755
 20
-432.23958537
 10
114.96272945
 20
-432.25598821
 10
114.96696712
 20
-432.27220651
 10
114.97286625
 20
-432.28814933
 10
114.98039405
 20
-432.3037272
 10
114.9895083
 20
-432.31885278
 10
115.00015784
 20
-432.3334412
 10
115.01228292
 20
-432.34741065
 10
115.02581523
 20
-432.36068276
 10
115.04067944
 20
-432.37318309
 10
115.0567919
 20
-432.38484153
 10
115.07406213
 20
-432.39559268
 10
115.09239319
 20
-432.40537623
 10
115.11168279
 20
-432.41413731
 10
115.13182194
 20
-432.42182677
 10
115.15269841
 20
-432.4284015
 10
115.17419445
 20
-432.4338246
 10
115.19619027
 20
-432.43806564
 10
115.2185618
 20
-432.44110087
 10
115.24118372
 20
-432.44291323
 10
115.26392927
 20
-432.44349257
 10
115.39389201
 20
-432.44258978
 10
115.52382316
 20
-432.44032505
 10
115.65369587
 20
-432.43669882
 10
115.78348267
 20
-432.43171189
 10
115.91315667
 20
-432.42536526
 10
116.04269052
 20
-432.4176603
 10
116.17205734
 20
-432.40859856
 10
116.30123009
 20
-432.39818198
 10
116.43018186
 20
-432.38641272
 10
116.55888589
 20
-432.37329323
 10
116.68731474
 20
-432.35882627
 10
116.81544221
 20
-432.34301482
 10
116.94324125
 20
-432.32586223
 10
117.07068518
 20
-432.30737207
 10
117.19774717
 20
-432.28754817
 10
117.32440127
 20
-432.2663947
 10
117.45062061
 20
-432.24391607
 10
117.57637881
 20
-432.22011697
 10
117.70164976
 20
-432.19500237
 10
117.82640718
 20
-432.16857752
 10
117.95062512
 20
-432.14084794
 10
118.07427777
 20
-432.11181941
  0
LWPOLYLINE
  5
409
100
AcDbEntity
  8
Mst 1_1
 62
   137
  6
CONTINUOUS
370
     9
100
AcDbPolyline
 90
       45
 70
     1
 43
0.0
 38
1000.0
 39
-1000.0
 10
127.0215017
 20
-432.11181941
 10
127.0215017
 20
-432.22309
 10
127.02235403
 20
-432.23958537
 10
127.02490605
 20
-432.25598821
 10
127.0291436
 20
-432.27220651
 10
127.03504287
 20
-432.28814933
 10
127.04257065
 20
-432.3037272
 10
127.05168493
 20
-432.31885278
 10
127.06233431
 20
-432.3334412
 10
127.07445939
 20
-432.34741065
 10
127.08799187
 20
-432.36068276
 10
127.10285606
 20
-432.37318309
 10
127.11896837
 20
-432.38484153
 10
127.1362386
 20
-432.39559268
 10
127.15456981
 20
-432.40537623
 10
127.17385924
 20
-432.41413731
 10
127.19399857
 20
-432.42182677
 10
127.21487489
 20
-432.4284015
 10
127.23637108
 20
-432.4338246
 10
127.25836673
 20
-432.43806564
 10
127.28073813
 20
-432.44110087
 10
127.30336017
 20
-432.44291323
 10
127.32610577
 20
-432.44349257
 10
127.45606849
 20
-432.44258978
 10
127.5859998
 20
-432.44032505
 10
127.7158725
 20
-432.43669882
 10
127.84565929
 20
-432.43171189
 10
127.97533317
 20
-432.42536526
 10
128.10486697
 20
-432.4176603
 10
128.23423395
 20
-432.40859856
 10
128.36340673
 20
-432.39818198
 10
128.49235846
 20
-432.38641272
 10
128.62106234
 20
-432.37329323
 10
128.74949137
 20
-432.35882627
 10
128.87761869
 20
-432.34301482
 10
129.00541773
 20
-432.32586223
 10
129.13286151
 20
-432.30737207
 10
129.25992377
 20
-432.28754817
 10
129.38657775
 20
-432.2663947
 10
129.51279706
 20
-432.24391607
 10
129.63855528
 20
-432.22011697
 10
129.76382626
 20
-432.19500237
 10
129.88858381
 20
-432.16857752
 10
130.01280172
 20
-432.14084794
 10
130.13645424
 20
-432.11181941
  0
LWPOLYLINE
  5
40A
100
AcDbEntity
  8
Mst 1_1
 62
   137
  6
CONTINUOUS
370
     9
100
AcDbPolyline
 90
       45
 70
     1
 43
0.0
 38
1000.0
 39
-1000.0
 10
127.0215017
 20
-424.24515275
 10
127.0215017
 20
-424.13388215
 10
127.02235403
 20
-424.11738679
 10
127.02490605
 20
-424.10098395
 10
127.0291436
 20
-424.08476564
 10
127.03504287
 20
-424.06882283
 10
127.04257065
 20
-424.05324495
 10
127.05168493
 20
-424.03811938
 10
127.06233431
 20
-424.02353096
 10
127.07445939
 20
-424.00956151
 10
127.08799187
 20
-423.9962894
 10
127.10285606
 20
-423.98378907
 10
127.11896837
 20
-423.97213062
 10
127.1362386
 20
-423.96137948
 10
127.15456981
 20
-423.95159593
 10
127.17385924
 20
-423.94283484
 10
127.19399857
 20
-423.93514538
 10
127.21487489
 20
-423.92857065
 10
127.23637108
 20
-423.92314756
 10
127.25836673
 20
-423.91890651
 10
127.28073813
 20
-423.91587129
 10
127.30336017
 20
-423.91405893
 10
127.32610577
 20
-423.91347959
 10
127.45606849
 20
-423.91438238
 10
127.5859998
 20
-423.91664711
 10
127.7158725
 20
-423.92027333
 10
127.84565929
 20
-423.92526026
 10
127.97533317
 20
-423.93160689
 10
128.10486697
 20
-423.93931186
 10
128.23423395
 20
-423.94837359
 10
128.36340673
 20
-423.95879018
 10
128.49235846
 20
-423.97055943
 10
128.62106234
 20
-423.98367892
 10
128.74949137
 20
-423.99814589
 10
128.87761869
 20
-424.01395733
 10
129.00541773
 20
-424.03110992
 10
129.13286151
 20
-424.04960009
 10
129.25992377
 20
-424.06942398
 10
129.38657775
 20
-424.09057745
 10
129.51279706
 20
-424.11305608
 10
129.63855528
 20
-424.13685518
 10
129.76382626
 20
-424.16196978
 10
129.88858381
 20
-424.18839463
 10
130.01280172
 20
-424.21612422
 10
130.13645424
 20
-424.24515275
  0
LWPOLYLINE
  5
40B
100
AcDbEntity
  8
Mst 1_1
 62
   137
  6
CONTINUOUS
370
    15
100
AcDbPolyline
 90
       46
 70
     0
 43
0.0
 10
135.34154156
 20
-424.24515275
 10
137.54760218
 20
-424.24515275
 10
137.63003174
 20
-424.24888102
 10
137.71200031
 20
-424.26004498
 10
137.7930495
 20
-424.2785822
 10
137.87272607
 20
-424.304389
 10
137.9505844
 20
-424.33732108
 10
138.02618909
 20
-424.37719425
 10
138.09911733
 20
-424.42378554
 10
138.16896127
 20
-424.47683438
 10
138.23533033
 20
-424.5360441
 10
138.29785332
 20
-424.60108358
 10
138.35618061
 20
-424.67158909
 10
138.40998599
 20
-424.74716634
 10
138.45896858
 20
-424.82739267
 10
138.50285444
 20
-424.91181941
 10
138.54139814
 20
-424.99997443
 10
138.57438413
 20
-425.09136471
 10
138.60162794
 20
-425.18547918
 10
138.62297721
 20
-425.2817915
 10
138.63831255
 20
-425.37976306
 10
138.64754819
 20
-425.47884595
 10
138.65063248
 20
-425.57848608
 10
138.65063248
 20
-430.77848608
 10
138.64754819
 20
-430.8781262
 10
138.63831255
 20
-430.9772091
 10
138.62297721
 20
-431.07518065
 10
138.60162794
 20
-431.17149298
 10
138.57438413
 20
-431.26560744
 10
138.54139814
 20
-431.35699773
 10
138.50285444
 20
-431.44515274
 10
138.45896858
 20
-431.52957949
 10
138.40998599
 20
-431.60980581
 10
138.35618061
 20
-431.68538306
 10
138.29785332
 20
-431.75588857
 10
138.23533033
 20
-431.82092805
 10
138.16896127
 20
-431.88013777
 10
138.09911733
 20
-431.93318661
 10
138.02618909
 20
-431.9797779
 10
137.9505844
 20
-432.01965107
 10
137.87272607
 20
-432.05258315
 10
137.7930495
 20
-432.07838996
 10
137.71200031
 20
-432.09692718
 10
137.63003174
 20
-432.10809114
 10
137.54760218
 20
-432.11181941
 10
135.34154156
 20
-432.11181941
  0
LWPOLYLINE
  5
40C
100
AcDbEntity
  8
Mst 1_1
 62
   137
  6
CONTINUOUS
370
    15
100
AcDbPolyline
 90
       46
 70
     0
 43
0.0
 10
123.27936494
 20
-424.24515275
 10
125.48542565
 20
-424.24515275
 10
125.56785525
 20
-424.24888102
 10
125.64982382
 20
-424.26004498
 10
125.73087297
 20
-424.2785822
 10
125.8105495
 20
-424.304389
 10
125.88840785
 20
-424.33732108
 10
125.96401263
 20
-424.37719425
 10
126.03694076
 20
-424.42378554
 10
126.10678467
 20
-424.47683438
 10
126.17315379
 20
-424.5360441
 10
126.23567686
 20
-424.60108358
 10
126.29400405
 20
-424.67158909
 10
126.34780942
 20
-424.74716634
 10
126.39679199
 20
-424.82739267
 10
126.44067796
 20
-424.91181941
 10
126.47922159
 20
-424.99997443
 10
126.5122076
 20
-425.09136471
 10
126.53945137
 20
-425.18547918
 10
126.56080069
 20
-425.2817915
 10
126.57613597
 20
-425.37976306
 10
126.58537165
 20
-425.47884595
 10
126.58845601
 20
-425.57848608
 10
126.58845601
 20
-430.77848608
 10
126.58537165
 20
-430.8781262
 10
126.57613597
 20
-430.9772091
 10
126.56080069
 20
-431.07518065
 10
126.53945137
 20
-431.17149298
 10
126.5122076
 20
-431.26560744
 10
126.47922159
 20
-431.35699773
 10
126.44067796
 20
-431.44515274
 10
126.39679199
 20
-431.52957949
 10
126.34780942
 20
-431.60980581
 10
126.29400405
 20
-431.68538306
 10
126.23567686
 20
-431.75588857
 10
126.17315379
 20
-431.82092805
 10
126.10678467
 20
-431.88013777
 10
126.03694076
 20
-431.93318661
 10
125.96401263
 20
-431.9797779
 10
125.88840785
 20
-432.01965107
 10
125.8105495
 20
-432.05258315
 10
125.73087297
 20
-432.07838996
 10
125.64982382
 20
-432.09692718
 10
125.56785525
 20
-432.10809114
 10
125.48542565
 20
-432.11181941
 10
123.27936494
 20
-432.11181941
  0
LINE
  5
40D
100
AcDbEntity
  8
Mst 1_1
 62
   137
370
    15
100
AcDbLine
 10
91.65063248
 20
-423.17848608
 30
100.0
 11
93.65063248
 21
-424.17848608
 31
100.0
  0
LINE
  5
40E
100
AcDbEntity
  8
Mst 1_1
 62
   137
370
    15
100
AcDbLine
 10
91.65063248
 20
-433.17848608
 30
100.0
 11
91.65063248
 21
-423.17848608
 31
100.0
  0
LINE
  5
40F
100
AcDbEntity
  8
Mst 1_1
 62
   137
370
    15
100
AcDbLine
 10
91.65063248
 20
-433.17848608
 30
100.0
 11
93.65063248
 21
-432.17848608
 31
100.0
  0
LINE
  5
410
100
AcDbEntity
  8
Mst 1_1
 62
   137
370
    15
100
AcDbLine
 10
91.65063248
 20
-423.17848608
 30
100.0
 11
-321.34936752
 21
-423.17848608
 31
100.0
  0
LINE
  5
411
100
AcDbEntity
  8
Mst 1_1
 62
   137
370
    15
100
AcDbLine
 10
91.65063248
 20
-433.17848608
 30
100.0
 11
-321.34936752
 21
-433.17848608
 31
100.0
  0
LINE
  5
412
100
AcDbEntity
  8
Mst 1_1
 62
   137
370
    15
100
AcDbLine
 10
-321.34936752
 20
-423.17848608
 30
100.0
 11
-321.34936752
 21
-433.17848608
 31
100.0
  0
LWPOLYLINE
  5
413
100
AcDbEntity
  8
Mst 1_1
 62
   137
370
    15
100
AcDbPolyline
 90
        5
 70
     0
 43
0.0
 38
100.0
 10
-314.34936752
 20
-425.17848608
 10
-371.84936752
 20
-425.17848608
 10
-371.84936752
 20
-431.17848608
 10
-314.34936752
 20
-431.17848608
 10
-314.34936752
 20
-425.17848608
  0
LWPOLYLINE
  5
414
100
AcDbEntity
  8
Mst 1_1
 62
   137
370
    15
100
AcDbPolyline
 90
        4
 70
     0
 43
0.0
 38
100.0
 10
-314.34936752
 20
-425.17848608
 10
-313.34936752
 20
-426.17848608
 10
-313.34936752
 20
-430.17848608
 10
-314.34936752
 20
-431.17848608
  0
LINE
  5
415
100
AcDbEntity
  8
Mst 1_1
 62
   137
370
    15
100
AcDbLine
 10
-313.34936752
 20
-426.17848608
 30
100.0
 11
-371.84936752
 21
-426.17848608
 31
100.0
  0
LINE
  5
416
100
AcDbEntity
  8
Mst 1_1
 62
   137
370
    15
100
AcDbLine
 10
-313.34936752
 20
-430.17848608
 30
100.0
 11
-371.84936752
 21
-430.17848608
 31
100.0
  0
LWPOLYLINE
  5
417
100
AcDbEntity
  8
Mst 1_1
 62
   137
370
    15
100
AcDbPolyline
 90
        6
 70
     0
 43
0.0
 38
100.0
 10
-373.34936752
 20
-425.17848608
 10
-373.34936752
 20
-419.17848608
 10
-371.84936752
 20
-419.17848608
 10
-371.84936752
 20
-437.17848608
 10
-373.34936752
 20
-437.17848608
 10
-373.34936752
 20
-425.17848608
  0
LWPOLYLINE
  5
418
100
AcDbEntity
  8
Mst 1_1
 62
   137
370
    15
100
AcDbPolyline
 90
        5
 70
     0
 43
0.0
 38
100.0
 10
-373.34936752
 20
-421.37848608
 10
-374.34936752
 20
-421.37848608
 10
-374.34936752
 20
-434.97848608
 10
-373.34936752
 20
-434.97848608
 10
-373.34936752
 20
-421.37848608
  0
LWPOLYLINE
  5
419
100
AcDbEntity
  8
Mst 1_1
 62
   137
370
    15
100
AcDbPolyline
 90
        5
 70
     0
 43
0.0
 38
100.0
 10
-374.34936752
 20
-423.32848608
 10
-375.64936752
 20
-425.02848608
 10
-375.64936752
 20
-431.32848608
 10
-374.34936752
 20
-433.02848608
 10
-374.34936752
 20
-423.32848608
  0
CIRCLE
  5
41A
100
AcDbEntity
  8
Mst 1_1
 62
   137
  6
CONTINUOUS
370
     9
100
AcDbCircle
 10
-436.9250338
 20
-428.17848608
 30
0.0
 40
1.88177431
  0
CIRCLE
  5
41B
100
AcDbEntity
  8
Mst 1_1
 62
   137
  6
CONTINUOUS
370
     9
100
AcDbCircle
 10
-436.9250338
 20
-428.17848608
 30
0.0
 40
1.88177431
  0
CIRCLE
  5
41C
100
AcDbEntity
  8
Mst 1_1
 62
   137
  6
CONTINUOUS
370
     9
100
AcDbCircle
 10
-436.9250338
 20
-428.17848608
 30
0.0
 40
1.88177431
  0
CIRCLE
  5
41D
100
AcDbEntity
  8
Mst 1_1
 62
   137
  6
CONTINUOUS
370
     9
100
AcDbCircle
 10
-436.9250338
 20
-428.17848608
 30
0.0
 40
2.97217223
  0
CIRCLE
  5
41E
100
AcDbEntity
  8
Mst 1_1
 62
   137
  6
CONTINUOUS
370
     9
100
AcDbCircle
 10
-436.9250338
 20
-428.17848608
 30
0.0
 40
4.56609304
  0
CIRCLE
  5
41F
100
AcDbEntity
  8
Mst 1_1
 62
   137
  6
CONTINUOUS
370
     9
100
AcDbCircle
 10
-436.9250338
 20
-428.17848608
 30
0.0
 40
1.9962351
  0
CIRCLE
  5
420
100
AcDbEntity
  8
Mst 1_1
 62
   137
  6
CONTINUOUS
370
     9
100
AcDbCircle
 10
-436.9250338
 20
-428.17848608
 30
0.0
 40
8.74999999
  0
ARC
  5
421
100
AcDbEntity
  8
Mst 1_1
 62
   137
  6
CONTINUOUS
370
    15
100
AcDbCircle
 10
-439.35955338
 20
-428.17848608
 30
0.0
 40
0.53765266
100
AcDbArc
 50
104.00039951
 51
255.99961051
  0
ARC
  5
422
100
AcDbEntity
  8
Mst 1_1
 62
   137
  6
CONTINUOUS
370
    15
100
AcDbCircle
 10
-439.76894583
 20
-429.8204195
 30
0.0
 40
1.15454932
100
AcDbArc
 50
344.00042282
 51
75.99958535
  0
ARC
  5
423
100
AcDbEntity
  8
Mst 1_1
 62
   137
  6
CONTINUOUS
370
    15
100
AcDbCircle
 10
-438.14229355
 20
-430.28684189
 30
0.0
 40
0.53765264
100
AcDbArc
 50
164.00040911
 51
315.99959504
  0
ARC
  5
424
100
AcDbEntity
  8
Mst 1_1
 62
   137
  6
CONTINUOUS
370
    15
100
AcDbCircle
 10
-436.9250338
 20
-431.4623527
 30
0.0
 40
1.15454918
100
AcDbArc
 50
44.00040429
 51
135.99959571
  0
ARC
  5
425
100
AcDbEntity
  8
Mst 1_1
 62
   137
  6
CONTINUOUS
370
    15
100
AcDbCircle
 10
-435.707774
 20
-430.28684197
 30
0.0
 40
0.53765261
100
AcDbArc
 50
224.00041508
 51
15.9996008
  0
ARC
  5
426
100
AcDbEntity
  8
Mst 1_1
 62
   137
  6
CONTINUOUS
370
    15
100
AcDbCircle
 10
-434.49051422
 20
-428.17848608
 30
0.0
 40
0.53765266
100
AcDbArc
 50
284.00040953
 51
75.99960049
  0
ARC
  5
427
100
AcDbEntity
  8
Mst 1_1
 62
   137
  6
CONTINUOUS
370
    15
100
AcDbCircle
 10
-434.08112177
 20
-426.53655266
 30
0.0
 40
1.15454932
100
AcDbArc
 50
164.00041281
 51
255.99959537
  0
ARC
  5
428
100
AcDbEntity
  8
Mst 1_1
 62
   137
  6
CONTINUOUS
370
    15
100
AcDbCircle
 10
-435.70777405
 20
-426.07013027
 30
0.0
 40
0.53765264
100
AcDbArc
 50
344.00041913
 51
135.99958502
  0
ARC
  5
429
100
AcDbEntity
  8
Mst 1_1
 62
   137
  6
CONTINUOUS
370
    15
100
AcDbCircle
 10
-436.9250338
 20
-424.89461945
 30
0.0
 40
1.15454918
100
AcDbArc
 50
224.00041431
 51
315.99960573
  0
ARC
  5
42A
100
AcDbEntity
  8
Mst 1_1
 62
   137
  6
CONTINUOUS
370
    15
100
AcDbCircle
 10
-438.1422936
 20
-426.07013019
 30
0.0
 40
0.53765261
100
AcDbArc
 50
44.00040506
 51
195.99961082
  0
ARC
  5
42B
100
AcDbEntity
  8
Mst 1_1
 62
   137
  6
CONTINUOUS
370
    15
100
AcDbCircle
 10
-439.76894583
 20
-426.53655266
 30
0.0
 40
1.15454932
100
AcDbArc
 50
284.00042461
 51
15.99958726
  0
CIRCLE
  5
42C
100
AcDbEntity
  8
Mst 1_1
 62
   137
  6
CONTINUOUS
370
     9
100
AcDbCircle
 10
-436.9250338
 20
-428.17848608
 30
0.0
 40
6.8
  0
ARC
  5
42D
100
AcDbEntity
  8
Mst 1_1
 62
   137
  6
CONTINUOUS
370
    15
100
AcDbCircle
 10
-434.08112177
 20
-429.8204195
 30
0.0
 40
1.15454932
100
AcDbArc
 50
104.00041459
 51
195.99959727
  0
LINE
  5
42E
100
AcDbEntity
  8
Mst 1_1
 62
     7
  6
DASHED
370
    -3
100
AcDbLine
 10
138.57438413
 20
-408.17848608
 30
0.0
 11
138.57438413
 21
-443.17848608
 31
0.0
  0
LINE
  5
42F
100
AcDbEntity
  8
Mst 1_1
 62
   137
370
    15
100
AcDbLine
 10
146.91889535
 20
-454.17848608
 30
0.0
 11
146.91889535
 21
-462.17848608
 31
0.0
  0
LINE
  5
430
100
AcDbEntity
  8
Mst 1_1
 62
   137
370
    15
100
AcDbLine
 10
146.91889535
 20
-454.89415275
 30
0.0
 11
146.91889535
 21
-461.46281941
 31
0.0
  0
LINE
  5
431
100
AcDbEntity
  8
Mst 1_1
 62
   137
370
    15
100
AcDbLine
 10
146.91889535
 20
-462.17848608
 30
0.0
 11
133.65063248
 21
-462.17848608
 31
0.0
  0
LINE
  5
432
100
AcDbEntity
  8
Mst 1_1
 62
   137
370
    15
100
AcDbLine
 10
146.91889535
 20
-461.79948608
 30
0.0
 11
133.65063248
 21
-461.79948608
 31
0.0
  0
LINE
  5
433
100
AcDbEntity
  8
Mst 1_1
 62
   137
370
    15
100
AcDbLine
 10
146.91889535
 20
-454.17848608
 30
0.0
 11
133.65063248
 21
-454.17848608
 31
0.0
  0
LINE
  5
434
100
AcDbEntity
  8
Mst 1_1
 62
   137
370
    15
100
AcDbLine
 10
146.91889535
 20
-454.55748608
 30
0.0
 11
133.65063248
 21
-454.55748608
 31
0.0
  0
LINE
  5
435
100
AcDbEntity
  8
Mst 1_1
 62
   137
370
    15
100
AcDbLine
 10
147.65063248
 20
-454.55748608
 30
0.0
 11
147.65063248
 21
-461.79948608
 31
0.0
  0
LINE
  5
436
100
AcDbEntity
  8
Mst 1_1
 62
     1
  6
CADWORK_8
370
    15
100
AcDbLine
 10
191.65063248
 20
-458.17848608
 30
0.0
 11
-380.64936752
 21
-458.17848608
 31
0.0
  0
LWPOLYLINE
  5
437
100
AcDbEntity
  8
Mst 1_1
 62
     7
  6
CONTINUOUS
370
    -3
100
AcDbPolyline
 90
        7
 70
     0
 43
0.0
 10
133.65063248
 20
-472.27848608
 10
133.65063248
 20
-462.27848608
 10
184.28349638
 20
-462.27848608
 10
186.65063248
 20
-458.17848608
 10
184.28349638
 20
-454.07848608
 10
133.65063248
 20
-454.07848608
 10
133.65063248
 20
-444.07848608
  0
LINE
  5
438
100
AcDbEntity
  8
Mst 1_1
 62
     1
  6
CADWORK_8
370
    15
100
AcDbLine
 10
133.65063248
 20
-454.17848608
 30
0.0
 11
133.65063248
 21
-462.17848608
 31
0.0
  0
LWPOLYLINE
  5
439
100
AcDbEntity
  8
Mst 1_1
 62
   137
  6
CONTINUOUS
370
    15
100
AcDbPolyline
 90
        3
 70
     0
 43
0.0
 10
146.91889535
 20
-454.17848608
 10
147.65063248
 20
-454.55748608
 10
148.31729915
 20
-454.55748608
  0
LWPOLYLINE
  5
43A
100
AcDbEntity
  8
Mst 1_1
 62
   137
  6
CONTINUOUS
370
    15
100
AcDbPolyline
 90
        3
 70
     0
 43
0.0
 10
146.91889535
 20
-462.17848608
 10
147.65063248
 20
-461.79948608
 10
148.31729915
 20
-461.79948608
  0
LINE
  5
43B
100
AcDbEntity
  8
Mst 1_1
 62
   137
370
    15
100
AcDbLine
 10
148.31729915
 20
-454.17848608
 30
0.0
 11
154.52489977
 21
-454.17848608
 31
0.0
  0
LINE
  5
43C
100
AcDbEntity
  8
Mst 1_1
 62
   137
370
    15
100
AcDbLine
 10
148.31729915
 20
-462.17848608
 30
0.0
 11
154.52489977
 21
-462.17848608
 31
0.0
  0
LINE
  5
43D
100
AcDbEntity
  8
Mst 1_1
 62
   137
370
    15
100
AcDbLine
 10
172.6873749
 20
-454.84003415
 30
0.0
 11
175.34154156
 21
-454.24515275
 31
0.0
  0
LINE
  5
43E
100
AcDbEntity
  8
Mst 1_1
 62
   137
370
    15
100
AcDbLine
 10
172.6873749
 20
-461.516938
 30
0.0
 11
175.34154156
 21
-462.11181941
 31
0.0
  0
LINE
  5
43F
100
AcDbEntity
  8
Mst 1_1
 62
   137
370
    15
100
AcDbLine
 10
177.64578322
 20
-454.24515275
 30
0.0
 11
177.64578322
 21
-462.11181941
 31
0.0
  0
LINE
  5
440
100
AcDbEntity
  8
Mst 1_1
 62
   137
370
    15
100
AcDbLine
 10
175.34154156
 20
-454.24515275
 30
0.0
 11
175.34154156
 21
-462.11181941
 31
0.0
  0
LINE
  5
441
100
AcDbEntity
  8
Mst 1_1
 62
   137
370
    15
100
AcDbLine
 10
148.31729915
 20
-454.17848608
 30
0.0
 11
148.31729915
 21
-462.17848608
 31
0.0
  0
3DFACE
  5
442
100
AcDbEntity
  8
Mst 1_1
 62
   137
  6
CONTINUOUS
370
     9
100
AcDbFace
 70
     0
 10
172.6873749
 20
-457.84515274
 30
1000.0
 11
172.6873749
 21
-454.24515275
 31
1000.0
 12
167.0215017
 22
-454.24515275
 32
1000.0
 13
167.0215017
 23
-457.84515274
 33
1000.0
  0
3DFACE
  5
443
100
AcDbEntity
  8
Mst 1_1
 62
   137
  6
CONTINUOUS
370
     9
100
AcDbFace
 70
     0
 10
172.6873749
 20
-458.51181941
 30
1000.0
 11
172.6873749
 21
-462.11181941
 31
1000.0
 12
167.0215017
 22
-462.11181941
 32
1000.0
 13
167.0215017
 23
-458.51181941
 33
1000.0
  0
LINE
  5
444
100
AcDbEntity
  8
Mst 1_1
 62
   137
370
    15
100
AcDbLine
 10
160.62519833
 20
-454.84003415
 30
0.0
 11
163.27936494
 21
-454.24515275
 31
0.0
  0
LINE
  5
445
100
AcDbEntity
  8
Mst 1_1
 62
   137
370
    15
100
AcDbLine
 10
160.62519833
 20
-461.516938
 30
0.0
 11
163.27936494
 21
-462.11181941
 31
0.0
  0
LINE
  5
446
100
AcDbEntity
  8
Mst 1_1
 62
   137
370
    15
100
AcDbLine
 10
165.58360674
 20
-454.24515275
 30
0.0
 11
165.58360674
 21
-462.11181941
 31
0.0
  0
LINE
  5
447
100
AcDbEntity
  8
Mst 1_1
 62
   137
370
    15
100
AcDbLine
 10
163.27936494
 20
-454.24515275
 30
0.0
 11
163.27936494
 21
-462.11181941
 31
0.0
  0
3DFACE
  5
448
100
AcDbEntity
  8
Mst 1_1
 62
   137
  6
CONTINUOUS
370
     9
100
AcDbFace
 70
     0
 10
160.62519833
 20
-457.84515274
 30
1000.0
 11
160.62519833
 21
-454.24515275
 31
1000.0
 12
154.95932524
 22
-454.24515275
 32
1000.0
 13
154.95932524
 23
-457.84515274
 33
1000.0
  0
3DFACE
  5
449
100
AcDbEntity
  8
Mst 1_1
 62
   137
  6
CONTINUOUS
370
     9
100
AcDbFace
 70
     0
 10
160.62519833
 20
-458.51181941
 30
1000.0
 11
160.62519833
 21
-462.11181941
 31
1000.0
 12
154.95932524
 22
-462.11181941
 32
1000.0
 13
154.95932524
 23
-458.51181941
 33
1000.0
  0
LINE
  5
44A
100
AcDbEntity
  8
Mst 1_1
 62
   137
  6
CONTINUOUS
370
    15
100
AcDbLine
 10
167.0215017
 20
-455.51181941
 30
1000.0
 11
166.58707626
 21
-455.51181941
 31
1000.0
  0
LINE
  5
44B
100
AcDbEntity
  8
Mst 1_1
 62
   137
  6
CONTINUOUS
370
    15
100
AcDbLine
 10
167.0215017
 20
-460.84515274
 30
1000.0
 11
166.58707626
 21
-460.84515274
 31
1000.0
  0
LINE
  5
44C
100
AcDbEntity
  8
Mst 1_1
 62
   137
  6
CONTINUOUS
370
    15
100
AcDbLine
 10
154.95932524
 20
-455.51181941
 30
1000.0
 11
154.52489977
 21
-455.51181941
 31
1000.0
  0
LINE
  5
44D
100
AcDbEntity
  8
Mst 1_1
 62
   137
  6
CONTINUOUS
370
    15
100
AcDbLine
 10
154.95932524
 20
-460.84515274
 30
1000.0
 11
154.52489977
 21
-460.84515274
 31
1000.0
  0
LINE
  5
44E
100
AcDbEntity
  8
Mst 1_1
 62
   137
  6
CONTINUOUS
370
    15
100
AcDbLine
 10
154.52489977
 20
-454.17848608
 30
1000.0
 11
154.52489977
 21
-462.17848608
 31
1000.0
  0
LWPOLYLINE
  5
44F
100
AcDbEntity
  8
Mst 1_1
 62
   137
  6
CONTINUOUS
370
     9
100
AcDbPolyline
 90
       45
 70
     1
 43
0.0
 38
1000.0
 39
-1000.0
 10
154.95932524
 20
-454.24515275
 10
154.95932524
 20
-454.13388215
 10
154.96017755
 20
-454.11738679
 10
154.96272945
 20
-454.10098395
 10
154.96696712
 20
-454.08476564
 10
154.97286625
 20
-454.06882283
 10
154.98039405
 20
-454.05324495
 10
154.9895083
 20
-454.03811938
 10
155.00015784
 20
-454.02353096
 10
155.01228292
 20
-454.00956151
 10
155.02581523
 20
-453.9962894
 10
155.04067944
 20
-453.98378907
 10
155.0567919
 20
-453.97213062
 10
155.07406213
 20
-453.96137948
 10
155.09239319
 20
-453.95159593
 10
155.11168279
 20
-453.94283484
 10
155.13182194
 20
-453.93514538
 10
155.15269841
 20
-453.92857065
 10
155.17419445
 20
-453.92314756
 10
155.19619027
 20
-453.91890651
 10
155.2185618
 20
-453.91587129
 10
155.24118372
 20
-453.91405893
 10
155.26392927
 20
-453.91347959
 10
155.39389201
 20
-453.91438238
 10
155.52382316
 20
-453.91664711
 10
155.65369587
 20
-453.92027333
 10
155.78348267
 20
-453.92526026
 10
155.91315667
 20
-453.93160689
 10
156.04269052
 20
-453.93931186
 10
156.17205734
 20
-453.94837359
 10
156.30123009
 20
-453.95879018
 10
156.43018186
 20
-453.97055943
 10
156.55888589
 20
-453.98367892
 10
156.68731474
 20
-453.99814589
 10
156.81544221
 20
-454.01395733
 10
156.94324125
 20
-454.03110992
 10
157.07068518
 20
-454.04960009
 10
157.19774717
 20
-454.06942398
 10
157.32440127
 20
-454.09057745
 10
157.45062061
 20
-454.11305608
 10
157.57637881
 20
-454.13685518
 10
157.70164976
 20
-454.16196978
 10
157.82640718
 20
-454.18839463
 10
157.95062512
 20
-454.21612422
 10
158.07427777
 20
-454.24515275
  0
LWPOLYLINE
  5
450
100
AcDbEntity
  8
Mst 1_1
 62
   137
  6
CONTINUOUS
370
     9
100
AcDbPolyline
 90
       45
 70
     1
 43
0.0
 38
1000.0
 39
-1000.0
 10
154.95932524
 20
-462.11181941
 10
154.95932524
 20
-462.22309
 10
154.96017755
 20
-462.23958537
 10
154.96272945
 20
-462.25598821
 10
154.96696712
 20
-462.27220651
 10
154.97286625
 20
-462.28814933
 10
154.98039405
 20
-462.3037272
 10
154.9895083
 20
-462.31885278
 10
155.00015784
 20
-462.3334412
 10
155.01228292
 20
-462.34741065
 10
155.02581523
 20
-462.36068276
 10
155.04067944
 20
-462.37318309
 10
155.0567919
 20
-462.38484153
 10
155.07406213
 20
-462.39559268
 10
155.09239319
 20
-462.40537623
 10
155.11168279
 20
-462.41413731
 10
155.13182194
 20
-462.42182677
 10
155.15269841
 20
-462.4284015
 10
155.17419445
 20
-462.4338246
 10
155.19619027
 20
-462.43806564
 10
155.2185618
 20
-462.44110087
 10
155.24118372
 20
-462.44291323
 10
155.26392927
 20
-462.44349257
 10
155.39389201
 20
-462.44258978
 10
155.52382316
 20
-462.44032505
 10
155.65369587
 20
-462.43669882
 10
155.78348267
 20
-462.43171189
 10
155.91315667
 20
-462.42536526
 10
156.04269052
 20
-462.4176603
 10
156.17205734
 20
-462.40859856
 10
156.30123009
 20
-462.39818198
 10
156.43018186
 20
-462.38641272
 10
156.55888589
 20
-462.37329323
 10
156.68731474
 20
-462.35882627
 10
156.81544221
 20
-462.34301482
 10
156.94324125
 20
-462.32586223
 10
157.07068518
 20
-462.30737207
 10
157.19774717
 20
-462.28754817
 10
157.32440127
 20
-462.2663947
 10
157.45062061
 20
-462.24391607
 10
157.57637881
 20
-462.22011697
 10
157.70164976
 20
-462.19500237
 10
157.82640718
 20
-462.16857752
 10
157.95062512
 20
-462.14084794
 10
158.07427777
 20
-462.11181941
  0
LWPOLYLINE
  5
451
100
AcDbEntity
  8
Mst 1_1
 62
   137
  6
CONTINUOUS
370
     9
100
AcDbPolyline
 90
       45
 70
     1
 43
0.0
 38
1000.0
 39
-1000.0
 10
167.0215017
 20
-462.11181941
 10
167.0215017
 20
-462.22309
 10
167.02235403
 20
-462.23958537
 10
167.02490605
 20
-462.25598821
 10
167.0291436
 20
-462.27220651
 10
167.03504287
 20
-462.28814933
 10
167.04257065
 20
-462.3037272
 10
167.05168493
 20
-462.31885278
 10
167.06233431
 20
-462.3334412
 10
167.07445939
 20
-462.34741065
 10
167.08799187
 20
-462.36068276
 10
167.10285606
 20
-462.37318309
 10
167.11896837
 20
-462.38484153
 10
167.1362386
 20
-462.39559268
 10
167.15456981
 20
-462.40537623
 10
167.17385924
 20
-462.41413731
 10
167.19399857
 20
-462.42182677
 10
167.21487489
 20
-462.4284015
 10
167.23637108
 20
-462.4338246
 10
167.25836673
 20
-462.43806564
 10
167.28073813
 20
-462.44110087
 10
167.30336017
 20
-462.44291323
 10
167.32610577
 20
-462.44349257
 10
167.45606849
 20
-462.44258978
 10
167.5859998
 20
-462.44032505
 10
167.7158725
 20
-462.43669882
 10
167.84565929
 20
-462.43171189
 10
167.97533317
 20
-462.42536526
 10
168.10486697
 20
-462.4176603
 10
168.23423395
 20
-462.40859856
 10
168.36340673
 20
-462.39818198
 10
168.49235846
 20
-462.38641272
 10
168.62106234
 20
-462.37329323
 10
168.74949137
 20
-462.35882627
 10
168.87761869
 20
-462.34301482
 10
169.00541773
 20
-462.32586223
 10
169.13286151
 20
-462.30737207
 10
169.25992377
 20
-462.28754817
 10
169.38657775
 20
-462.2663947
 10
169.51279706
 20
-462.24391607
 10
169.63855528
 20
-462.22011697
 10
169.76382626
 20
-462.19500237
 10
169.88858381
 20
-462.16857752
 10
170.01280172
 20
-462.14084794
 10
170.13645424
 20
-462.11181941
  0
LWPOLYLINE
  5
452
100
AcDbEntity
  8
Mst 1_1
 62
   137
  6
CONTINUOUS
370
     9
100
AcDbPolyline
 90
       45
 70
     1
 43
0.0
 38
1000.0
 39
-1000.0
 10
167.0215017
 20
-454.24515275
 10
167.0215017
 20
-454.13388215
 10
167.02235403
 20
-454.11738679
 10
167.02490605
 20
-454.10098395
 10
167.0291436
 20
-454.08476564
 10
167.03504287
 20
-454.06882283
 10
167.04257065
 20
-454.05324495
 10
167.05168493
 20
-454.03811938
 10
167.06233431
 20
-454.02353096
 10
167.07445939
 20
-454.00956151
 10
167.08799187
 20
-453.9962894
 10
167.10285606
 20
-453.98378907
 10
167.11896837
 20
-453.97213062
 10
167.1362386
 20
-453.96137948
 10
167.15456981
 20
-453.95159593
 10
167.17385924
 20
-453.94283484
 10
167.19399857
 20
-453.93514538
 10
167.21487489
 20
-453.92857065
 10
167.23637108
 20
-453.92314756
 10
167.25836673
 20
-453.91890651
 10
167.28073813
 20
-453.91587129
 10
167.30336017
 20
-453.91405893
 10
167.32610577
 20
-453.91347959
 10
167.45606849
 20
-453.91438238
 10
167.5859998
 20
-453.91664711
 10
167.7158725
 20
-453.92027333
 10
167.84565929
 20
-453.92526026
 10
167.97533317
 20
-453.93160689
 10
168.10486697
 20
-453.93931186
 10
168.23423395
 20
-453.94837359
 10
168.36340673
 20
-453.95879018
 10
168.49235846
 20
-453.97055943
 10
168.62106234
 20
-453.98367892
 10
168.74949137
 20
-453.99814589
 10
168.87761869
 20
-454.01395733
 10
169.00541773
 20
-454.03110992
 10
169.13286151
 20
-454.04960009
 10
169.25992377
 20
-454.06942398
 10
169.38657775
 20
-454.09057745
 10
169.51279706
 20
-454.11305608
 10
169.63855528
 20
-454.13685518
 10
169.76382626
 20
-454.16196978
 10
169.88858381
 20
-454.18839463
 10
170.01280172
 20
-454.21612422
 10
170.13645424
 20
-454.24515275
  0
LWPOLYLINE
  5
453
100
AcDbEntity
  8
Mst 1_1
 62
   137
  6
CONTINUOUS
370
    15
100
AcDbPolyline
 90
       46
 70
     0
 43
0.0
 10
175.34154156
 20
-454.24515275
 10
177.54760218
 20
-454.24515275
 10
177.63003174
 20
-454.24888102
 10
177.71200031
 20
-454.26004498
 10
177.7930495
 20
-454.2785822
 10
177.87272607
 20
-454.304389
 10
177.9505844
 20
-454.33732108
 10
178.02618909
 20
-454.37719425
 10
178.09911733
 20
-454.42378554
 10
178.16896127
 20
-454.47683438
 10
178.23533033
 20
-454.5360441
 10
178.29785332
 20
-454.60108358
 10
178.35618061
 20
-454.67158909
 10
178.40998599
 20
-454.74716634
 10
178.45896858
 20
-454.82739267
 10
178.50285444
 20
-454.91181941
 10
178.54139814
 20
-454.99997443
 10
178.57438413
 20
-455.09136471
 10
178.60162794
 20
-455.18547918
 10
178.62297721
 20
-455.2817915
 10
178.63831255
 20
-455.37976306
 10
178.64754819
 20
-455.47884595
 10
178.65063248
 20
-455.57848608
 10
178.65063248
 20
-460.77848608
 10
178.64754819
 20
-460.8781262
 10
178.63831255
 20
-460.9772091
 10
178.62297721
 20
-461.07518065
 10
178.60162794
 20
-461.17149298
 10
178.57438413
 20
-461.26560744
 10
178.54139814
 20
-461.35699773
 10
178.50285444
 20
-461.44515274
 10
178.45896858
 20
-461.52957949
 10
178.40998599
 20
-461.60980581
 10
178.35618061
 20
-461.68538306
 10
178.29785332
 20
-461.75588857
 10
178.23533033
 20
-461.82092805
 10
178.16896127
 20
-461.88013777
 10
178.09911733
 20
-461.93318661
 10
178.02618909
 20
-461.9797779
 10
177.9505844
 20
-462.01965107
 10
177.87272607
 20
-462.05258315
 10
177.7930495
 20
-462.07838996
 10
177.71200031
 20
-462.09692718
 10
177.63003174
 20
-462.10809114
 10
177.54760218
 20
-462.11181941
 10
175.34154156
 20
-462.11181941
  0
LWPOLYLINE
  5
454
100
AcDbEntity
  8
Mst 1_1
 62
   137
  6
CONTINUOUS
370
    15
100
AcDbPolyline
 90
       46
 70
     0
 43
0.0
 10
163.27936494
 20
-454.24515275
 10
165.48542565
 20
-454.24515275
 10
165.56785525
 20
-454.24888102
 10
165.64982382
 20
-454.26004498
 10
165.73087297
 20
-454.2785822
 10
165.8105495
 20
-454.304389
 10
165.88840785
 20
-454.33732108
 10
165.96401263
 20
-454.37719425
 10
166.03694076
 20
-454.42378554
 10
166.10678467
 20
-454.47683438
 10
166.17315379
 20
-454.5360441
 10
166.23567686
 20
-454.60108358
 10
166.29400405
 20
-454.67158909
 10
166.34780942
 20
-454.74716634
 10
166.39679199
 20
-454.82739267
 10
166.44067796
 20
-454.91181941
 10
166.47922159
 20
-454.99997443
 10
166.5122076
 20
-455.09136471
 10
166.53945137
 20
-455.18547918
 10
166.56080069
 20
-455.2817915
 10
166.57613597
 20
-455.37976306
 10
166.58537165
 20
-455.47884595
 10
166.58845601
 20
-455.57848608
 10
166.58845601
 20
-460.77848608
 10
166.58537165
 20
-460.8781262
 10
166.57613597
 20
-460.9772091
 10
166.56080069
 20
-461.07518065
 10
166.53945137
 20
-461.17149298
 10
166.5122076
 20
-461.26560744
 10
166.47922159
 20
-461.35699773
 10
166.44067796
 20
-461.44515274
 10
166.39679199
 20
-461.52957949
 10
166.34780942
 20
-461.60980581
 10
166.29400405
 20
-461.68538306
 10
166.23567686
 20
-461.75588857
 10
166.17315379
 20
-461.82092805
 10
166.10678467
 20
-461.88013777
 10
166.03694076
 20
-461.93318661
 10
165.96401263
 20
-461.9797779
 10
165.88840785
 20
-462.01965107
 10
165.8105495
 20
-462.05258315
 10
165.73087297
 20
-462.07838996
 10
165.64982382
 20
-462.09692718
 10
165.56785525
 20
-462.10809114
 10
165.48542565
 20
-462.11181941
 10
163.27936494
 20
-462.11181941
  0
LINE
  5
455
100
AcDbEntity
  8
Mst 1_1
 62
   137
370
    15
100
AcDbLine
 10
131.65063248
 20
-453.17848608
 30
100.0
 11
133.65063248
 21
-454.17848608
 31
100.0
  0
LINE
  5
456
100
AcDbEntity
  8
Mst 1_1
 62
   137
370
    15
100
AcDbLine
 10
131.65063248
 20
-463.17848608
 30
100.0
 11
131.65063248
 21
-453.17848608
 31
100.0
  0
LINE
  5
457
100
AcDbEntity
  8
Mst 1_1
 62
   137
370
    15
100
AcDbLine
 10
131.65063248
 20
-463.17848608
 30
100.0
 11
133.65063248
 21
-462.17848608
 31
100.0
  0
LINE
  5
458
100
AcDbEntity
  8
Mst 1_1
 62
   137
370
    15
100
AcDbLine
 10
131.65063248
 20
-453.17848608
 30
100.0
 11
-321.34936752
 21
-453.17848608
 31
100.0
  0
LINE
  5
459
100
AcDbEntity
  8
Mst 1_1
 62
   137
370
    15
100
AcDbLine
 10
131.65063248
 20
-463.17848608
 30
100.0
 11
-321.34936752
 21
-463.17848608
 31
100.0
  0
LINE
  5
45A
100
AcDbEntity
  8
Mst 1_1
 62
   137
370
    15
100
AcDbLine
 10
-321.34936752
 20
-453.17848608
 30
100.0
 11
-321.34936752
 21
-463.17848608
 31
100.0
  0
LWPOLYLINE
  5
45B
100
AcDbEntity
  8
Mst 1_1
 62
   137
370
    15
100
AcDbPolyline
 90
        5
 70
     0
 43
0.0
 38
100.0
 10
-314.34936752
 20
-455.17848608
 10
-371.84936752
 20
-455.17848608
 10
-371.84936752
 20
-461.17848608
 10
-314.34936752
 20
-461.17848608
 10
-314.34936752
 20
-455.17848608
  0
LWPOLYLINE
  5
45C
100
AcDbEntity
  8
Mst 1_1
 62
   137
370
    15
100
AcDbPolyline
 90
        4
 70
     0
 43
0.0
 38
100.0
 10
-314.34936752
 20
-455.17848608
 10
-313.34936752
 20
-456.17848608
 10
-313.34936752
 20
-460.17848608
 10
-314.34936752
 20
-461.17848608
  0
LINE
  5
45D
100
AcDbEntity
  8
Mst 1_1
 62
   137
370
    15
100
AcDbLine
 10
-313.34936752
 20
-456.17848608
 30
100.0
 11
-371.84936752
 21
-456.17848608
 31
100.0
  0
LINE
  5
45E
100
AcDbEntity
  8
Mst 1_1
 62
   137
370
    15
100
AcDbLine
 10
-313.34936752
 20
-460.17848608
 30
100.0
 11
-371.84936752
 21
-460.17848608
 31
100.0
  0
LWPOLYLINE
  5
45F
100
AcDbEntity
  8
Mst 1_1
 62
   137
370
    15
100
AcDbPolyline
 90
        6
 70
     0
 43
0.0
 38
100.0
 10
-373.34936752
 20
-455.17848608
 10
-373.34936752
 20
-449.17848608
 10
-371.84936752
 20
-449.17848608
 10
-371.84936752
 20
-467.17848608
 10
-373.34936752
 20
-467.17848608
 10
-373.34936752
 20
-455.17848608
  0
LWPOLYLINE
  5
460
100
AcDbEntity
  8
Mst 1_1
 62
   137
370
    15
100
AcDbPolyline
 90
        5
 70
     0
 43
0.0
 38
100.0
 10
-373.34936752
 20
-451.37848608
 10
-374.34936752
 20
-451.37848608
 10
-374.34936752
 20
-464.97848608
 10
-373.34936752
 20
-464.97848608
 10
-373.34936752
 20
-451.37848608
  0
LWPOLYLINE
  5
461
100
AcDbEntity
  8
Mst 1_1
 62
   137
370
    15
100
AcDbPolyline
 90
        5
 70
     0
 43
0.0
 38
100.0
 10
-374.34936752
 20
-453.32848608
 10
-375.64936752
 20
-455.02848608
 10
-375.64936752
 20
-461.32848608
 10
-374.34936752
 20
-463.02848608
 10
-374.34936752
 20
-453.32848608
  0
CIRCLE
  5
462
100
AcDbEntity
  8
Mst 1_1
 62
   137
  6
CONTINUOUS
370
     9
100
AcDbCircle
 10
-436.9250338
 20
-458.17848608
 30
0.0
 40
1.88177431
  0
CIRCLE
  5
463
100
AcDbEntity
  8
Mst 1_1
 62
   137
  6
CONTINUOUS
370
     9
100
AcDbCircle
 10
-436.9250338
 20
-458.17848608
 30
0.0
 40
1.88177431
  0
CIRCLE
  5
464
100
AcDbEntity
  8
Mst 1_1
 62
   137
  6
CONTINUOUS
370
     9
100
AcDbCircle
 10
-436.9250338
 20
-458.17848608
 30
0.0
 40
1.88177431
  0
CIRCLE
  5
465
100
AcDbEntity
  8
Mst 1_1
 62
   137
  6
CONTINUOUS
370
     9
100
AcDbCircle
 10
-436.9250338
 20
-458.17848608
 30
0.0
 40
2.97217223
  0
CIRCLE
  5
466
100
AcDbEntity
  8
Mst 1_1
 62
   137
  6
CONTINUOUS
370
     9
100
AcDbCircle
 10
-436.9250338
 20
-458.17848608
 30
0.0
 40
4.56609304
  0
CIRCLE
  5
467
100
AcDbEntity
  8
Mst 1_1
 62
   137
  6
CONTINUOUS
370
     9
100
AcDbCircle
 10
-436.9250338
 20
-458.17848608
 30
0.0
 40
1.9962351
  0
CIRCLE
  5
468
100
AcDbEntity
  8
Mst 1_1
 62
   137
  6
CONTINUOUS
370
     9
100
AcDbCircle
 10
-436.9250338
 20
-458.17848608
 30
0.0
 40
8.74999999
  0
ARC
  5
469
100
AcDbEntity
  8
Mst 1_1
 62
   137
  6
CONTINUOUS
370
    15
100
AcDbCircle
 10
-439.35955338
 20
-458.17848608
 30
0.0
 40
0.53765266
100
AcDbArc
 50
104.00039951
 51
255.99961051
  0
ARC
  5
46A
100
AcDbEntity
  8
Mst 1_1
 62
   137
  6
CONTINUOUS
370
    15
100
AcDbCircle
 10
-439.76894583
 20
-459.8204195
 30
0.0
 40
1.15454932
100
AcDbArc
 50
344.00042282
 51
75.99958535
  0
ARC
  5
46B
100
AcDbEntity
  8
Mst 1_1
 62
   137
  6
CONTINUOUS
370
    15
100
AcDbCircle
 10
-438.14229355
 20
-460.28684189
 30
0.0
 40
0.53765264
100
AcDbArc
 50
164.00040911
 51
315.99959504
  0
ARC
  5
46C
100
AcDbEntity
  8
Mst 1_1
 62
   137
  6
CONTINUOUS
370
    15
100
AcDbCircle
 10
-436.9250338
 20
-461.4623527
 30
0.0
 40
1.15454918
100
AcDbArc
 50
44.00040429
 51
135.99959571
  0
ARC
  5
46D
100
AcDbEntity
  8
Mst 1_1
 62
   137
  6
CONTINUOUS
370
    15
100
AcDbCircle
 10
-435.707774
 20
-460.28684197
 30
0.0
 40
0.53765261
100
AcDbArc
 50
224.00041508
 51
15.9996008
  0
ARC
  5
46E
100
AcDbEntity
  8
Mst 1_1
 62
   137
  6
CONTINUOUS
370
    15
100
AcDbCircle
 10
-434.49051422
 20
-458.17848608
 30
0.0
 40
0.53765266
100
AcDbArc
 50
284.00040953
 51
75.99960049
  0
ARC
  5
46F
100
AcDbEntity
  8
Mst 1_1
 62
   137
  6
CONTINUOUS
370
    15
100
AcDbCircle
 10
-434.08112177
 20
-456.53655266
 30
0.0
 40
1.15454932
100
AcDbArc
 50
164.00041281
 51
255.99959537
  0
ARC
  5
470
100
AcDbEntity
  8
Mst 1_1
 62
   137
  6
CONTINUOUS
370
    15
100
AcDbCircle
 10
-435.70777405
 20
-456.07013027
 30
0.0
 40
0.53765264
100
AcDbArc
 50
344.00041913
 51
135.99958502
  0
ARC
  5
471
100
AcDbEntity
  8
Mst 1_1
 62
   137
  6
CONTINUOUS
370
    15
100
AcDbCircle
 10
-436.9250338
 20
-454.89461945
 30
0.0
 40
1.15454918
100
AcDbArc
 50
224.00041431
 51
315.99960573
  0
ARC
  5
472
100
AcDbEntity
  8
Mst 1_1
 62
   137
  6
CONTINUOUS
370
    15
100
AcDbCircle
 10
-438.1422936
 20
-456.07013019
 30
0.0
 40
0.53765261
100
AcDbArc
 50
44.00040506
 51
195.99961082
  0
ARC
  5
473
100
AcDbEntity
  8
Mst 1_1
 62
   137
  6
CONTINUOUS
370
    15
100
AcDbCircle
 10
-439.76894583
 20
-456.53655266
 30
0.0
 40
1.15454932
100
AcDbArc
 50
284.00042461
 51
15.99958726
  0
CIRCLE
  5
474
100
AcDbEntity
  8
Mst 1_1
 62
   137
  6
CONTINUOUS
370
     9
100
AcDbCircle
 10
-436.9250338
 20
-458.17848608
 30
0.0
 40
6.8
  0
ARC
  5
475
100
AcDbEntity
  8
Mst 1_1
 62
   137
  6
CONTINUOUS
370
    15
100
AcDbCircle
 10
-434.08112177
 20
-459.8204195
 30
0.0
 40
1.15454932
100
AcDbArc
 50
104.00041459
 51
195.99959727
  0
LINE
  5
476
100
AcDbEntity
  8
Mst 1_1
 62
     7
  6
DASHED
370
    -3
100
AcDbLine
 10
178.57438413
 20
-438.17848608
 30
0.0
 11
178.57438413
 21
-473.17848608
 31
0.0
  0
LINE
  5
477
100
AcDbEntity
  8
Mst 1_1
 62
     7
  6
DASHED
370
    -3
100
AcDbLine
 10
-326.34936752
 20
-175.17848608
 30
0.0
 11
-326.34936752
 21
-478.17848608
 31
0.0
  0
LINE
  5
478
100
AcDbEntity
  8
Mst 1_1
 62
     7
  6
DASHED
370
    -3
100
AcDbLine
 10
-366.34936752
 20
-143.17848608
 30
0.0
 11
-366.34936752
 21
-478.17848608
 31
0.0
  0
LINE
  5
479
100
AcDbEntity
  8
Mst 1_1
 62
     7
  6
DASHED
370
    -3
100
AcDbLine
 10
-336.34936752
 20
-94.21949637
 30
0.0
 11
-336.34936752
 21
-126.21949637
 31
0.0
  0
TEXT
  5
47A
100
AcDbEntity
  8
Mst 1_1
 62
     7
370
    18
100
AcDbText
 10
-213.51385116
 20
-138.17848608
 30
0.0
 40
5.0
  1
45
  7
ARIAL
 50
89.9999975
 41
0.8
 51
0.0
100
AcDbText
  0
TEXT
  5
47B
100
AcDbEntity
  8
Mst 1_1
 62
     7
370
    18
100
AcDbText
 10
-423.53977889
 20
-160.67848608
 30
0.0
 40
5.0
  1
PSTA 70-100
  7
ARIAL
 50
0.0
 41
0.8
 51
0.0
100
AcDbText
  0
TEXT
  5
47C
100
AcDbEntity
  8
Mst 1_1
 62
     7
370
    18
100
AcDbText
 10
-479.21439866
 20
-160.67848608
 30
0.0
 40
5.0
  1
T-Drive T30
  7
ARIAL
 50
0.0
 41
0.8
 51
0.0
100
AcDbText
  0
TEXT
  5
47D
100
AcDbEntity
  8
Mst 1_1
 62
     7
370
    18
100
AcDbText
 10
-423.53977889
 20
-190.67848608
 30
0.0
 40
5.0
  1
PSTA 100-140
  7
ARIAL
 50
0.0
 41
0.8
 51
0.0
100
AcDbText
  0
TEXT
  5
47E
100
AcDbEntity
  8
Mst 1_1
 62
     7
370
    18
100
AcDbText
 10
-479.21439866
 20
-190.67848608
 30
0.0
 40
5.0
  1
T-Drive T30
  7
ARIAL
 50
0.0
 41
0.8
 51
0.0
100
AcDbText
  0
TEXT
  5
47F
100
AcDbEntity
  8
Mst 1_1
 62
     7
370
    18
100
AcDbText
 10
-176.42561587
 20
-168.17848608
 30
0.0
 40
5.0
  1
45
  7
ARIAL
 50
89.9999975
 41
0.8
 51
0.0
100
AcDbText
  0
TEXT
  5
480
100
AcDbEntity
  8
Mst 1_1
 62
     7
370
    18
100
AcDbText
 10
-423.53977889
 20
-220.67848608
 30
0.0
 40
5.0
  1
PSTA 140-180
  7
ARIAL
 50
0.0
 41
0.8
 51
0.0
100
AcDbText
  0
TEXT
  5
481
100
AcDbEntity
  8
Mst 1_1
 62
     7
370
    18
100
AcDbText
 10
-479.21439866
 20
-220.67848608
 30
0.0
 40
5.0
  1
T-Drive T30
  7
ARIAL
 50
0.0
 41
0.8
 51
0.0
100
AcDbText
  0
TEXT
  5
482
100
AcDbEntity
  8
Mst 1_1
 62
     7
370
    18
100
AcDbText
 10
-136.42561587
 20
-198.17848608
 30
0.0
 40
5.0
  1
45
  7
ARIAL
 50
89.9999975
 41
0.8
 51
0.0
100
AcDbText
  0
TEXT
  5
483
100
AcDbEntity
  8
Mst 1_1
 62
     7
370
    18
100
AcDbText
 10
-423.53977889
 20
-250.67848608
 30
0.0
 40
5.0
  1
PSTA 180-220
  7
ARIAL
 50
0.0
 41
0.8
 51
0.0
100
AcDbText
  0
TEXT
  5
484
100
AcDbEntity
  8
Mst 1_1
 62
     7
370
    18
100
AcDbText
 10
-479.21439866
 20
-250.67848608
 30
0.0
 40
5.0
  1
T-Drive T30
  7
ARIAL
 50
0.0
 41
0.8
 51
0.0
100
AcDbText
  0
TEXT
  5
485
100
AcDbEntity
  8
Mst 1_1
 62
     7
370
    18
100
AcDbText
 10
-96.42561587
 20
-228.17848608
 30
0.0
 40
5.0
  1
45
  7
ARIAL
 50
89.9999975
 41
0.8
 51
0.0
100
AcDbText
  0
TEXT
  5
486
100
AcDbEntity
  8
Mst 1_1
 62
     7
370
    18
100
AcDbText
 10
-423.53977889
 20
-280.67848608
 30
0.0
 40
5.0
  1
PSTA 220-260
  7
ARIAL
 50
0.0
 41
0.8
 51
0.0
100
AcDbText
  0
TEXT
  5
487
100
AcDbEntity
  8
Mst 1_1
 62
     7
370
    18
100
AcDbText
 10
-479.21439866
 20
-280.67848608
 30
0.0
 40
5.0
  1
T-Drive T30
  7
ARIAL
 50
0.0
 41
0.8
 51
0.0
100
AcDbText
  0
TEXT
  5
488
100
AcDbEntity
  8
Mst 1_1
 62
     7
370
    18
100
AcDbText
 10
-56.42561587
 20
-258.17848608
 30
0.0
 40
5.0
  1
45
  7
ARIAL
 50
89.9999975
 41
0.8
 51
0.0
100
AcDbText
  0
TEXT
  5
489
100
AcDbEntity
  8
Mst 1_1
 62
     7
370
    18
100
AcDbText
 10
-423.53977889
 20
-310.67848608
 30
0.0
 40
5.0
  1
PSTA 260-300
  7
ARIAL
 50
0.0
 41
0.8
 51
0.0
100
AcDbText
  0
TEXT
  5
48A
100
AcDbEntity
  8
Mst 1_1
 62
     7
370
    18
100
AcDbText
 10
-479.21439866
 20
-310.67848608
 30
0.0
 40
5.0
  1
T-Drive T30
  7
ARIAL
 50
0.0
 41
0.8
 51
0.0
100
AcDbText
  0
TEXT
  5
48B
100
AcDbEntity
  8
Mst 1_1
 62
     7
370
    18
100
AcDbText
 10
-16.42561587
 20
-288.17848608
 30
0.0
 40
5.0
  1
45
  7
ARIAL
 50
89.9999975
 41
0.8
 51
0.0
100
AcDbText
  0
TEXT
  5
48C
100
AcDbEntity
  8
Mst 1_1
 62
     7
370
    18
100
AcDbText
 10
-423.53977889
 20
-340.67848608
 30
0.0
 40
5.0
  1
PSTA 300-340
  7
ARIAL
 50
0.0
 41
0.8
 51
0.0
100
AcDbText
  0
TEXT
  5
48D
100
AcDbEntity
  8
Mst 1_1
 62
     7
370
    18
100
AcDbText
 10
-479.21439866
 20
-340.67848608
 30
0.0
 40
5.0
  1
T-Drive T30
  7
ARIAL
 50
0.0
 41
0.8
 51
0.0
100
AcDbText
  0
TEXT
  5
48E
100
AcDbEntity
  8
Mst 1_1
 62
     7
370
    18
100
AcDbText
 10
23.57438413
 20
-318.17848608
 30
0.0
 40
5.0
  1
45
  7
ARIAL
 50
89.9999975
 41
0.8
 51
0.0
100
AcDbText
  0
TEXT
  5
48F
100
AcDbEntity
  8
Mst 1_1
 62
     7
370
    18
100
AcDbText
 10
-423.53977889
 20
-370.67848608
 30
0.0
 40
5.0
  1
PSTA 380-420
  7
ARIAL
 50
0.0
 41
0.8
 51
0.0
100
AcDbText
  0
TEXT
  5
490
100
AcDbEntity
  8
Mst 1_1
 62
     7
370
    18
100
AcDbText
 10
-479.21439866
 20
-370.67848608
 30
0.0
 40
5.0
  1
T-Drive T30
  7
ARIAL
 50
0.0
 41
0.8
 51
0.0
100
AcDbText
  0
TEXT
  5
491
100
AcDbEntity
  8
Mst 1_1
 62
     7
370
    18
100
AcDbText
 10
63.57438413
 20
-348.17848608
 30
0.0
 40
5.0
  1
45
  7
ARIAL
 50
89.9999975
 41
0.8
 51
0.0
100
AcDbText
  0
TEXT
  5
492
100
AcDbEntity
  8
Mst 1_1
 62
     7
370
    18
100
AcDbText
 10
-423.53977889
 20
-400.67848608
 30
0.0
 40
5.0
  1
PSTA 420-460
  7
ARIAL
 50
0.0
 41
0.8
 51
0.0
100
AcDbText
  0
TEXT
  5
493
100
AcDbEntity
  8
Mst 1_1
 62
     7
370
    18
100
AcDbText
 10
-479.21439866
 20
-400.67848608
 30
0.0
 40
5.0
  1
T-Drive T30
  7
ARIAL
 50
0.0
 41
0.8
 51
0.0
100
AcDbText
  0
TEXT
  5
494
100
AcDbEntity
  8
Mst 1_1
 62
     7
370
    18
100
AcDbText
 10
103.57438413
 20
-378.17848608
 30
0.0
 40
5.0
  1
45
  7
ARIAL
 50
89.9999975
 41
0.8
 51
0.0
100
AcDbText
  0
TEXT
  5
495
100
AcDbEntity
  8
Mst 1_1
 62
     7
370
    18
100
AcDbText
 10
-423.53977889
 20
-430.67848608
 30
0.0
 40
5.0
  1
PSTA 460-500
  7
ARIAL
 50
0.0
 41
0.8
 51
0.0
100
AcDbText
  0
TEXT
  5
496
100
AcDbEntity
  8
Mst 1_1
 62
     7
370
    18
100
AcDbText
 10
-479.21439866
 20
-430.67848608
 30
0.0
 40
5.0
  1
T-Drive T30
  7
ARIAL
 50
0.0
 41
0.8
 51
0.0
100
AcDbText
  0
TEXT
  5
497
100
AcDbEntity
  8
Mst 1_1
 62
     7
370
    18
100
AcDbText
 10
143.57438413
 20
-408.17848608
 30
0.0
 40
5.0
  1
45
  7
ARIAL
 50
89.9999975
 41
0.8
 51
0.0
100
AcDbText
  0
TEXT
  5
498
100
AcDbEntity
  8
Mst 1_1
 62
     7
370
    18
100
AcDbText
 10
-423.53977889
 20
-460.67848608
 30
0.0
 40
5.0
  1
PSTA 500-540
  7
ARIAL
 50
0.0
 41
0.8
 51
0.0
100
AcDbText
  0
TEXT
  5
499
100
AcDbEntity
  8
Mst 1_1
 62
     7
370
    18
100
AcDbText
 10
-479.21439866
 20
-460.67848608
 30
0.0
 40
5.0
  1
T-Drive T30
  7
ARIAL
 50
0.0
 41
0.8
 51
0.0
100
AcDbText
  0
TEXT
  5
49A
100
AcDbEntity
  8
Mst 1_1
 62
     7
370
    18
100
AcDbText
 10
183.57438413
 20
-438.17848608
 30
0.0
 40
5.0
  1
45
  7
ARIAL
 50
89.9999975
 41
0.8
 51
0.0
100
AcDbText
  0
ENDSEC
  0
SECTION
  2
OBJECTS
  0
DICTIONARY
  5
1
100
AcDbDictionary
  3
ACAD_GROUP
350
2
  3
ACAD_MLINESTYLE
350
3
  0
DICTIONARY
  5
2
102
{CDWK_REACTORS
330
1
102
}
100
AcDbDictionary
  0
DICTIONARY
  5
3
102
{CDWK_REACTORS
330
1
102
}
100
AcDbDictionary
  3
STANDARD
350
4
  0
MLINESTYLE
  5
4
102
{CDWK_REACTORS
330
3
102
}
100
AcDbMlineStyle
  2
STANDARD
 70
     0
  3

 62
     0
 51
90.0
 52
90.0
 71
     2
 49
0.5
 62
   256
  6
BYLAYER
 49
-0.5
 62
   256
  6
BYLAYER
  0
ENDSEC
  0
EOF
